ISO-10303-21;
HEADER;
FILE_DESCRIPTION (( 'STEP AP214' ),
    '1' );
FILE_NAME ('Micro_RNCM-040-2.STEP',
    '2021-09-03T17:40:27',
    ( '' ),
    ( '' ),
    'SwSTEP 2.0',
    'SolidWorks 2020',
    '' );
FILE_SCHEMA (( 'AUTOMOTIVE_DESIGN' ));
ENDSEC;

DATA;
#1 = DIRECTION ( 'NONE',  ( 0.7071067811865487940, 0.0000000000000000000, 0.7071067811865462405 ) ) ;
#2 = SURFACE_STYLE_FILL_AREA ( #18 ) ;
#3 = AXIS2_PLACEMENT_3D ( 'NONE', #58, #115, #222 ) ;
#4 = EDGE_CURVE ( 'NONE', #183, #198, #195, .T. ) ;
#5 =( CONVERSION_BASED_UNIT ( 'INCH', #174 ) LENGTH_UNIT ( ) NAMED_UNIT ( #84 ) );
#6 = ADVANCED_FACE ( 'NONE', ( #199 ), #218, .T. ) ;
#7 = FILL_AREA_STYLE_COLOUR ( '', #102 ) ;
#8 = DIRECTION ( 'NONE',  ( -0.7071067811865487940, -8.659560562354948882E-17, -0.7071067811865462405 ) ) ;
#9 =( GEOMETRIC_REPRESENTATION_CONTEXT ( 3 ) GLOBAL_UNCERTAINTY_ASSIGNED_CONTEXT ( ( #108 ) ) GLOBAL_UNIT_ASSIGNED_CONTEXT ( ( #160, #232, #216 ) ) REPRESENTATION_CONTEXT ( 'NONE', 'WORKASPACE' ) );
#10 = SURFACE_STYLE_FILL_AREA ( #29 ) ;
#11 = EDGE_CURVE ( 'NONE', #48, #104, #94, .T. ) ;
#12 = ORIENTED_EDGE ( 'NONE', *, *, #117, .F. ) ;
#13 = CONICAL_SURFACE ( 'NONE', #233, 0.003936999999999995191, 0.7853981633974501664 ) ;
#14 = ORIENTED_EDGE ( 'NONE', *, *, #142, .T. ) ;
#15 = DIRECTION ( 'NONE',  ( -1.000000000000000000, 0.0000000000000000000, 0.0000000000000000000 ) ) ;
#16 = VERTEX_POINT ( 'NONE', #86 ) ;
#17 = DIRECTION ( 'NONE',  ( -0.0000000000000000000, -0.0000000000000000000, -1.000000000000000000 ) ) ;
#18 = FILL_AREA_STYLE ('',( #168 ) ) ;
#19 = CARTESIAN_POINT ( 'NONE',  ( 0.003936999999999995191, 0.0000000000000000000, 1.968503999999999809 ) ) ;
#20 = CIRCLE ( 'NONE', #64, 0.07874000000000000443 ) ;
#21 = DIMENSIONAL_EXPONENTS ( 1.000000000000000000, 0.0000000000000000000, 0.0000000000000000000, 0.0000000000000000000, 0.0000000000000000000, 0.0000000000000000000, 0.0000000000000000000 ) ;
#22 = CIRCLE ( 'NONE', #220, 0.07874000000000000443 ) ;
#23 = EDGE_CURVE ( 'NONE', #104, #91, #34, .T. ) ;
#24 = FACE_OUTER_BOUND ( 'NONE', #101, .T. ) ;
#25 = CARTESIAN_POINT ( 'NONE',  ( 0.0000000000000000000, 0.0000000000000000000, 0.07480299999999973082 ) ) ;
#26 = ORIENTED_EDGE ( 'NONE', *, *, #212, .F. ) ;
#27 = FACE_OUTER_BOUND ( 'NONE', #205, .T. ) ;
#28 = SURFACE_SIDE_STYLE ('',( #10 ) ) ;
#29 = FILL_AREA_STYLE ('',( #7 ) ) ;
#30 = CIRCLE ( 'NONE', #177, 0.07874000000000000443 ) ;
#31 = DIRECTION ( 'NONE',  ( -0.0000000000000000000, -0.0000000000000000000, -1.000000000000000000 ) ) ;
#32 = DIRECTION ( 'NONE',  ( -1.000000000000000000, 0.0000000000000000000, 0.0000000000000000000 ) ) ;
#33 = CYLINDRICAL_SURFACE ( 'NONE', #213, 0.07874000000000000443 ) ;
#34 = LINE ( 'NONE', #107, #197 ) ;
#35 = ORIENTED_EDGE ( 'NONE', *, *, #4, .T. ) ;
#36 = CARTESIAN_POINT ( 'NONE',  ( 0.0000000000000000000, 0.0000000000000000000, 1.968503999999999809 ) ) ;
#37 = VECTOR ( 'NONE', #8, 39.37007874015748143 ) ;
#38 = ORIENTED_EDGE ( 'NONE', *, *, #4, .F. ) ;
#39 = PRODUCT_DEFINITION_SHAPE ( 'NONE', 'NONE',  #170 ) ;
#40 = LINE ( 'NONE', #116, #159 ) ;
#41 = DIRECTION ( 'NONE',  ( 0.0000000000000000000, 0.0000000000000000000, 1.000000000000000000 ) ) ;
#42 = DIMENSIONAL_EXPONENTS ( 1.000000000000000000, 0.0000000000000000000, 0.0000000000000000000, 0.0000000000000000000, 0.0000000000000000000, 0.0000000000000000000, 0.0000000000000000000 ) ;
#43 =( LENGTH_UNIT ( ) NAMED_UNIT ( * ) SI_UNIT ( $, .METRE. ) );
#44 = VERTEX_POINT ( 'NONE', #49 ) ;
#45 = APPLICATION_CONTEXT ( 'automotive_design' ) ;
#46 = DIRECTION ( 'NONE',  ( 0.0000000000000000000, 0.0000000000000000000, 1.000000000000000000 ) ) ;
#47 = CIRCLE ( 'NONE', #3, 0.003936999999999995191 ) ;
#48 = VERTEX_POINT ( 'NONE', #237 ) ;
#49 = CARTESIAN_POINT ( 'NONE',  ( -0.003936999999999995191, -5.062506170655285717E-18, 1.968503999999999809 ) ) ;
#50 = DIRECTION ( 'NONE',  ( -0.0000000000000000000, -0.0000000000000000000, -1.000000000000000000 ) ) ;
#51 = CONICAL_SURFACE ( 'NONE', #80, 0.003936999999999995191, 0.7853981633974501664 ) ;
#52 = VERTEX_POINT ( 'NONE', #162 ) ;
#53 = UNCERTAINTY_MEASURE_WITH_UNIT (LENGTH_MEASURE( 1.000000000000000082E-05 ), #5, 'distance_accuracy_value', 'NONE');
#54 = ORIENTED_EDGE ( 'NONE', *, *, #215, .F. ) ;
#55 = PRODUCT_RELATED_PRODUCT_CATEGORY ( 'part', '', ( #155 ) ) ;
#56 = CARTESIAN_POINT ( 'NONE',  ( 0.07874000000000000443, 9.642868896486258509E-18, 1.893701000000000301 ) ) ;
#57 = PRESENTATION_STYLE_ASSIGNMENT (( #185 ) ) ;
#58 = CARTESIAN_POINT ( 'NONE',  ( 0.0000000000000000000, 0.0000000000000000000, 1.968503999999999809 ) ) ;
#59 = CARTESIAN_POINT ( 'NONE',  ( -0.07874000000000000443, 0.0000000000000000000, 0.07480299999999973082 ) ) ;
#60 = ORIENTED_EDGE ( 'NONE', *, *, #152, .F. ) ;
#61 = DIRECTION ( 'NONE',  ( 0.0000000000000000000, 0.0000000000000000000, -1.000000000000000000 ) ) ;
#62 = AXIS2_PLACEMENT_3D ( 'NONE', #135, #134, #111 ) ;
#63 = DIRECTION ( 'NONE',  ( 1.000000000000000000, 0.0000000000000000000, 0.0000000000000000000 ) ) ;
#64 = AXIS2_PLACEMENT_3D ( 'NONE', #70, #50, #128 ) ;
#65 = CIRCLE ( 'NONE', #163, 0.003936999999999995191 ) ;
#66 = ORIENTED_EDGE ( 'NONE', *, *, #147, .F. ) ;
#67 = EDGE_CURVE ( 'NONE', #198, #183, #30, .T. ) ;
#68 = CARTESIAN_POINT ( 'NONE',  ( 0.0000000000000000000, 0.0000000000000000000, 1.968503999999999809 ) ) ;
#69 = ORIENTED_EDGE ( 'NONE', *, *, #152, .T. ) ;
#70 = CARTESIAN_POINT ( 'NONE',  ( 0.0000000000000000000, 0.0000000000000000000, 0.07480299999999973082 ) ) ;
#71 = ORIENTED_EDGE ( 'NONE', *, *, #191, .T. ) ;
#72 = EDGE_CURVE ( 'NONE', #91, #52, #20, .T. ) ;
#73 = CARTESIAN_POINT ( 'NONE',  ( 0.0000000000000000000, 0.0000000000000000000, 0.0000000000000000000 ) ) ;
#74 = ADVANCED_FACE ( 'NONE', ( #202 ), #33, .T. ) ;
#75 = PRODUCT_DEFINITION_FORMATION_WITH_SPECIFIED_SOURCE ( 'ANY', '', #155, .NOT_KNOWN. ) ;
#76 = CARTESIAN_POINT ( 'NONE',  ( -0.003936999999999995191, 5.062506170655285717E-18, 0.0000000000000000000 ) ) ;
#77 = DIRECTION ( 'NONE',  ( -0.0000000000000000000, -0.0000000000000000000, -1.000000000000000000 ) ) ;
#78 = UNCERTAINTY_MEASURE_WITH_UNIT (LENGTH_MEASURE( 1.000000000000000082E-05 ), #186, 'distance_accuracy_value', 'NONE');
#79 = FACE_OUTER_BOUND ( 'NONE', #243, .T. ) ;
#80 = AXIS2_PLACEMENT_3D ( 'NONE', #99, #46, #139 ) ;
#81 = DIRECTION ( 'NONE',  ( 1.000000000000000000, 0.0000000000000000000, -0.0000000000000000000 ) ) ;
#82 =( NAMED_UNIT ( * ) PLANE_ANGLE_UNIT ( ) SI_UNIT ( $, .RADIAN. ) );
#83 = AXIS2_PLACEMENT_3D ( 'NONE', #229, #166, #201 ) ;
#84 = DIMENSIONAL_EXPONENTS ( 1.000000000000000000, 0.0000000000000000000, 0.0000000000000000000, 0.0000000000000000000, 0.0000000000000000000, 0.0000000000000000000, 0.0000000000000000000 ) ;
#85 = CARTESIAN_POINT ( 'NONE',  ( 0.0000000000000000000, 0.0000000000000000000, 0.0000000000000000000 ) ) ;
#86 = CARTESIAN_POINT ( 'NONE',  ( 0.003936999999999995191, 0.0000000000000000000, 1.968503999999999809 ) ) ;
#87 = ORIENTED_EDGE ( 'NONE', *, *, #117, .T. ) ;
#88 = DIRECTION ( 'NONE',  ( 0.0000000000000000000, 0.0000000000000000000, -1.000000000000000000 ) ) ;
#89 = ADVANCED_FACE ( 'NONE', ( #165 ), #95, .T. ) ;
#90 = APPLICATION_PROTOCOL_DEFINITION ( 'draft international standard', 'automotive_design', 1998, #45 ) ;
#91 = VERTEX_POINT ( 'NONE', #59 ) ;
#92 = MANIFOLD_SOLID_BREP ( 'Mirror1', #156 ) ;
#93 = VECTOR ( 'NONE', #225, 39.37007874015748143 ) ;
#94 = CIRCLE ( 'NONE', #238, 0.003936999999999995191 ) ;
#95 = PLANE ( 'NONE',  #62 ) ;
#96 = DIRECTION ( 'NONE',  ( 0.0000000000000000000, 0.0000000000000000000, 1.000000000000000000 ) ) ;
#97 = EDGE_CURVE ( 'NONE', #16, #198, #149, .T. ) ;
#98 = CARTESIAN_POINT ( 'NONE',  ( 0.0000000000000000000, 0.0000000000000000000, 0.0000000000000000000 ) ) ;
#99 = CARTESIAN_POINT ( 'NONE',  ( 0.0000000000000000000, 0.0000000000000000000, 0.0000000000000000000 ) ) ;
#100 = PLANE ( 'NONE',  #188 ) ;
#101 = EDGE_LOOP ( 'NONE', ( #221, #203, #110, #176 ) ) ;
#102 = COLOUR_RGB ( '',0.7921568627450980005, 0.8196078431372548767, 0.9333333333333333481 ) ;
#103 =( NAMED_UNIT ( * ) SI_UNIT ( $, .STERADIAN. ) SOLID_ANGLE_UNIT ( ) );
#104 = VERTEX_POINT ( 'NONE', #76 ) ;
#105 = ORIENTED_EDGE ( 'NONE', *, *, #97, .T. ) ;
#106 = CARTESIAN_POINT ( 'NONE',  ( 0.0000000000000000000, 0.0000000000000000000, 1.968503999999999809 ) ) ;
#107 = CARTESIAN_POINT ( 'NONE',  ( -0.003936999999999995191, 4.821434448243123477E-19, 0.0000000000000000000 ) ) ;
#108 = UNCERTAINTY_MEASURE_WITH_UNIT (LENGTH_MEASURE( 1.000000000000000082E-05 ), #160, 'distance_accuracy_value', 'NONE');
#109 = APPLICATION_CONTEXT ( 'automotive_design' ) ;
#110 = ORIENTED_EDGE ( 'NONE', *, *, #175, .T. ) ;
#111 = DIRECTION ( 'NONE',  ( 1.000000000000000000, 0.0000000000000000000, -0.0000000000000000000 ) ) ;
#112 = LENGTH_MEASURE_WITH_UNIT ( LENGTH_MEASURE( 0.02539999999999999897 ), #209 );
#113 = DIRECTION ( 'NONE',  ( -1.000000000000000000, 0.0000000000000000000, 0.0000000000000000000 ) ) ;
#114 =( GEOMETRIC_REPRESENTATION_CONTEXT ( 3 ) GLOBAL_UNCERTAINTY_ASSIGNED_CONTEXT ( ( #78 ) ) GLOBAL_UNIT_ASSIGNED_CONTEXT ( ( #186, #247, #206 ) ) REPRESENTATION_CONTEXT ( 'NONE', 'WORKASPACE' ) );
#115 = DIRECTION ( 'NONE',  ( 0.0000000000000000000, 0.0000000000000000000, -1.000000000000000000 ) ) ;
#116 = CARTESIAN_POINT ( 'NONE',  ( 0.07874000000000000443, 9.642868896486258509E-18, 1.968503999999999809 ) ) ;
#117 = EDGE_CURVE ( 'NONE', #104, #48, #194, .T. ) ;
#118 = APPLICATION_PROTOCOL_DEFINITION ( 'draft international standard', 'automotive_design', 1998, #109 ) ;
#119 = STYLED_ITEM ( 'NONE', ( #57 ), #92 ) ;
#120 = PRESENTATION_STYLE_ASSIGNMENT (( #196 ) ) ;
#121 = FACE_OUTER_BOUND ( 'NONE', #145, .T. ) ;
#122 = EDGE_LOOP ( 'NONE', ( #35, #71, #148, #60 ) ) ;
#123 = CARTESIAN_POINT ( 'NONE',  ( -0.003936999999999995191, -4.821434448243123477E-19, 1.968503999999999809 ) ) ;
#124 = AXIS2_PLACEMENT_3D ( 'NONE', #98, #96, #172 ) ;
#125 = SHAPE_DEFINITION_REPRESENTATION ( #39, #235 ) ;
#126 = ORIENTED_EDGE ( 'NONE', *, *, #11, .T. ) ;
#127 = ORIENTED_EDGE ( 'NONE', *, *, #212, .T. ) ;
#128 = DIRECTION ( 'NONE',  ( -1.000000000000000000, 0.0000000000000000000, 0.0000000000000000000 ) ) ;
#129 = DIRECTION ( 'NONE',  ( -1.000000000000000000, 0.0000000000000000000, 0.0000000000000000000 ) ) ;
#130 = PRODUCT_CONTEXT ( 'NONE', #109, 'mechanical' ) ;
#131 = DIRECTION ( 'NONE',  ( -1.000000000000000000, 0.0000000000000000000, 0.0000000000000000000 ) ) ;
#132 = DIRECTION ( 'NONE',  ( 0.0000000000000000000, 0.0000000000000000000, -1.000000000000000000 ) ) ;
#133 = PRESENTATION_LAYER_ASSIGNMENT (  '', '', ( #249 ) ) ;
#134 = DIRECTION ( 'NONE',  ( 0.0000000000000000000, 0.0000000000000000000, 1.000000000000000000 ) ) ;
#135 = CARTESIAN_POINT ( 'NONE',  ( 0.0000000000000000000, 0.0000000000000000000, 1.968503999999999809 ) ) ;
#136 = ORIENTED_EDGE ( 'NONE', *, *, #67, .T. ) ;
#137 = MECHANICAL_DESIGN_GEOMETRIC_PRESENTATION_REPRESENTATION (  '', ( #119 ), #114 ) ;
#138 = CARTESIAN_POINT ( 'NONE',  ( -0.07874000000000000443, 0.0000000000000000000, 1.968503999999999809 ) ) ;
#139 = DIRECTION ( 'NONE',  ( 1.000000000000000000, 0.0000000000000000000, 0.0000000000000000000 ) ) ;
#140 = COLOUR_RGB ( '',0.7921568627450980005, 0.8196078431372548767, 0.9333333333333333481 ) ;
#141 = ORIENTED_EDGE ( 'NONE', *, *, #72, .T. ) ;
#142 = EDGE_CURVE ( 'NONE', #16, #44, #47, .T. ) ;
#143 = DIRECTION ( 'NONE',  ( -1.000000000000000000, 0.0000000000000000000, 0.0000000000000000000 ) ) ;
#144 = EDGE_LOOP ( 'NONE', ( #14, #127, #245, #179 ) ) ;
#145 = EDGE_LOOP ( 'NONE', ( #12, #153, #141, #164 ) ) ;
#146 = ADVANCED_FACE ( 'NONE', ( #208 ), #13, .T. ) ;
#147 = EDGE_CURVE ( 'NONE', #52, #91, #22, .T. ) ;
#148 = ORIENTED_EDGE ( 'NONE', *, *, #72, .F. ) ;
#149 = LINE ( 'NONE', #19, #180 ) ;
#150 = VECTOR ( 'NONE', #1, 39.37007874015748143 ) ;
#151 = DIRECTION ( 'NONE',  ( 1.000000000000000000, 0.0000000000000000000, 0.0000000000000000000 ) ) ;
#152 = EDGE_CURVE ( 'NONE', #183, #91, #187, .T. ) ;
#153 = ORIENTED_EDGE ( 'NONE', *, *, #23, .T. ) ;
#154 = CARTESIAN_POINT ( 'NONE',  ( -0.07874000000000000443, 0.0000000000000000000, 1.893701000000000301 ) ) ;
#155 = PRODUCT ( 'Micro_RNCM-040-2', 'Micro_RNCM-040-2', '', ( #130 ) ) ;
#156 = CLOSED_SHELL ( 'NONE', ( #146, #246, #74, #6, #161, #226, #204, #89 ) ) ;
#157 = DIRECTION ( 'NONE',  ( 0.0000000000000000000, 0.0000000000000000000, -1.000000000000000000 ) ) ;
#158 = LENGTH_MEASURE_WITH_UNIT ( LENGTH_MEASURE( 0.02539999999999999897 ), #234 );
#159 = VECTOR ( 'NONE', #190, 39.37007874015748143 ) ;
#160 =( CONVERSION_BASED_UNIT ( 'INCH', #158 ) LENGTH_UNIT ( ) NAMED_UNIT ( #21 ) );
#161 = ADVANCED_FACE ( 'NONE', ( #24 ), #228, .T. ) ;
#162 = CARTESIAN_POINT ( 'NONE',  ( 0.07874000000000000443, 9.642868896486258509E-18, 0.07480299999999973082 ) ) ;
#163 = AXIS2_PLACEMENT_3D ( 'NONE', #193, #157, #231 ) ;
#164 = ORIENTED_EDGE ( 'NONE', *, *, #175, .F. ) ;
#165 = FACE_OUTER_BOUND ( 'NONE', #241, .T. ) ;
#166 = DIRECTION ( 'NONE',  ( 0.0000000000000000000, 0.0000000000000000000, 1.000000000000000000 ) ) ;
#167 = CARTESIAN_POINT ( 'NONE',  ( 0.0000000000000000000, 0.0000000000000000000, 1.893701000000000301 ) ) ;
#168 = FILL_AREA_STYLE_COLOUR ( '', #140 ) ;
#169 = CARTESIAN_POINT ( 'NONE',  ( 0.0000000000000000000, 0.0000000000000000000, 0.0000000000000000000 ) ) ;
#170 = PRODUCT_DEFINITION ( 'UNKNOWN', '', #75, #239 ) ;
#171 = CARTESIAN_POINT ( 'NONE',  ( 0.003936999999999995191, 0.0000000000000000000, 0.0000000000000000000 ) ) ;
#172 = DIRECTION ( 'NONE',  ( 1.000000000000000000, 0.0000000000000000000, 0.0000000000000000000 ) ) ;
#173 = AXIS2_PLACEMENT_3D ( 'NONE', #36, #132, #63 ) ;
#174 = LENGTH_MEASURE_WITH_UNIT ( LENGTH_MEASURE( 0.02539999999999999897 ), #43 );
#175 = EDGE_CURVE ( 'NONE', #48, #52, #211, .T. ) ;
#176 = ORIENTED_EDGE ( 'NONE', *, *, #147, .T. ) ;
#177 = AXIS2_PLACEMENT_3D ( 'NONE', #217, #200, #32 ) ;
#178 = ORIENTED_EDGE ( 'NONE', *, *, #191, .F. ) ;
#179 = ORIENTED_EDGE ( 'NONE', *, *, #97, .F. ) ;
#180 = VECTOR ( 'NONE', #248, 39.37007874015748143 ) ;
#181 = DIRECTION ( 'NONE',  ( -0.0000000000000000000, -0.0000000000000000000, -1.000000000000000000 ) ) ;
#182 = DIRECTION ( 'NONE',  ( -0.7071067811865487940, 8.659560562354948882E-17, 0.7071067811865462405 ) ) ;
#183 = VERTEX_POINT ( 'NONE', #154 ) ;
#184 = CONICAL_SURFACE ( 'NONE', #173, 0.003936999999999995191, 0.7853981633974501664 ) ;
#185 = SURFACE_STYLE_USAGE ( .BOTH. , #223 ) ;
#186 =( CONVERSION_BASED_UNIT ( 'INCH', #112 ) LENGTH_UNIT ( ) NAMED_UNIT ( #42 ) );
#187 = LINE ( 'NONE', #138, #93 ) ;
#188 = AXIS2_PLACEMENT_3D ( 'NONE', #85, #41, #81 ) ;
#189 = CARTESIAN_POINT ( 'NONE',  ( 0.0000000000000000000, 0.0000000000000000000, 1.968503999999999809 ) ) ;
#190 = DIRECTION ( 'NONE',  ( -0.0000000000000000000, -0.0000000000000000000, -1.000000000000000000 ) ) ;
#191 = EDGE_CURVE ( 'NONE', #198, #52, #40, .T. ) ;
#192 = EDGE_LOOP ( 'NONE', ( #178, #136, #69, #66 ) ) ;
#193 = CARTESIAN_POINT ( 'NONE',  ( 0.0000000000000000000, 0.0000000000000000000, 1.968503999999999809 ) ) ;
#194 = CIRCLE ( 'NONE', #207, 0.003936999999999995191 ) ;
#195 = CIRCLE ( 'NONE', #242, 0.07874000000000000443 ) ;
#196 = SURFACE_STYLE_USAGE ( .BOTH. , #28 ) ;
#197 = VECTOR ( 'NONE', #182, 39.37007874015748143 ) ;
#198 = VERTEX_POINT ( 'NONE', #56 ) ;
#199 = FACE_OUTER_BOUND ( 'NONE', #192, .T. ) ;
#200 = DIRECTION ( 'NONE',  ( 0.0000000000000000000, 0.0000000000000000000, -1.000000000000000000 ) ) ;
#201 = DIRECTION ( 'NONE',  ( 1.000000000000000000, 0.0000000000000000000, 0.0000000000000000000 ) ) ;
#202 = FACE_OUTER_BOUND ( 'NONE', #122, .T. ) ;
#203 = ORIENTED_EDGE ( 'NONE', *, *, #11, .F. ) ;
#204 = ADVANCED_FACE ( 'NONE', ( #79 ), #184, .T. ) ;
#205 = EDGE_LOOP ( 'NONE', ( #126, #87 ) ) ;
#206 =( NAMED_UNIT ( * ) SI_UNIT ( $, .STERADIAN. ) SOLID_ANGLE_UNIT ( ) );
#207 = AXIS2_PLACEMENT_3D ( 'NONE', #169, #77, #224 ) ;
#208 = FACE_OUTER_BOUND ( 'NONE', #144, .T. ) ;
#209 =( LENGTH_UNIT ( ) NAMED_UNIT ( * ) SI_UNIT ( $, .METRE. ) );
#210 = MECHANICAL_DESIGN_GEOMETRIC_PRESENTATION_REPRESENTATION (  '', ( #249 ), #9 ) ;
#211 = LINE ( 'NONE', #171, #150 ) ;
#212 = EDGE_CURVE ( 'NONE', #44, #183, #214, .T. ) ;
#213 = AXIS2_PLACEMENT_3D ( 'NONE', #106, #181, #15 ) ;
#214 = LINE ( 'NONE', #123, #37 ) ;
#215 = EDGE_CURVE ( 'NONE', #44, #16, #65, .T. ) ;
#216 =( NAMED_UNIT ( * ) SI_UNIT ( $, .STERADIAN. ) SOLID_ANGLE_UNIT ( ) );
#217 = CARTESIAN_POINT ( 'NONE',  ( 0.0000000000000000000, 0.0000000000000000000, 1.893701000000000301 ) ) ;
#218 = CYLINDRICAL_SURFACE ( 'NONE', #230, 0.07874000000000000443 ) ;
#219 = ORIENTED_EDGE ( 'NONE', *, *, #142, .F. ) ;
#220 = AXIS2_PLACEMENT_3D ( 'NONE', #25, #227, #113 ) ;
#221 = ORIENTED_EDGE ( 'NONE', *, *, #23, .F. ) ;
#222 = DIRECTION ( 'NONE',  ( -1.000000000000000000, 0.0000000000000000000, 0.0000000000000000000 ) ) ;
#223 = SURFACE_SIDE_STYLE ('',( #2 ) ) ;
#224 = DIRECTION ( 'NONE',  ( -1.000000000000000000, 0.0000000000000000000, 0.0000000000000000000 ) ) ;
#225 = DIRECTION ( 'NONE',  ( -0.0000000000000000000, -0.0000000000000000000, -1.000000000000000000 ) ) ;
#226 = ADVANCED_FACE ( 'NONE', ( #27 ), #100, .F. ) ;
#227 = DIRECTION ( 'NONE',  ( -0.0000000000000000000, -0.0000000000000000000, -1.000000000000000000 ) ) ;
#228 = CONICAL_SURFACE ( 'NONE', #124, 0.003936999999999995191, 0.7853981633974501664 ) ;
#229 = CARTESIAN_POINT ( 'NONE',  ( 0.0000000000000000000, 0.0000000000000000000, 0.0000000000000000000 ) ) ;
#230 = AXIS2_PLACEMENT_3D ( 'NONE', #68, #17, #131 ) ;
#231 = DIRECTION ( 'NONE',  ( -1.000000000000000000, 0.0000000000000000000, 0.0000000000000000000 ) ) ;
#232 =( NAMED_UNIT ( * ) PLANE_ANGLE_UNIT ( ) SI_UNIT ( $, .RADIAN. ) );
#233 = AXIS2_PLACEMENT_3D ( 'NONE', #189, #61, #151 ) ;
#234 =( LENGTH_UNIT ( ) NAMED_UNIT ( * ) SI_UNIT ( $, .METRE. ) );
#235 = ADVANCED_BREP_SHAPE_REPRESENTATION ( 'Micro_RNCM-040-2', ( #92, #83 ), #236 ) ;
#236 =( GEOMETRIC_REPRESENTATION_CONTEXT ( 3 ) GLOBAL_UNCERTAINTY_ASSIGNED_CONTEXT ( ( #53 ) ) GLOBAL_UNIT_ASSIGNED_CONTEXT ( ( #5, #82, #103 ) ) REPRESENTATION_CONTEXT ( 'NONE', 'WORKASPACE' ) );
#237 = CARTESIAN_POINT ( 'NONE',  ( 0.003936999999999995191, 0.0000000000000000000, 0.0000000000000000000 ) ) ;
#238 = AXIS2_PLACEMENT_3D ( 'NONE', #73, #31, #129 ) ;
#239 = PRODUCT_DEFINITION_CONTEXT ( 'detailed design', #45, 'design' ) ;
#240 = ORIENTED_EDGE ( 'NONE', *, *, #215, .T. ) ;
#241 = EDGE_LOOP ( 'NONE', ( #219, #54 ) ) ;
#242 = AXIS2_PLACEMENT_3D ( 'NONE', #167, #88, #143 ) ;
#243 = EDGE_LOOP ( 'NONE', ( #26, #240, #105, #38 ) ) ;
#244 = PRESENTATION_LAYER_ASSIGNMENT (  '', '', ( #119 ) ) ;
#245 = ORIENTED_EDGE ( 'NONE', *, *, #67, .F. ) ;
#246 = ADVANCED_FACE ( 'NONE', ( #121 ), #51, .T. ) ;
#247 =( NAMED_UNIT ( * ) PLANE_ANGLE_UNIT ( ) SI_UNIT ( $, .RADIAN. ) );
#248 = DIRECTION ( 'NONE',  ( 0.7071067811865487940, 0.0000000000000000000, -0.7071067811865462405 ) ) ;
#249 = STYLED_ITEM ( 'NONE', ( #120 ), #235 ) ;
ENDSEC;
END-ISO-10303-21;
