ISO-10303-21;
HEADER;
FILE_DESCRIPTION (( 'STEP AP214' ),
    '1' );
FILE_NAME ('Micro_GEMM-120-2X.STEP',
    '2021-09-01T21:58:30',
    ( '' ),
    ( '' ),
    'SwSTEP 2.0',
    'SolidWorks 2020',
    '' );
FILE_SCHEMA (( 'AUTOMOTIVE_DESIGN' ));
ENDSEC;

DATA;
#1 =( NAMED_UNIT ( * ) PLANE_ANGLE_UNIT ( ) SI_UNIT ( $, .RADIAN. ) );
#2 = ORIENTED_EDGE ( 'NONE', *, *, #246, .F. ) ;
#3 = CARTESIAN_POINT ( 'NONE',  ( 0.0000000000000000000, 0.0000000000000000000, 3.267717000000000649 ) ) ;
#4 = ORIENTED_EDGE ( 'NONE', *, *, #135, .F. ) ;
#5 = PRESENTATION_STYLE_ASSIGNMENT (( #228 ) ) ;
#6 = CONICAL_SURFACE ( 'NONE', #64, 0.2359842795000000326, 0.1745329251994338360 ) ;
#7 = STYLED_ITEM ( 'NONE', ( #205 ), #141 ) ;
#8 = CARTESIAN_POINT ( 'NONE',  ( -0.2362204999999998889, 0.0000000000000000000, 0.8674816730270707987 ) ) ;
#9 = CARTESIAN_POINT ( 'NONE',  ( 0.2212205000000019295, 2.801018282243833685E-17, 3.267717000000000649 ) ) ;
#10 = CONICAL_SURFACE ( 'NONE', #107, 0.2212205000000019295, 0.7853981633974482790 ) ;
#11 = CLOSED_SHELL ( 'NONE', ( #119, #158, #149, #71, #99, #286, #225, #13, #33, #190 ) ) ;
#12 = ORIENTED_EDGE ( 'NONE', *, *, #246, .T. ) ;
#13 = ADVANCED_FACE ( 'NONE', ( #125 ), #6, .T. ) ;
#14 = CARTESIAN_POINT ( 'NONE',  ( 0.0000000000000000000, 0.0000000000000000000, 0.0000000000000000000 ) ) ;
#15 = DIRECTION ( 'NONE',  ( 1.224646799147353454E-16, 0.0000000000000000000, 1.000000000000000000 ) ) ;
#16 = EDGE_LOOP ( 'NONE', ( #258, #12, #28, #46 ) ) ;
#17 = CARTESIAN_POINT ( 'NONE',  ( 0.0000000000000000000, 0.0000000000000000000, 0.0000000000000000000 ) ) ;
#18 = PRODUCT_DEFINITION ( 'UNKNOWN', '', #108, #106 ) ;
#19 = AXIS2_PLACEMENT_3D ( 'NONE', #14, #247, #34 ) ;
#20 = FACE_OUTER_BOUND ( 'NONE', #68, .T. ) ;
#21 = ORIENTED_EDGE ( 'NONE', *, *, #292, .T. ) ;
#22 = ORIENTED_EDGE ( 'NONE', *, *, #84, .T. ) ;
#23 = AXIS2_PLACEMENT_3D ( 'NONE', #17, #200, #291 ) ;
#24 = FILL_AREA_STYLE_COLOUR ( '', #53 ) ;
#25 = DIRECTION ( 'NONE',  ( 0.0000000000000000000, 0.0000000000000000000, 1.000000000000000000 ) ) ;
#26 = DIRECTION ( 'NONE',  ( 1.000000000000000000, 0.0000000000000000000, 0.0000000000000000000 ) ) ;
#27 = LINE ( 'NONE', #220, #280 ) ;
#28 = ORIENTED_EDGE ( 'NONE', *, *, #298, .F. ) ;
#29 = VECTOR ( 'NONE', #177, 39.37007874015748143 ) ;
#30 = AXIS2_PLACEMENT_3D ( 'NONE', #110, #299, #281 ) ;
#31 = CARTESIAN_POINT ( 'NONE',  ( -0.2359842795000000049, 0.0000000000000000000, 5.779947850775388659E-17 ) ) ;
#32 = LINE ( 'NONE', #184, #160 ) ;
#33 = ADVANCED_FACE ( 'NONE', ( #20 ), #101, .T. ) ;
#34 = DIRECTION ( 'NONE',  ( -1.000000000000000000, 0.0000000000000000000, 1.224646799147353454E-16 ) ) ;
#35 = VECTOR ( 'NONE', #242, 39.37007874015748143 ) ;
#36 = EDGE_LOOP ( 'NONE', ( #256, #277, #50, #279 ) ) ;
#37 = DIRECTION ( 'NONE',  ( 0.0000000000000000000, 0.0000000000000000000, 1.000000000000000000 ) ) ;
#38 = CARTESIAN_POINT ( 'NONE',  ( 0.2362204999999999999, 2.892866792179872647E-17, 3.252717000000002301 ) ) ;
#39 = CYLINDRICAL_SURFACE ( 'NONE', #271, 0.2362204999999999999 ) ;
#40 = FACE_OUTER_BOUND ( 'NONE', #72, .T. ) ;
#41 = VECTOR ( 'NONE', #215, 39.37007874015747433 ) ;
#42 = FACE_OUTER_BOUND ( 'NONE', #67, .T. ) ;
#43 = LENGTH_MEASURE_WITH_UNIT ( LENGTH_MEASURE( 0.02539999999999999897 ), #163 );
#44 = CIRCLE ( 'NONE', #178, 0.2359842795000000049 ) ;
#45 = AXIS2_PLACEMENT_3D ( 'NONE', #223, #262, #65 ) ;
#46 = ORIENTED_EDGE ( 'NONE', *, *, #255, .F. ) ;
#47 = ORIENTED_EDGE ( 'NONE', *, *, #135, .T. ) ;
#48 = ADVANCED_BREP_SHAPE_REPRESENTATION ( 'Micro_GEMM-120-2X', ( #141, #30 ), #100 ) ;
#49 = EDGE_CURVE ( 'NONE', #201, #186, #102, .T. ) ;
#50 = ORIENTED_EDGE ( 'NONE', *, *, #235, .T. ) ;
#51 = ORIENTED_EDGE ( 'NONE', *, *, #229, .F. ) ;
#52 = CARTESIAN_POINT ( 'NONE',  ( -0.2359842794999999493, 2.889973925387694330E-17, 0.8661419999999999675 ) ) ;
#53 = COLOUR_RGB ( '',0.7921568627450980005, 0.8196078431372548767, 0.9333333333333333481 ) ;
#54 =( CONVERSION_BASED_UNIT ( 'INCH', #218 ) LENGTH_UNIT ( ) NAMED_UNIT ( #209 ) );
#55 = DIRECTION ( 'NONE',  ( 0.1736481776669313304, 0.0000000000000000000, 0.9848077530122077983 ) ) ;
#56 = CARTESIAN_POINT ( 'NONE',  ( 0.0000000000000000000, 0.0000000000000000000, 3.267717000000000649 ) ) ;
#57 = CARTESIAN_POINT ( 'NONE',  ( -0.2362204999999999999, 0.0000000000000000000, 3.252717000000002301 ) ) ;
#58 = CARTESIAN_POINT ( 'NONE',  ( 0.0000000000000000000, 0.0000000000000000000, 3.267717000000000649 ) ) ;
#59 = ORIENTED_EDGE ( 'NONE', *, *, #114, .F. ) ;
#60 = DIRECTION ( 'NONE',  ( 0.0000000000000000000, 0.0000000000000000000, -1.000000000000000000 ) ) ;
#61 = DIRECTION ( 'NONE',  ( -1.000000000000000000, 0.0000000000000000000, 0.0000000000000000000 ) ) ;
#62 = AXIS2_PLACEMENT_3D ( 'NONE', #202, #37, #196 ) ;
#63 = EDGE_CURVE ( 'NONE', #175, #142, #117, .T. ) ;
#64 = AXIS2_PLACEMENT_3D ( 'NONE', #83, #173, #267 ) ;
#65 = DIRECTION ( 'NONE',  ( -1.000000000000000000, 0.0000000000000000000, 0.0000000000000000000 ) ) ;
#66 =( LENGTH_UNIT ( ) NAMED_UNIT ( * ) SI_UNIT ( $, .METRE. ) );
#67 = EDGE_LOOP ( 'NONE', ( #239, #22, #216, #4 ) ) ;
#68 = EDGE_LOOP ( 'NONE', ( #120, #169, #132, #263 ) ) ;
#69 =( GEOMETRIC_REPRESENTATION_CONTEXT ( 3 ) GLOBAL_UNCERTAINTY_ASSIGNED_CONTEXT ( ( #198 ) ) GLOBAL_UNIT_ASSIGNED_CONTEXT ( ( #54, #182, #273 ) ) REPRESENTATION_CONTEXT ( 'NONE', 'WORKASPACE' ) );
#70 = SHAPE_DEFINITION_REPRESENTATION ( #121, #48 ) ;
#71 = ADVANCED_FACE ( 'NONE', ( #42 ), #39, .T. ) ;
#72 = EDGE_LOOP ( 'NONE', ( #233, #123 ) ) ;
#73 = FACE_OUTER_BOUND ( 'NONE', #16, .T. ) ;
#74 = ORIENTED_EDGE ( 'NONE', *, *, #126, .T. ) ;
#75 = PRODUCT ( 'Micro_GEMM-120-2X', 'Micro_GEMM-120-2X', '', ( #94 ) ) ;
#76 = LINE ( 'NONE', #131, #29 ) ;
#77 = DIRECTION ( 'NONE',  ( -0.7071067811865474617, 0.0000000000000000000, -0.7071067811865474617 ) ) ;
#78 = EDGE_LOOP ( 'NONE', ( #2, #116, #214, #194 ) ) ;
#79 = AXIS2_PLACEMENT_3D ( 'NONE', #181, #276, #140 ) ;
#80 = LINE ( 'NONE', #293, #35 ) ;
#81 = CARTESIAN_POINT ( 'NONE',  ( 3.539197317345352573E-33, 0.0000000000000000000, 2.889973925387694330E-17 ) ) ;
#82 = UNCERTAINTY_MEASURE_WITH_UNIT (LENGTH_MEASURE( 1.000000000000000082E-05 ), #254, 'distance_accuracy_value', 'NONE');
#83 = CARTESIAN_POINT ( 'NONE',  ( 1.060718027907087028E-16, 0.0000000000000000000, 0.8661419999999999675 ) ) ;
#84 = EDGE_CURVE ( 'NONE', #118, #143, #153, .T. ) ;
#85 = PRESENTATION_LAYER_ASSIGNMENT (  '', '', ( #260 ) ) ;
#86 = APPLICATION_PROTOCOL_DEFINITION ( 'draft international standard', 'automotive_design', 1998, #96 ) ;
#87 = SURFACE_STYLE_FILL_AREA ( #272 ) ;
#88 = DIRECTION ( 'NONE',  ( -1.000000000000000000, 0.0000000000000000000, 0.0000000000000000000 ) ) ;
#89 = CONICAL_SURFACE ( 'NONE', #284, 0.2212205000000019295, 0.7853981633974482790 ) ;
#90 = DIRECTION ( 'NONE',  ( -1.224646799147353454E-16, -0.0000000000000000000, -1.000000000000000000 ) ) ;
#91 = CARTESIAN_POINT ( 'NONE',  ( 0.0000000000000000000, 0.0000000000000000000, 3.252717000000002301 ) ) ;
#92 = CARTESIAN_POINT ( 'NONE',  ( 1.062358654191593257E-16, 0.0000000000000000000, 0.8674816730270707987 ) ) ;
#93 = PRESENTATION_LAYER_ASSIGNMENT (  '', '', ( #7 ) ) ;
#94 = PRODUCT_CONTEXT ( 'NONE', #96, 'mechanical' ) ;
#95 = ORIENTED_EDGE ( 'NONE', *, *, #114, .T. ) ;
#96 = APPLICATION_CONTEXT ( 'automotive_design' ) ;
#97 = VERTEX_POINT ( 'NONE', #124 ) ;
#98 = DIRECTION ( 'NONE',  ( -1.224646799147353454E-16, -0.0000000000000000000, -1.000000000000000000 ) ) ;
#99 = ADVANCED_FACE ( 'NONE', ( #105 ), #243, .T. ) ;
#100 =( GEOMETRIC_REPRESENTATION_CONTEXT ( 3 ) GLOBAL_UNCERTAINTY_ASSIGNED_CONTEXT ( ( #268 ) ) GLOBAL_UNIT_ASSIGNED_CONTEXT ( ( #251, #1, #183 ) ) REPRESENTATION_CONTEXT ( 'NONE', 'WORKASPACE' ) );
#101 = CYLINDRICAL_SURFACE ( 'NONE', #19, 0.2359842795000000326 ) ;
#102 = CIRCLE ( 'NONE', #115, 0.2359842795000000049 ) ;
#103 = FILL_AREA_STYLE_COLOUR ( '', #144 ) ;
#104 = EDGE_LOOP ( 'NONE', ( #168, #211 ) ) ;
#105 = FACE_OUTER_BOUND ( 'NONE', #294, .T. ) ;
#106 = PRODUCT_DEFINITION_CONTEXT ( 'detailed design', #192, 'design' ) ;
#107 = AXIS2_PLACEMENT_3D ( 'NONE', #236, #60, #164 ) ;
#108 = PRODUCT_DEFINITION_FORMATION_WITH_SPECIFIED_SOURCE ( 'ANY', '', #75, .NOT_KNOWN. ) ;
#109 = DIRECTION ( 'NONE',  ( 0.0000000000000000000, 0.0000000000000000000, -1.000000000000000000 ) ) ;
#110 = CARTESIAN_POINT ( 'NONE',  ( 0.0000000000000000000, 0.0000000000000000000, 0.0000000000000000000 ) ) ;
#111 = FACE_OUTER_BOUND ( 'NONE', #78, .T. ) ;
#112 =( NAMED_UNIT ( * ) PLANE_ANGLE_UNIT ( ) SI_UNIT ( $, .RADIAN. ) );
#113 = AXIS2_PLACEMENT_3D ( 'NONE', #285, #127, #219 ) ;
#114 = EDGE_CURVE ( 'NONE', #143, #191, #159, .T. ) ;
#115 = AXIS2_PLACEMENT_3D ( 'NONE', #81, #98, #249 ) ;
#116 = ORIENTED_EDGE ( 'NONE', *, *, #266, .F. ) ;
#117 = CIRCLE ( 'NONE', #113, 0.2212205000000019295 ) ;
#118 = VERTEX_POINT ( 'NONE', #38 ) ;
#119 = ADVANCED_FACE ( 'NONE', ( #195 ), #287, .T. ) ;
#120 = ORIENTED_EDGE ( 'NONE', *, *, #126, .F. ) ;
#121 = PRODUCT_DEFINITION_SHAPE ( 'NONE', 'NONE',  #18 ) ;
#122 = CARTESIAN_POINT ( 'NONE',  ( 0.0000000000000000000, 0.0000000000000000000, 3.267717000000000649 ) ) ;
#123 = ORIENTED_EDGE ( 'NONE', *, *, #49, .T. ) ;
#124 = CARTESIAN_POINT ( 'NONE',  ( 0.2359842795000001436, 0.0000000000000000000, 0.8661419999999999675 ) ) ;
#125 = FACE_OUTER_BOUND ( 'NONE', #129, .T. ) ;
#126 = EDGE_CURVE ( 'NONE', #97, #201, #80, .T. ) ;
#127 = DIRECTION ( 'NONE',  ( 0.0000000000000000000, 0.0000000000000000000, 1.000000000000000000 ) ) ;
#128 = PLANE ( 'NONE',  #62 ) ;
#129 = EDGE_LOOP ( 'NONE', ( #213, #154, #171, #95 ) ) ;
#130 = MECHANICAL_DESIGN_GEOMETRIC_PRESENTATION_REPRESENTATION (  '', ( #260 ), #248 ) ;
#131 = CARTESIAN_POINT ( 'NONE',  ( -0.2362204999999999999, 0.0000000000000000000, 3.267717000000000649 ) ) ;
#132 = ORIENTED_EDGE ( 'NONE', *, *, #278, .T. ) ;
#133 = SURFACE_SIDE_STYLE ('',( #157 ) ) ;
#134 = ORIENTED_EDGE ( 'NONE', *, *, #84, .F. ) ;
#135 = EDGE_CURVE ( 'NONE', #139, #191, #76, .T. ) ;
#136 = SURFACE_STYLE_USAGE ( .BOTH. , #133 ) ;
#137 = LENGTH_MEASURE_WITH_UNIT ( LENGTH_MEASURE( 0.02539999999999999897 ), #66 );
#138 = MECHANICAL_DESIGN_GEOMETRIC_PRESENTATION_REPRESENTATION (  '', ( #7 ), #69 ) ;
#139 = VERTEX_POINT ( 'NONE', #57 ) ;
#140 = DIRECTION ( 'NONE',  ( 1.000000000000000000, 0.0000000000000000000, 0.0000000000000000000 ) ) ;
#141 = MANIFOLD_SOLID_BREP ( 'Cut-Revolve1', #11 ) ;
#142 = VERTEX_POINT ( 'NONE', #282 ) ;
#143 = VERTEX_POINT ( 'NONE', #145 ) ;
#144 = COLOUR_RGB ( '',0.7921568627450980005, 0.8196078431372548767, 0.9333333333333333481 ) ;
#145 = CARTESIAN_POINT ( 'NONE',  ( 0.2362205000000001109, 2.892866792179873879E-17, 0.8674816730270707987 ) ) ;
#146 = CARTESIAN_POINT ( 'NONE',  ( 0.2359842795000000049, 2.889973925387693713E-17, -3.791200677927629740E-33 ) ) ;
#147 = DIRECTION ( 'NONE',  ( -1.224646799147353454E-16, -0.0000000000000000000, -1.000000000000000000 ) ) ;
#148 =( LENGTH_UNIT ( ) NAMED_UNIT ( * ) SI_UNIT ( $, .METRE. ) );
#149 = ADVANCED_FACE ( 'NONE', ( #73 ), #89, .T. ) ;
#150 = CIRCLE ( 'NONE', #45, 0.2359842795000000326 ) ;
#151 = CARTESIAN_POINT ( 'NONE',  ( 0.2362204999999999999, 2.892866792179872647E-17, 3.267717000000000649 ) ) ;
#152 = DIRECTION ( 'NONE',  ( 1.000000000000000000, 0.0000000000000000000, 0.0000000000000000000 ) ) ;
#153 = LINE ( 'NONE', #151, #297 ) ;
#154 = ORIENTED_EDGE ( 'NONE', *, *, #250, .F. ) ;
#155 = DIRECTION ( 'NONE',  ( -1.224646799147353454E-16, -0.0000000000000000000, -1.000000000000000000 ) ) ;
#156 = AXIS2_PLACEMENT_3D ( 'NONE', #244, #15, #197 ) ;
#157 = SURFACE_STYLE_FILL_AREA ( #270 ) ;
#158 = ADVANCED_FACE ( 'NONE', ( #179 ), #167, .T. ) ;
#159 = CIRCLE ( 'NONE', #193, 0.2362204999999999999 ) ;
#160 = VECTOR ( 'NONE', #162, 39.37007874015748854 ) ;
#161 = LINE ( 'NONE', #207, #227 ) ;
#162 = DIRECTION ( 'NONE',  ( 0.7071067811865474617, 8.659560562354932858E-17, -0.7071067811865474617 ) ) ;
#163 =( LENGTH_UNIT ( ) NAMED_UNIT ( * ) SI_UNIT ( $, .METRE. ) );
#164 = DIRECTION ( 'NONE',  ( -1.000000000000000000, 0.0000000000000000000, 0.0000000000000000000 ) ) ;
#165 = DIRECTION ( 'NONE',  ( 1.000000000000000000, 0.0000000000000000000, -0.0000000000000000000 ) ) ;
#166 = DIMENSIONAL_EXPONENTS ( 1.000000000000000000, 0.0000000000000000000, 0.0000000000000000000, 0.0000000000000000000, 0.0000000000000000000, 0.0000000000000000000, 0.0000000000000000000 ) ;
#167 = CONICAL_SURFACE ( 'NONE', #156, 0.2359842795000000326, 0.1745329251994338360 ) ;
#168 = ORIENTED_EDGE ( 'NONE', *, *, #266, .T. ) ;
#169 = ORIENTED_EDGE ( 'NONE', *, *, #250, .T. ) ;
#170 = EDGE_CURVE ( 'NONE', #97, #143, #283, .T. ) ;
#171 = ORIENTED_EDGE ( 'NONE', *, *, #170, .T. ) ;
#172 = VECTOR ( 'NONE', #55, 39.37007874015748143 ) ;
#173 = DIRECTION ( 'NONE',  ( 1.224646799147353454E-16, 0.0000000000000000000, 1.000000000000000000 ) ) ;
#174 = DIRECTION ( 'NONE',  ( -1.000000000000000000, 0.0000000000000000000, 1.224646799147353454E-16 ) ) ;
#175 = VERTEX_POINT ( 'NONE', #9 ) ;
#176 = DIRECTION ( 'NONE',  ( -0.0000000000000000000, -0.0000000000000000000, -1.000000000000000000 ) ) ;
#177 = DIRECTION ( 'NONE',  ( -0.0000000000000000000, -0.0000000000000000000, -1.000000000000000000 ) ) ;
#178 = AXIS2_PLACEMENT_3D ( 'NONE', #237, #240, #174 ) ;
#179 = FACE_OUTER_BOUND ( 'NONE', #36, .T. ) ;
#180 =( NAMED_UNIT ( * ) SI_UNIT ( $, .STERADIAN. ) SOLID_ANGLE_UNIT ( ) );
#181 = CARTESIAN_POINT ( 'NONE',  ( 0.0000000000000000000, 0.0000000000000000000, 3.267717000000000649 ) ) ;
#182 =( NAMED_UNIT ( * ) PLANE_ANGLE_UNIT ( ) SI_UNIT ( $, .RADIAN. ) );
#183 =( NAMED_UNIT ( * ) SI_UNIT ( $, .STERADIAN. ) SOLID_ANGLE_UNIT ( ) );
#184 = CARTESIAN_POINT ( 'NONE',  ( 0.2212205000000019295, 2.709169772307794108E-17, 3.267717000000000649 ) ) ;
#185 = CIRCLE ( 'NONE', #199, 0.2362204999999999999 ) ;
#186 = VERTEX_POINT ( 'NONE', #31 ) ;
#187 = FACE_OUTER_BOUND ( 'NONE', #104, .T. ) ;
#188 = APPLICATION_PROTOCOL_DEFINITION ( 'draft international standard', 'automotive_design', 1998, #192 ) ;
#189 = CIRCLE ( 'NONE', #275, 0.2359842795000000326 ) ;
#190 = ADVANCED_FACE ( 'NONE', ( #40 ), #128, .F. ) ;
#191 = VERTEX_POINT ( 'NONE', #8 ) ;
#192 = APPLICATION_CONTEXT ( 'automotive_design' ) ;
#193 = AXIS2_PLACEMENT_3D ( 'NONE', #203, #147, #245 ) ;
#194 = ORIENTED_EDGE ( 'NONE', *, *, #292, .F. ) ;
#195 = FACE_OUTER_BOUND ( 'NONE', #210, .T. ) ;
#196 = DIRECTION ( 'NONE',  ( 1.000000000000000000, 0.0000000000000000000, -0.0000000000000000000 ) ) ;
#197 = DIRECTION ( 'NONE',  ( 1.000000000000000000, 0.0000000000000000000, 0.0000000000000000000 ) ) ;
#198 = UNCERTAINTY_MEASURE_WITH_UNIT (LENGTH_MEASURE( 1.000000000000000082E-05 ), #54, 'distance_accuracy_value', 'NONE');
#199 = AXIS2_PLACEMENT_3D ( 'NONE', #226, #109, #26 ) ;
#200 = DIRECTION ( 'NONE',  ( -1.224646799147353454E-16, -0.0000000000000000000, -1.000000000000000000 ) ) ;
#201 = VERTEX_POINT ( 'NONE', #146 ) ;
#202 = CARTESIAN_POINT ( 'NONE',  ( 0.0000000000000000000, 0.0000000000000000000, 0.0000000000000000000 ) ) ;
#203 = CARTESIAN_POINT ( 'NONE',  ( 1.062358654191593257E-16, 0.0000000000000000000, 0.8674816730270707987 ) ) ;
#204 = EDGE_CURVE ( 'NONE', #238, #191, #241, .T. ) ;
#205 = PRESENTATION_STYLE_ASSIGNMENT (( #136 ) ) ;
#206 = PRODUCT_RELATED_PRODUCT_CATEGORY ( 'part', '', ( #75 ) ) ;
#207 = CARTESIAN_POINT ( 'NONE',  ( -0.2359842795000000326, 0.0000000000000000000, 2.889973925387694330E-17 ) ) ;
#208 = CIRCLE ( 'NONE', #290, 0.2362204999999999999 ) ;
#209 = DIMENSIONAL_EXPONENTS ( 1.000000000000000000, 0.0000000000000000000, 0.0000000000000000000, 0.0000000000000000000, 0.0000000000000000000, 0.0000000000000000000, 0.0000000000000000000 ) ;
#210 = EDGE_LOOP ( 'NONE', ( #224, #74, #51, #264 ) ) ;
#211 = ORIENTED_EDGE ( 'NONE', *, *, #63, .T. ) ;
#212 = AXIS2_PLACEMENT_3D ( 'NONE', #56, #269, #221 ) ;
#213 = ORIENTED_EDGE ( 'NONE', *, *, #204, .F. ) ;
#214 = ORIENTED_EDGE ( 'NONE', *, *, #255, .T. ) ;
#215 = DIRECTION ( 'NONE',  ( -0.1736481776669311639, 2.126576849575782392E-17, 0.9848077530122080203 ) ) ;
#216 = ORIENTED_EDGE ( 'NONE', *, *, #235, .F. ) ;
#217 = DIRECTION ( 'NONE',  ( -0.0000000000000000000, -0.0000000000000000000, -1.000000000000000000 ) ) ;
#218 = LENGTH_MEASURE_WITH_UNIT ( LENGTH_MEASURE( 0.02539999999999999897 ), #148 );
#219 = DIRECTION ( 'NONE',  ( 1.000000000000000000, 0.0000000000000000000, 0.0000000000000000000 ) ) ;
#220 = CARTESIAN_POINT ( 'NONE',  ( -0.2212205000000019295, 0.0000000000000000000, 3.267717000000000649 ) ) ;
#221 = DIRECTION ( 'NONE',  ( -1.000000000000000000, 0.0000000000000000000, 0.0000000000000000000 ) ) ;
#222 = CIRCLE ( 'NONE', #79, 0.2212205000000019295 ) ;
#223 = CARTESIAN_POINT ( 'NONE',  ( 1.060718027907087028E-16, 0.0000000000000000000, 0.8661419999999999675 ) ) ;
#224 = ORIENTED_EDGE ( 'NONE', *, *, #259, .T. ) ;
#225 = ADVANCED_FACE ( 'NONE', ( #111 ), #10, .T. ) ;
#226 = CARTESIAN_POINT ( 'NONE',  ( 0.0000000000000000000, 0.0000000000000000000, 3.252717000000002301 ) ) ;
#227 = VECTOR ( 'NONE', #90, 39.37007874015748143 ) ;
#228 = SURFACE_STYLE_USAGE ( .BOTH. , #234 ) ;
#229 = EDGE_CURVE ( 'NONE', #186, #201, #44, .T. ) ;
#230 = PLANE ( 'NONE',  #265 ) ;
#231 = DIRECTION ( 'NONE',  ( 1.000000000000000000, 0.0000000000000000000, 0.0000000000000000000 ) ) ;
#232 = DIMENSIONAL_EXPONENTS ( 1.000000000000000000, 0.0000000000000000000, 0.0000000000000000000, 0.0000000000000000000, 0.0000000000000000000, 0.0000000000000000000, 0.0000000000000000000 ) ;
#233 = ORIENTED_EDGE ( 'NONE', *, *, #229, .T. ) ;
#234 = SURFACE_SIDE_STYLE ('',( #87 ) ) ;
#235 = EDGE_CURVE ( 'NONE', #191, #143, #208, .T. ) ;
#236 = CARTESIAN_POINT ( 'NONE',  ( 0.0000000000000000000, 0.0000000000000000000, 3.267717000000000649 ) ) ;
#237 = CARTESIAN_POINT ( 'NONE',  ( 3.539197317345352573E-33, 0.0000000000000000000, 2.889973925387694330E-17 ) ) ;
#238 = VERTEX_POINT ( 'NONE', #288 ) ;
#239 = ORIENTED_EDGE ( 'NONE', *, *, #298, .T. ) ;
#240 = DIRECTION ( 'NONE',  ( -1.224646799147353454E-16, -0.0000000000000000000, -1.000000000000000000 ) ) ;
#241 = LINE ( 'NONE', #52, #41 ) ;
#242 = DIRECTION ( 'NONE',  ( -1.224646799147353454E-16, -0.0000000000000000000, -1.000000000000000000 ) ) ;
#243 = CYLINDRICAL_SURFACE ( 'NONE', #212, 0.2362204999999999999 ) ;
#244 = CARTESIAN_POINT ( 'NONE',  ( 1.060718027907087028E-16, 0.0000000000000000000, 0.8661419999999999675 ) ) ;
#245 = DIRECTION ( 'NONE',  ( 1.000000000000000000, 0.0000000000000000000, 0.0000000000000000000 ) ) ;
#246 = EDGE_CURVE ( 'NONE', #175, #118, #32, .T. ) ;
#247 = DIRECTION ( 'NONE',  ( -1.224646799147353454E-16, -0.0000000000000000000, -1.000000000000000000 ) ) ;
#248 =( GEOMETRIC_REPRESENTATION_CONTEXT ( 3 ) GLOBAL_UNCERTAINTY_ASSIGNED_CONTEXT ( ( #82 ) ) GLOBAL_UNIT_ASSIGNED_CONTEXT ( ( #254, #112, #180 ) ) REPRESENTATION_CONTEXT ( 'NONE', 'WORKASPACE' ) );
#249 = DIRECTION ( 'NONE',  ( -1.000000000000000000, 0.0000000000000000000, 1.224646799147353454E-16 ) ) ;
#250 = EDGE_CURVE ( 'NONE', #97, #238, #189, .T. ) ;
#251 =( CONVERSION_BASED_UNIT ( 'INCH', #137 ) LENGTH_UNIT ( ) NAMED_UNIT ( #232 ) );
#252 = CIRCLE ( 'NONE', #289, 0.2362204999999999999 ) ;
#253 = DIRECTION ( 'NONE',  ( 0.0000000000000000000, 0.0000000000000000000, -1.000000000000000000 ) ) ;
#254 =( CONVERSION_BASED_UNIT ( 'INCH', #43 ) LENGTH_UNIT ( ) NAMED_UNIT ( #166 ) );
#255 = EDGE_CURVE ( 'NONE', #142, #139, #27, .T. ) ;
#256 = ORIENTED_EDGE ( 'NONE', *, *, #259, .F. ) ;
#257 = DIRECTION ( 'NONE',  ( -1.000000000000000000, 0.0000000000000000000, 0.0000000000000000000 ) ) ;
#258 = ORIENTED_EDGE ( 'NONE', *, *, #63, .F. ) ;
#259 = EDGE_CURVE ( 'NONE', #238, #97, #150, .T. ) ;
#260 = STYLED_ITEM ( 'NONE', ( #5 ), #48 ) ;
#261 = CARTESIAN_POINT ( 'NONE',  ( 0.2359842795000001436, 0.0000000000000000000, 0.8661419999999999675 ) ) ;
#262 = DIRECTION ( 'NONE',  ( -1.224646799147353454E-16, -0.0000000000000000000, -1.000000000000000000 ) ) ;
#263 = ORIENTED_EDGE ( 'NONE', *, *, #49, .F. ) ;
#264 = ORIENTED_EDGE ( 'NONE', *, *, #278, .F. ) ;
#265 = AXIS2_PLACEMENT_3D ( 'NONE', #3, #25, #165 ) ;
#266 = EDGE_CURVE ( 'NONE', #142, #175, #222, .T. ) ;
#267 = DIRECTION ( 'NONE',  ( 1.000000000000000000, 0.0000000000000000000, 0.0000000000000000000 ) ) ;
#268 = UNCERTAINTY_MEASURE_WITH_UNIT (LENGTH_MEASURE( 1.000000000000000082E-05 ), #251, 'distance_accuracy_value', 'NONE');
#269 = DIRECTION ( 'NONE',  ( -0.0000000000000000000, -0.0000000000000000000, -1.000000000000000000 ) ) ;
#270 = FILL_AREA_STYLE ('',( #103 ) ) ;
#271 = AXIS2_PLACEMENT_3D ( 'NONE', #58, #217, #61 ) ;
#272 = FILL_AREA_STYLE ('',( #24 ) ) ;
#273 =( NAMED_UNIT ( * ) SI_UNIT ( $, .STERADIAN. ) SOLID_ANGLE_UNIT ( ) );
#274 = DIRECTION ( 'NONE',  ( -1.224646799147353454E-16, -0.0000000000000000000, -1.000000000000000000 ) ) ;
#275 = AXIS2_PLACEMENT_3D ( 'NONE', #295, #274, #257 ) ;
#276 = DIRECTION ( 'NONE',  ( 0.0000000000000000000, 0.0000000000000000000, 1.000000000000000000 ) ) ;
#277 = ORIENTED_EDGE ( 'NONE', *, *, #204, .T. ) ;
#278 = EDGE_CURVE ( 'NONE', #238, #186, #161, .T. ) ;
#279 = ORIENTED_EDGE ( 'NONE', *, *, #170, .F. ) ;
#280 = VECTOR ( 'NONE', #77, 39.37007874015748854 ) ;
#281 = DIRECTION ( 'NONE',  ( 1.000000000000000000, 0.0000000000000000000, 0.0000000000000000000 ) ) ;
#282 = CARTESIAN_POINT ( 'NONE',  ( -0.2212205000000019295, 0.0000000000000000000, 3.267717000000000649 ) ) ;
#283 = LINE ( 'NONE', #261, #172 ) ;
#284 = AXIS2_PLACEMENT_3D ( 'NONE', #122, #296, #88 ) ;
#285 = CARTESIAN_POINT ( 'NONE',  ( 0.0000000000000000000, 0.0000000000000000000, 3.267717000000000649 ) ) ;
#286 = ADVANCED_FACE ( 'NONE', ( #187 ), #230, .T. ) ;
#287 = CYLINDRICAL_SURFACE ( 'NONE', #23, 0.2359842795000000326 ) ;
#288 = CARTESIAN_POINT ( 'NONE',  ( -0.2359842794999999493, 2.891420358783783796E-17, 0.8661419999999999675 ) ) ;
#289 = AXIS2_PLACEMENT_3D ( 'NONE', #91, #253, #231 ) ;
#290 = AXIS2_PLACEMENT_3D ( 'NONE', #92, #155, #152 ) ;
#291 = DIRECTION ( 'NONE',  ( -1.000000000000000000, 0.0000000000000000000, 1.224646799147353454E-16 ) ) ;
#292 = EDGE_CURVE ( 'NONE', #118, #139, #252, .T. ) ;
#293 = CARTESIAN_POINT ( 'NONE',  ( 0.2359842795000000326, 2.889973925387694330E-17, -2.889973925387694330E-17 ) ) ;
#294 = EDGE_LOOP ( 'NONE', ( #134, #21, #47, #59 ) ) ;
#295 = CARTESIAN_POINT ( 'NONE',  ( 1.060718027907087028E-16, 0.0000000000000000000, 0.8661419999999999675 ) ) ;
#296 = DIRECTION ( 'NONE',  ( 0.0000000000000000000, 0.0000000000000000000, -1.000000000000000000 ) ) ;
#297 = VECTOR ( 'NONE', #176, 39.37007874015748143 ) ;
#298 = EDGE_CURVE ( 'NONE', #139, #118, #185, .T. ) ;
#299 = DIRECTION ( 'NONE',  ( 0.0000000000000000000, 0.0000000000000000000, 1.000000000000000000 ) ) ;
ENDSEC;
END-ISO-10303-21;
