ISO-10303-21;
HEADER;
FILE_DESCRIPTION (( 'STEP AP214' ),
    '1' );
FILE_NAME ('Micro_GEM-062-4X.STEP',
    '2021-09-01T19:04:03',
    ( '' ),
    ( '' ),
    'SwSTEP 2.0',
    'SolidWorks 2020',
    '' );
FILE_SCHEMA (( 'AUTOMOTIVE_DESIGN' ));
ENDSEC;

DATA;
#1 = ORIENTED_EDGE ( 'NONE', *, *, #3, .F. ) ;
#2 = EDGE_LOOP ( 'NONE', ( #17, #256 ) ) ;
#3 = EDGE_CURVE ( 'NONE', #231, #119, #96, .T. ) ;
#4 =( GEOMETRIC_REPRESENTATION_CONTEXT ( 3 ) GLOBAL_UNCERTAINTY_ASSIGNED_CONTEXT ( ( #259 ) ) GLOBAL_UNIT_ASSIGNED_CONTEXT ( ( #112, #199, #34 ) ) REPRESENTATION_CONTEXT ( 'NONE', 'WORKASPACE' ) );
#5 = SURFACE_STYLE_FILL_AREA ( #129 ) ;
#6 = DIMENSIONAL_EXPONENTS ( 1.000000000000000000, 0.0000000000000000000, 0.0000000000000000000, 0.0000000000000000000, 0.0000000000000000000, 0.0000000000000000000, 0.0000000000000000000 ) ;
#7 = ADVANCED_FACE ( 'NONE', ( #272 ), #136, .T. ) ;
#8 = DIRECTION ( 'NONE',  ( 0.0000000000000000000, 0.0000000000000000000, 1.000000000000000000 ) ) ;
#9 = LINE ( 'NONE', #111, #75 ) ;
#10 = LENGTH_MEASURE_WITH_UNIT ( LENGTH_MEASURE( 0.02539999999999999897 ), #159 );
#11 = VECTOR ( 'NONE', #67, 39.37007874015748854 ) ;
#12 = DIRECTION ( 'NONE',  ( 1.000000000000000000, 0.0000000000000000000, 0.0000000000000000000 ) ) ;
#13 = DIRECTION ( 'NONE',  ( 1.000000000000000000, 0.0000000000000000000, 0.0000000000000000000 ) ) ;
#14 = FILL_AREA_STYLE ('',( #215 ) ) ;
#15 = CARTESIAN_POINT ( 'NONE',  ( 0.06250000000000002776, 7.654042494670959086E-18, 1.500000000000000222 ) ) ;
#16 = CARTESIAN_POINT ( 'NONE',  ( 0.04750000000000064587, 5.817072295950006528E-18, 1.500000000000000222 ) ) ;
#17 = ORIENTED_EDGE ( 'NONE', *, *, #148, .T. ) ;
#18 = CARTESIAN_POINT ( 'NONE',  ( 0.0000000000000000000, 0.0000000000000000000, 1.500000000000000222 ) ) ;
#19 = EDGE_LOOP ( 'NONE', ( #280, #40, #234, #179 ) ) ;
#20 = COLOUR_RGB ( '',0.7921568627450980005, 0.8196078431372548767, 0.9333333333333333481 ) ;
#21 = EDGE_CURVE ( 'NONE', #174, #50, #170, .T. ) ;
#22 = CARTESIAN_POINT ( 'NONE',  ( 0.03121875000000002426, 0.0000000000000000000, 0.1880000000000000282 ) ) ;
#23 = EDGE_LOOP ( 'NONE', ( #266, #97, #193, #1 ) ) ;
#24 =( NAMED_UNIT ( * ) PLANE_ANGLE_UNIT ( ) SI_UNIT ( $, .RADIAN. ) );
#25 = ORIENTED_EDGE ( 'NONE', *, *, #80, .F. ) ;
#26 =( NAMED_UNIT ( * ) PLANE_ANGLE_UNIT ( ) SI_UNIT ( $, .RADIAN. ) );
#27 = ORIENTED_EDGE ( 'NONE', *, *, #52, .T. ) ;
#28 = CYLINDRICAL_SURFACE ( 'NONE', #283, 0.03121874999999999997 ) ;
#29 = UNCERTAINTY_MEASURE_WITH_UNIT (LENGTH_MEASURE( 1.000000000000000082E-05 ), #194, 'distance_accuracy_value', 'NONE');
#30 = ORIENTED_EDGE ( 'NONE', *, *, #3, .T. ) ;
#31 = ADVANCED_FACE ( 'NONE', ( #89 ), #277, .T. ) ;
#32 = AXIS2_PLACEMENT_3D ( 'NONE', #145, #113, #12 ) ;
#33 = SURFACE_STYLE_FILL_AREA ( #14 ) ;
#34 =( NAMED_UNIT ( * ) SI_UNIT ( $, .STERADIAN. ) SOLID_ANGLE_UNIT ( ) );
#35 = LINE ( 'NONE', #37, #230 ) ;
#36 = DIRECTION ( 'NONE',  ( -1.224646799147353700E-16, -0.0000000000000000000, -1.000000000000000000 ) ) ;
#37 = CARTESIAN_POINT ( 'NONE',  ( -0.03121874999999999997, 0.0000000000000000000, 3.823194226088145228E-18 ) ) ;
#38 = APPLICATION_PROTOCOL_DEFINITION ( 'draft international standard', 'automotive_design', 1998, #254 ) ;
#39 = DIRECTION ( 'NONE',  ( 1.000000000000000000, 0.0000000000000000000, 0.0000000000000000000 ) ) ;
#40 = ORIENTED_EDGE ( 'NONE', *, *, #100, .T. ) ;
#41 = AXIS2_PLACEMENT_3D ( 'NONE', #268, #64, #163 ) ;
#42 = ADVANCED_FACE ( 'NONE', ( #224 ), #120, .T. ) ;
#43 = DIRECTION ( 'NONE',  ( -0.0000000000000000000, -0.0000000000000000000, -1.000000000000000000 ) ) ;
#44 = VECTOR ( 'NONE', #56, 39.37007874015748143 ) ;
#45 = LINE ( 'NONE', #150, #55 ) ;
#46 = LENGTH_MEASURE_WITH_UNIT ( LENGTH_MEASURE( 0.02539999999999999897 ), #228 );
#47 = EDGE_CURVE ( 'NONE', #79, #174, #162, .T. ) ;
#48 = ORIENTED_EDGE ( 'NONE', *, *, #195, .T. ) ;
#49 = CARTESIAN_POINT ( 'NONE',  ( 0.03121875000000002426, 0.0000000000000000000, 0.1880000000000000282 ) ) ;
#50 = VERTEX_POINT ( 'NONE', #214 ) ;
#51 = CARTESIAN_POINT ( 'NONE',  ( 0.0000000000000000000, 0.0000000000000000000, 1.500000000000000222 ) ) ;
#52 = EDGE_CURVE ( 'NONE', #166, #50, #9, .T. ) ;
#53 = AXIS2_PLACEMENT_3D ( 'NONE', #249, #116, #167 ) ;
#54 = DIRECTION ( 'NONE',  ( -1.000000000000000000, 0.0000000000000000000, 0.0000000000000000000 ) ) ;
#55 = VECTOR ( 'NONE', #147, 39.37007874015748143 ) ;
#56 = DIRECTION ( 'NONE',  ( -1.224646799147353700E-16, -0.0000000000000000000, -1.000000000000000000 ) ) ;
#57 = PRODUCT ( 'Micro_GEM-062-4X', 'Micro_GEM-062-4X', '', ( #178 ) ) ;
#58 = PLANE ( 'NONE',  #68 ) ;
#59 = SHAPE_DEFINITION_REPRESENTATION ( #221, #131 ) ;
#60 = DIRECTION ( 'NONE',  ( -0.0000000000000000000, -0.0000000000000000000, -1.000000000000000000 ) ) ;
#61 = SURFACE_STYLE_USAGE ( .BOTH. , #165 ) ;
#62 = CARTESIAN_POINT ( 'NONE',  ( 0.0000000000000000000, 0.0000000000000000000, 1.485000000000000764 ) ) ;
#63 = VECTOR ( 'NONE', #84, 39.37007874015748143 ) ;
#64 = DIRECTION ( 'NONE',  ( 1.224646799147353700E-16, 0.0000000000000000000, 1.000000000000000000 ) ) ;
#65 = ORIENTED_EDGE ( 'NONE', *, *, #118, .F. ) ;
#66 = ADVANCED_FACE ( 'NONE', ( #200 ), #58, .F. ) ;
#67 = DIRECTION ( 'NONE',  ( -0.7071067811865462405, 0.0000000000000000000, -0.7071067811865486830 ) ) ;
#68 = AXIS2_PLACEMENT_3D ( 'NONE', #160, #184, #242 ) ;
#69 = STYLED_ITEM ( 'NONE', ( #213 ), #133 ) ;
#70 = CLOSED_SHELL ( 'NONE', ( #86, #108, #217, #7, #132, #42, #270, #31, #294, #66 ) ) ;
#71 = CIRCLE ( 'NONE', #137, 0.03121874999999999997 ) ;
#72 = CONICAL_SURFACE ( 'NONE', #204, 0.04750000000000064587, 0.7853981633974466137 ) ;
#73 = CARTESIAN_POINT ( 'NONE',  ( 2.302335982397025094E-17, 0.0000000000000000000, 0.1880000000000000282 ) ) ;
#74 = PRESENTATION_LAYER_ASSIGNMENT (  '', '', ( #127 ) ) ;
#75 = VECTOR ( 'NONE', #287, 39.37007874015747433 ) ;
#76 = CARTESIAN_POINT ( 'NONE',  ( 0.0000000000000000000, 0.0000000000000000000, 1.500000000000000222 ) ) ;
#77 = PRESENTATION_STYLE_ASSIGNMENT (( #109 ) ) ;
#78 = CARTESIAN_POINT ( 'NONE',  ( 0.0000000000000000000, 0.0000000000000000000, 0.0000000000000000000 ) ) ;
#79 = VERTEX_POINT ( 'NONE', #289 ) ;
#80 = EDGE_CURVE ( 'NONE', #166, #222, #35, .T. ) ;
#81 = ORIENTED_EDGE ( 'NONE', *, *, #227, .T. ) ;
#82 = CONICAL_SURFACE ( 'NONE', #138, 0.04750000000000064587, 0.7853981633974466137 ) ;
#83 = ORIENTED_EDGE ( 'NONE', *, *, #251, .F. ) ;
#84 = DIRECTION ( 'NONE',  ( 0.1736481776669313859, 0.0000000000000000000, 0.9848077530122077983 ) ) ;
#85 = EDGE_CURVE ( 'NONE', #119, #79, #281, .T. ) ;
#86 = ADVANCED_FACE ( 'NONE', ( #142 ), #276, .T. ) ;
#87 = CARTESIAN_POINT ( 'NONE',  ( 0.03121874999999999997, 3.823194226088143687E-18, -3.823194226088145228E-18 ) ) ;
#88 = CIRCLE ( 'NONE', #121, 0.06250000000000002776 ) ;
#89 = FACE_OUTER_BOUND ( 'NONE', #126, .T. ) ;
#90 =( GEOMETRIC_REPRESENTATION_CONTEXT ( 3 ) GLOBAL_UNCERTAINTY_ASSIGNED_CONTEXT ( ( #29 ) ) GLOBAL_UNIT_ASSIGNED_CONTEXT ( ( #194, #24, #154 ) ) REPRESENTATION_CONTEXT ( 'NONE', 'WORKASPACE' ) );
#91 = CARTESIAN_POINT ( 'NONE',  ( 4.682062571497491304E-34, 0.0000000000000000000, 3.823194226088145228E-18 ) ) ;
#92 = ORIENTED_EDGE ( 'NONE', *, *, #80, .T. ) ;
#93 = DIRECTION ( 'NONE',  ( -1.000000000000000000, 0.0000000000000000000, 0.0000000000000000000 ) ) ;
#94 =( GEOMETRIC_REPRESENTATION_CONTEXT ( 3 ) GLOBAL_UNCERTAINTY_ASSIGNED_CONTEXT ( ( #275 ) ) GLOBAL_UNIT_ASSIGNED_CONTEXT ( ( #208, #26, #229 ) ) REPRESENTATION_CONTEXT ( 'NONE', 'WORKASPACE' ) );
#95 = DIRECTION ( 'NONE',  ( 0.0000000000000000000, 0.0000000000000000000, -1.000000000000000000 ) ) ;
#96 = LINE ( 'NONE', #185, #11 ) ;
#97 = ORIENTED_EDGE ( 'NONE', *, *, #118, .T. ) ;
#98 = DIRECTION ( 'NONE',  ( -1.224646799147353700E-16, -0.0000000000000000000, -1.000000000000000000 ) ) ;
#99 = AXIS2_PLACEMENT_3D ( 'NONE', #205, #141, #263 ) ;
#100 = EDGE_CURVE ( 'NONE', #79, #119, #103, .T. ) ;
#101 = AXIS2_PLACEMENT_3D ( 'NONE', #76, #115, #212 ) ;
#102 = AXIS2_PLACEMENT_3D ( 'NONE', #91, #36, #139 ) ;
#103 = CIRCLE ( 'NONE', #99, 0.06250000000000002776 ) ;
#104 = CARTESIAN_POINT ( 'NONE',  ( 4.474917996329785777E-17, 0.0000000000000000000, 0.3654047844199156403 ) ) ;
#105 = ORIENTED_EDGE ( 'NONE', *, *, #245, .T. ) ;
#106 = VERTEX_POINT ( 'NONE', #271 ) ;
#107 = ORIENTED_EDGE ( 'NONE', *, *, #21, .T. ) ;
#108 = ADVANCED_FACE ( 'NONE', ( #292 ), #176, .T. ) ;
#109 = SURFACE_STYLE_USAGE ( .BOTH. , #125 ) ;
#110 = DIRECTION ( 'NONE',  ( -1.224646799147353700E-16, -0.0000000000000000000, -1.000000000000000000 ) ) ;
#111 = CARTESIAN_POINT ( 'NONE',  ( -0.03121874999999997916, 3.823194226088143687E-18, 0.1880000000000000282 ) ) ;
#112 =( CONVERSION_BASED_UNIT ( 'INCH', #10 ) LENGTH_UNIT ( ) NAMED_UNIT ( #128 ) );
#113 = DIRECTION ( 'NONE',  ( 1.224646799147353700E-16, 0.0000000000000000000, 1.000000000000000000 ) ) ;
#114 = CARTESIAN_POINT ( 'NONE',  ( 0.0000000000000000000, 0.0000000000000000000, 1.500000000000000222 ) ) ;
#115 = DIRECTION ( 'NONE',  ( 0.0000000000000000000, 0.0000000000000000000, 1.000000000000000000 ) ) ;
#116 = DIRECTION ( 'NONE',  ( -1.224646799147353700E-16, -0.0000000000000000000, -1.000000000000000000 ) ) ;
#117 = CARTESIAN_POINT ( 'NONE',  ( 0.06250000000000006939, 7.654042494670963708E-18, 0.3654047844199156403 ) ) ;
#118 = EDGE_CURVE ( 'NONE', #290, #79, #295, .T. ) ;
#119 = VERTEX_POINT ( 'NONE', #262 ) ;
#120 = PLANE ( 'NONE',  #196 ) ;
#121 = AXIS2_PLACEMENT_3D ( 'NONE', #104, #218, #13 ) ;
#122 = CARTESIAN_POINT ( 'NONE',  ( -0.04750000000000064587, 0.0000000000000000000, 1.500000000000000222 ) ) ;
#123 = AXIS2_PLACEMENT_3D ( 'NONE', #62, #247, #39 ) ;
#124 = ORIENTED_EDGE ( 'NONE', *, *, #238, .T. ) ;
#125 = SURFACE_SIDE_STYLE ('',( #5 ) ) ;
#126 = EDGE_LOOP ( 'NONE', ( #264, #209, #282, #107 ) ) ;
#127 = STYLED_ITEM ( 'NONE', ( #77 ), #131 ) ;
#128 = DIMENSIONAL_EXPONENTS ( 1.000000000000000000, 0.0000000000000000000, 0.0000000000000000000, 0.0000000000000000000, 0.0000000000000000000, 0.0000000000000000000, 0.0000000000000000000 ) ;
#129 = FILL_AREA_STYLE ('',( #284 ) ) ;
#130 = AXIS2_PLACEMENT_3D ( 'NONE', #241, #286, #202 ) ;
#131 = ADVANCED_BREP_SHAPE_REPRESENTATION ( 'Micro_GEM-062-4X', ( #133, #236 ), #90 ) ;
#132 = ADVANCED_FACE ( 'NONE', ( #197 ), #143, .T. ) ;
#133 = MANIFOLD_SOLID_BREP ( 'Cut-Revolve1', #70 ) ;
#134 = LINE ( 'NONE', #87, #44 ) ;
#135 = EDGE_CURVE ( 'NONE', #269, #166, #71, .T. ) ;
#136 = CYLINDRICAL_SURFACE ( 'NONE', #297, 0.06250000000000002776 ) ;
#137 = AXIS2_PLACEMENT_3D ( 'NONE', #180, #288, #54 ) ;
#138 = AXIS2_PLACEMENT_3D ( 'NONE', #51, #173, #255 ) ;
#139 = DIRECTION ( 'NONE',  ( -1.000000000000000000, 0.0000000000000000000, 1.224646799147353947E-16 ) ) ;
#140 = DIRECTION ( 'NONE',  ( -1.224646799147353700E-16, -0.0000000000000000000, -1.000000000000000000 ) ) ;
#141 = DIRECTION ( 'NONE',  ( 0.0000000000000000000, 0.0000000000000000000, -1.000000000000000000 ) ) ;
#142 = FACE_OUTER_BOUND ( 'NONE', #216, .T. ) ;
#143 = CYLINDRICAL_SURFACE ( 'NONE', #177, 0.06250000000000002776 ) ;
#144 = PRODUCT_DEFINITION_FORMATION_WITH_SPECIFIED_SOURCE ( 'ANY', '', #57, .NOT_KNOWN. ) ;
#145 = CARTESIAN_POINT ( 'NONE',  ( 2.302335982397025094E-17, 0.0000000000000000000, 0.1880000000000000282 ) ) ;
#146 = DIRECTION ( 'NONE',  ( -1.000000000000000000, 0.0000000000000000000, 0.0000000000000000000 ) ) ;
#147 = DIRECTION ( 'NONE',  ( -0.0000000000000000000, -0.0000000000000000000, -1.000000000000000000 ) ) ;
#148 = EDGE_CURVE ( 'NONE', #222, #106, #257, .T. ) ;
#149 = CARTESIAN_POINT ( 'NONE',  ( 0.0000000000000000000, 0.0000000000000000000, 0.0000000000000000000 ) ) ;
#150 = CARTESIAN_POINT ( 'NONE',  ( -0.06250000000000002776, 0.0000000000000000000, 1.500000000000000222 ) ) ;
#151 = DIRECTION ( 'NONE',  ( -1.000000000000000000, 0.0000000000000000000, 1.224646799147353947E-16 ) ) ;
#152 = COLOUR_RGB ( '',0.7921568627450980005, 0.8196078431372548767, 0.9333333333333333481 ) ;
#153 = ORIENTED_EDGE ( 'NONE', *, *, #207, .F. ) ;
#154 =( NAMED_UNIT ( * ) SI_UNIT ( $, .STERADIAN. ) SOLID_ANGLE_UNIT ( ) );
#155 = ORIENTED_EDGE ( 'NONE', *, *, #47, .T. ) ;
#156 = DIMENSIONAL_EXPONENTS ( 1.000000000000000000, 0.0000000000000000000, 0.0000000000000000000, 0.0000000000000000000, 0.0000000000000000000, 0.0000000000000000000, 0.0000000000000000000 ) ;
#157 = AXIS2_PLACEMENT_3D ( 'NONE', #73, #98, #226 ) ;
#158 = DIRECTION ( 'NONE',  ( -1.224646799147353700E-16, -0.0000000000000000000, -1.000000000000000000 ) ) ;
#159 =( LENGTH_UNIT ( ) NAMED_UNIT ( * ) SI_UNIT ( $, .METRE. ) );
#160 = CARTESIAN_POINT ( 'NONE',  ( 0.0000000000000000000, 0.0000000000000000000, 0.0000000000000000000 ) ) ;
#161 = CARTESIAN_POINT ( 'NONE',  ( -0.03121874999999997916, 5.738618360379552157E-18, 0.1880000000000000282 ) ) ;
#162 = LINE ( 'NONE', #15, #237 ) ;
#163 = DIRECTION ( 'NONE',  ( 1.000000000000000000, 0.0000000000000000000, 0.0000000000000000000 ) ) ;
#164 = ORIENTED_EDGE ( 'NONE', *, *, #238, .F. ) ;
#165 = SURFACE_SIDE_STYLE ('',( #33 ) ) ;
#166 = VERTEX_POINT ( 'NONE', #161 ) ;
#167 = DIRECTION ( 'NONE',  ( 1.000000000000000000, 0.0000000000000000000, 0.0000000000000000000 ) ) ;
#168 = PRODUCT_DEFINITION_CONTEXT ( 'detailed design', #254, 'design' ) ;
#169 = EDGE_CURVE ( 'NONE', #269, #106, #134, .T. ) ;
#170 = CIRCLE ( 'NONE', #53, 0.06250000000000002776 ) ;
#171 = CIRCLE ( 'NONE', #101, 0.04750000000000064587 ) ;
#172 = LENGTH_MEASURE_WITH_UNIT ( LENGTH_MEASURE( 0.02539999999999999897 ), #192 );
#173 = DIRECTION ( 'NONE',  ( 0.0000000000000000000, 0.0000000000000000000, -1.000000000000000000 ) ) ;
#174 = VERTEX_POINT ( 'NONE', #117 ) ;
#175 = CARTESIAN_POINT ( 'NONE',  ( -0.03121874999999999997, 0.0000000000000000000, 7.646388452176290456E-18 ) ) ;
#176 = CONICAL_SURFACE ( 'NONE', #41, 0.03121874999999999997, 0.1745329251994338915 ) ;
#177 = AXIS2_PLACEMENT_3D ( 'NONE', #18, #246, #265 ) ;
#178 = PRODUCT_CONTEXT ( 'NONE', #267, 'mechanical' ) ;
#179 = ORIENTED_EDGE ( 'NONE', *, *, #21, .F. ) ;
#180 = CARTESIAN_POINT ( 'NONE',  ( 2.302335982397025094E-17, 0.0000000000000000000, 0.1880000000000000282 ) ) ;
#181 = CARTESIAN_POINT ( 'NONE',  ( 0.0000000000000000000, 0.0000000000000000000, 0.0000000000000000000 ) ) ;
#182 = EDGE_LOOP ( 'NONE', ( #203, #220, #92, #153 ) ) ;
#183 = DIRECTION ( 'NONE',  ( 0.7071067811865462405, 8.659560562354916834E-17, -0.7071067811865486830 ) ) ;
#184 = DIRECTION ( 'NONE',  ( 0.0000000000000000000, 0.0000000000000000000, 1.000000000000000000 ) ) ;
#185 = CARTESIAN_POINT ( 'NONE',  ( -0.04750000000000064587, 0.0000000000000000000, 1.500000000000000222 ) ) ;
#186 = EDGE_LOOP ( 'NONE', ( #293, #155, #273, #83 ) ) ;
#187 = AXIS2_PLACEMENT_3D ( 'NONE', #149, #110, #248 ) ;
#188 = CIRCLE ( 'NONE', #130, 0.04750000000000064587 ) ;
#189 = AXIS2_PLACEMENT_3D ( 'NONE', #243, #158, #240 ) ;
#190 = ORIENTED_EDGE ( 'NONE', *, *, #298, .F. ) ;
#191 = ORIENTED_EDGE ( 'NONE', *, *, #100, .F. ) ;
#192 =( LENGTH_UNIT ( ) NAMED_UNIT ( * ) SI_UNIT ( $, .METRE. ) );
#193 = ORIENTED_EDGE ( 'NONE', *, *, #85, .F. ) ;
#194 =( CONVERSION_BASED_UNIT ( 'INCH', #172 ) LENGTH_UNIT ( ) NAMED_UNIT ( #6 ) );
#195 = EDGE_CURVE ( 'NONE', #290, #231, #188, .T. ) ;
#196 = AXIS2_PLACEMENT_3D ( 'NONE', #250, #206, #296 ) ;
#197 = FACE_OUTER_BOUND ( 'NONE', #19, .T. ) ;
#198 = EDGE_LOOP ( 'NONE', ( #65, #164, #30, #191 ) ) ;
#199 =( NAMED_UNIT ( * ) PLANE_ANGLE_UNIT ( ) SI_UNIT ( $, .RADIAN. ) );
#200 = FACE_OUTER_BOUND ( 'NONE', #2, .T. ) ;
#201 = ORIENTED_EDGE ( 'NONE', *, *, #148, .F. ) ;
#202 = DIRECTION ( 'NONE',  ( 1.000000000000000000, 0.0000000000000000000, 0.0000000000000000000 ) ) ;
#203 = ORIENTED_EDGE ( 'NONE', *, *, #169, .F. ) ;
#204 = AXIS2_PLACEMENT_3D ( 'NONE', #114, #95, #146 ) ;
#205 = CARTESIAN_POINT ( 'NONE',  ( 0.0000000000000000000, 0.0000000000000000000, 1.485000000000000764 ) ) ;
#206 = DIRECTION ( 'NONE',  ( 0.0000000000000000000, 0.0000000000000000000, 1.000000000000000000 ) ) ;
#207 = EDGE_CURVE ( 'NONE', #106, #222, #225, .T. ) ;
#208 =( CONVERSION_BASED_UNIT ( 'INCH', #46 ) LENGTH_UNIT ( ) NAMED_UNIT ( #156 ) );
#209 = ORIENTED_EDGE ( 'NONE', *, *, #135, .F. ) ;
#210 = DIRECTION ( 'NONE',  ( -1.224646799147353700E-16, -0.0000000000000000000, -1.000000000000000000 ) ) ;
#211 = CIRCLE ( 'NONE', #157, 0.03121874999999999997 ) ;
#212 = DIRECTION ( 'NONE',  ( 1.000000000000000000, 0.0000000000000000000, 0.0000000000000000000 ) ) ;
#213 = PRESENTATION_STYLE_ASSIGNMENT (( #61 ) ) ;
#214 = CARTESIAN_POINT ( 'NONE',  ( -0.06249999999999997918, 0.0000000000000000000, 0.3654047844199156403 ) ) ;
#215 = FILL_AREA_STYLE_COLOUR ( '', #20 ) ;
#216 = EDGE_LOOP ( 'NONE', ( #105, #299, #201, #25 ) ) ;
#217 = ADVANCED_FACE ( 'NONE', ( #219 ), #72, .T. ) ;
#218 = DIRECTION ( 'NONE',  ( -1.224646799147353700E-16, -0.0000000000000000000, -1.000000000000000000 ) ) ;
#219 = FACE_OUTER_BOUND ( 'NONE', #23, .T. ) ;
#220 = ORIENTED_EDGE ( 'NONE', *, *, #135, .T. ) ;
#221 = PRODUCT_DEFINITION_SHAPE ( 'NONE', 'NONE',  #223 ) ;
#222 = VERTEX_POINT ( 'NONE', #175 ) ;
#223 = PRODUCT_DEFINITION ( 'UNKNOWN', '', #144, #168 ) ;
#224 = FACE_OUTER_BOUND ( 'NONE', #253, .T. ) ;
#225 = CIRCLE ( 'NONE', #102, 0.03121874999999999997 ) ;
#226 = DIRECTION ( 'NONE',  ( -1.000000000000000000, 0.0000000000000000000, 0.0000000000000000000 ) ) ;
#227 = EDGE_CURVE ( 'NONE', #50, #174, #88, .T. ) ;
#228 =( LENGTH_UNIT ( ) NAMED_UNIT ( * ) SI_UNIT ( $, .METRE. ) );
#229 =( NAMED_UNIT ( * ) SI_UNIT ( $, .STERADIAN. ) SOLID_ANGLE_UNIT ( ) );
#230 = VECTOR ( 'NONE', #140, 39.37007874015748143 ) ;
#231 = VERTEX_POINT ( 'NONE', #122 ) ;
#232 = EDGE_LOOP ( 'NONE', ( #279, #27, #81, #190 ) ) ;
#233 = CARTESIAN_POINT ( 'NONE',  ( 0.04750000000000064587, 6.735557395310483192E-18, 1.500000000000000222 ) ) ;
#234 = ORIENTED_EDGE ( 'NONE', *, *, #251, .T. ) ;
#235 = APPLICATION_PROTOCOL_DEFINITION ( 'draft international standard', 'automotive_design', 1998, #267 ) ;
#236 = AXIS2_PLACEMENT_3D ( 'NONE', #181, #8, #285 ) ;
#237 = VECTOR ( 'NONE', #43, 39.37007874015748143 ) ;
#238 = EDGE_CURVE ( 'NONE', #231, #290, #171, .T. ) ;
#239 = MECHANICAL_DESIGN_GEOMETRIC_PRESENTATION_REPRESENTATION (  '', ( #69 ), #4 ) ;
#240 = DIRECTION ( 'NONE',  ( -1.000000000000000000, 0.0000000000000000000, 1.224646799147353947E-16 ) ) ;
#241 = CARTESIAN_POINT ( 'NONE',  ( 0.0000000000000000000, 0.0000000000000000000, 1.500000000000000222 ) ) ;
#242 = DIRECTION ( 'NONE',  ( 1.000000000000000000, 0.0000000000000000000, -0.0000000000000000000 ) ) ;
#243 = CARTESIAN_POINT ( 'NONE',  ( 4.682062571497491304E-34, 0.0000000000000000000, 3.823194226088145228E-18 ) ) ;
#244 = CARTESIAN_POINT ( 'NONE',  ( 0.0000000000000000000, 0.0000000000000000000, 1.500000000000000222 ) ) ;
#245 = EDGE_CURVE ( 'NONE', #166, #269, #211, .T. ) ;
#246 = DIRECTION ( 'NONE',  ( -0.0000000000000000000, -0.0000000000000000000, -1.000000000000000000 ) ) ;
#247 = DIRECTION ( 'NONE',  ( 0.0000000000000000000, 0.0000000000000000000, -1.000000000000000000 ) ) ;
#248 = DIRECTION ( 'NONE',  ( -1.000000000000000000, 0.0000000000000000000, 1.224646799147353947E-16 ) ) ;
#249 = CARTESIAN_POINT ( 'NONE',  ( 4.474917996329785777E-17, 0.0000000000000000000, 0.3654047844199156403 ) ) ;
#250 = CARTESIAN_POINT ( 'NONE',  ( 0.0000000000000000000, 0.0000000000000000000, 1.500000000000000222 ) ) ;
#251 = EDGE_CURVE ( 'NONE', #119, #50, #45, .T. ) ;
#252 = PRODUCT_RELATED_PRODUCT_CATEGORY ( 'part', '', ( #57 ) ) ;
#253 = EDGE_LOOP ( 'NONE', ( #124, #48 ) ) ;
#254 = APPLICATION_CONTEXT ( 'automotive_design' ) ;
#255 = DIRECTION ( 'NONE',  ( -1.000000000000000000, 0.0000000000000000000, 0.0000000000000000000 ) ) ;
#256 = ORIENTED_EDGE ( 'NONE', *, *, #207, .T. ) ;
#257 = CIRCLE ( 'NONE', #189, 0.03121874999999999997 ) ;
#258 = LINE ( 'NONE', #22, #63 ) ;
#259 = UNCERTAINTY_MEASURE_WITH_UNIT (LENGTH_MEASURE( 1.000000000000000082E-05 ), #112, 'distance_accuracy_value', 'NONE');
#260 = FACE_OUTER_BOUND ( 'NONE', #198, .T. ) ;
#261 = VECTOR ( 'NONE', #183, 39.37007874015748854 ) ;
#262 = CARTESIAN_POINT ( 'NONE',  ( -0.06250000000000002776, 0.0000000000000000000, 1.485000000000000764 ) ) ;
#263 = DIRECTION ( 'NONE',  ( 1.000000000000000000, 0.0000000000000000000, 0.0000000000000000000 ) ) ;
#264 = ORIENTED_EDGE ( 'NONE', *, *, #52, .F. ) ;
#265 = DIRECTION ( 'NONE',  ( -1.000000000000000000, 0.0000000000000000000, 0.0000000000000000000 ) ) ;
#266 = ORIENTED_EDGE ( 'NONE', *, *, #195, .F. ) ;
#267 = APPLICATION_CONTEXT ( 'automotive_design' ) ;
#268 = CARTESIAN_POINT ( 'NONE',  ( 2.302335982397025094E-17, 0.0000000000000000000, 0.1880000000000000282 ) ) ;
#269 = VERTEX_POINT ( 'NONE', #49 ) ;
#270 = ADVANCED_FACE ( 'NONE', ( #260 ), #82, .T. ) ;
#271 = CARTESIAN_POINT ( 'NONE',  ( 0.03121874999999999997, 3.823194226088143687E-18, 0.0000000000000000000 ) ) ;
#272 = FACE_OUTER_BOUND ( 'NONE', #186, .T. ) ;
#273 = ORIENTED_EDGE ( 'NONE', *, *, #227, .F. ) ;
#274 = PRESENTATION_LAYER_ASSIGNMENT (  '', '', ( #69 ) ) ;
#275 = UNCERTAINTY_MEASURE_WITH_UNIT (LENGTH_MEASURE( 1.000000000000000082E-05 ), #208, 'distance_accuracy_value', 'NONE');
#276 = CYLINDRICAL_SURFACE ( 'NONE', #187, 0.03121874999999999997 ) ;
#277 = CONICAL_SURFACE ( 'NONE', #32, 0.03121874999999999997, 0.1745329251994338915 ) ;
#278 = FACE_OUTER_BOUND ( 'NONE', #182, .T. ) ;
#279 = ORIENTED_EDGE ( 'NONE', *, *, #245, .F. ) ;
#280 = ORIENTED_EDGE ( 'NONE', *, *, #47, .F. ) ;
#281 = CIRCLE ( 'NONE', #123, 0.06250000000000002776 ) ;
#282 = ORIENTED_EDGE ( 'NONE', *, *, #298, .T. ) ;
#283 = AXIS2_PLACEMENT_3D ( 'NONE', #78, #210, #151 ) ;
#284 = FILL_AREA_STYLE_COLOUR ( '', #152 ) ;
#285 = DIRECTION ( 'NONE',  ( 1.000000000000000000, 0.0000000000000000000, 0.0000000000000000000 ) ) ;
#286 = DIRECTION ( 'NONE',  ( 0.0000000000000000000, 0.0000000000000000000, 1.000000000000000000 ) ) ;
#287 = DIRECTION ( 'NONE',  ( -0.1736481776669311916, 2.126576849575783316E-17, 0.9848077530122080203 ) ) ;
#288 = DIRECTION ( 'NONE',  ( -1.224646799147353700E-16, -0.0000000000000000000, -1.000000000000000000 ) ) ;
#289 = CARTESIAN_POINT ( 'NONE',  ( 0.06250000000000002776, 7.654042494670959086E-18, 1.485000000000000764 ) ) ;
#290 = VERTEX_POINT ( 'NONE', #233 ) ;
#291 = MECHANICAL_DESIGN_GEOMETRIC_PRESENTATION_REPRESENTATION (  '', ( #127 ), #94 ) ;
#292 = FACE_OUTER_BOUND ( 'NONE', #232, .T. ) ;
#293 = ORIENTED_EDGE ( 'NONE', *, *, #85, .T. ) ;
#294 = ADVANCED_FACE ( 'NONE', ( #278 ), #28, .T. ) ;
#295 = LINE ( 'NONE', #16, #261 ) ;
#296 = DIRECTION ( 'NONE',  ( 1.000000000000000000, 0.0000000000000000000, -0.0000000000000000000 ) ) ;
#297 = AXIS2_PLACEMENT_3D ( 'NONE', #244, #60, #93 ) ;
#298 = EDGE_CURVE ( 'NONE', #269, #174, #258, .T. ) ;
#299 = ORIENTED_EDGE ( 'NONE', *, *, #169, .T. ) ;
ENDSEC;
END-ISO-10303-21;
