ISO-10303-21;
HEADER;
FILE_DESCRIPTION (( 'STEP AP214' ),
    '1' );
FILE_NAME ('Micro_BMRM-030-4X.STEP',
    '2021-09-03T14:39:11',
    ( '' ),
    ( '' ),
    'SwSTEP 2.0',
    'SolidWorks 2020',
    '' );
FILE_SCHEMA (( 'AUTOMOTIVE_DESIGN' ));
ENDSEC;

DATA;
#1 = ORIENTED_EDGE ( 'NONE', *, *, #287, .F. ) ;
#2 = EDGE_CURVE ( 'NONE', #210, #57, #281, .T. ) ;
#3 = MECHANICAL_DESIGN_GEOMETRIC_PRESENTATION_REPRESENTATION (  '', ( #167 ), #20 ) ;
#4 = ORIENTED_EDGE ( 'NONE', *, *, #17, .F. ) ;
#5 =( LENGTH_UNIT ( ) NAMED_UNIT ( * ) SI_UNIT ( $, .METRE. ) );
#6 = EDGE_LOOP ( 'NONE', ( #310, #237, #263, #76 ) ) ;
#7 = LENGTH_MEASURE_WITH_UNIT ( LENGTH_MEASURE( 0.02539999999999999897 ), #5 );
#8 = EDGE_LOOP ( 'NONE', ( #160, #36, #4 ) ) ;
#9 = CARTESIAN_POINT ( 'NONE',  ( 0.0000000000000000000, 0.0000000000000000000, 0.0000000000000000000 ) ) ;
#10 = DIRECTION ( 'NONE',  ( -0.1736481776669311639, 2.126576849575783008E-17, 0.9848077530122080203 ) ) ;
#11 = DIRECTION ( 'NONE',  ( -1.224646799147353207E-16, -0.0000000000000000000, -1.000000000000000000 ) ) ;
#12 = EDGE_CURVE ( 'NONE', #305, #163, #256, .T. ) ;
#13 = CARTESIAN_POINT ( 'NONE',  ( 4.339303249886808058E-17, 0.0000000000000000000, 0.3543310000000000071 ) ) ;
#14 = CARTESIAN_POINT ( 'NONE',  ( -0.07873999999999994892, 0.0000000000000000000, 0.4663051001670314721 ) ) ;
#15 = DIRECTION ( 'NONE',  ( 1.000000000000000000, 0.0000000000000000000, 0.0000000000000000000 ) ) ;
#16 = DIRECTION ( 'NONE',  ( -1.000000000000000000, 0.0000000000000000000, 0.0000000000000000000 ) ) ;
#17 = EDGE_CURVE ( 'NONE', #182, #85, #187, .T. ) ;
#18 = CARTESIAN_POINT ( 'NONE',  ( 4.339303249886808058E-17, 0.0000000000000000000, 0.3543310000000000071 ) ) ;
#19 = DIRECTION ( 'NONE',  ( -1.000000000000000000, 0.0000000000000000000, 0.0000000000000000000 ) ) ;
#20 =( GEOMETRIC_REPRESENTATION_CONTEXT ( 3 ) GLOBAL_UNCERTAINTY_ASSIGNED_CONTEXT ( ( #112 ) ) GLOBAL_UNIT_ASSIGNED_CONTEXT ( ( #161, #33, #81 ) ) REPRESENTATION_CONTEXT ( 'NONE', 'WORKASPACE' ) );
#21 = PRODUCT ( 'Micro_BMRM-030-4X', 'Micro_BMRM-030-4X', '', ( #111 ) ) ;
#22 = DIRECTION ( 'NONE',  ( -1.000000000000000000, 0.0000000000000000000, 0.0000000000000000000 ) ) ;
#23 = DIRECTION ( 'NONE',  ( -0.0000000000000000000, -0.0000000000000000000, -1.000000000000000000 ) ) ;
#24 = FACE_OUTER_BOUND ( 'NONE', #184, .T. ) ;
#25 = EDGE_CURVE ( 'NONE', #78, #182, #324, .T. ) ;
#26 = CARTESIAN_POINT ( 'NONE',  ( 0.0000000000000000000, 0.0000000000000000000, 1.968503999999999809 ) ) ;
#27 = AXIS2_PLACEMENT_3D ( 'NONE', #115, #42, #313 ) ;
#28 = COLOUR_RGB ( '',0.7921568627450980005, 0.8196078431372548767, 0.9333333333333333481 ) ;
#29 = ORIENTED_EDGE ( 'NONE', *, *, #82, .T. ) ;
#30 = ORIENTED_EDGE ( 'NONE', *, *, #255, .T. ) ;
#31 = ADVANCED_FACE ( 'NONE', ( #314 ), #89, .T. ) ;
#32 = VERTEX_POINT ( 'NONE', #316 ) ;
#33 =( NAMED_UNIT ( * ) PLANE_ANGLE_UNIT ( ) SI_UNIT ( $, .RADIAN. ) );
#34 = AXIS2_PLACEMENT_3D ( 'NONE', #46, #70, #15 ) ;
#35 = EDGE_LOOP ( 'NONE', ( #1, #325, #215, #185 ) ) ;
#36 = ORIENTED_EDGE ( 'NONE', *, *, #206, .T. ) ;
#37 = DIRECTION ( 'NONE',  ( 1.000000000000000000, 0.0000000000000000000, 0.0000000000000000000 ) ) ;
#38 = FILL_AREA_STYLE_COLOUR ( '', #28 ) ;
#39 = CARTESIAN_POINT ( 'NONE',  ( 0.07874000000000004607, 9.642868896486264672E-18, 0.4663051001670314721 ) ) ;
#40 = PRODUCT_DEFINITION_SHAPE ( 'NONE', 'NONE',  #290 ) ;
#41 = DIRECTION ( 'NONE',  ( -1.000000000000000000, 0.0000000000000000000, 0.0000000000000000000 ) ) ;
#42 = DIRECTION ( 'NONE',  ( 0.0000000000000000000, -1.000000000000000000, 0.0000000000000000000 ) ) ;
#43 = CARTESIAN_POINT ( 'NONE',  ( 0.0000000000000000000, 0.0000000000000000000, 1.968503999999999809 ) ) ;
#44 = AXIS2_PLACEMENT_3D ( 'NONE', #69, #150, #22 ) ;
#45 = DIRECTION ( 'NONE',  ( -1.224646799147353207E-16, -0.0000000000000000000, -1.000000000000000000 ) ) ;
#46 = CARTESIAN_POINT ( 'NONE',  ( 7.224919520692329689E-18, 0.0000000000000000000, 0.05899594499999999409 ) ) ;
#47 = DIRECTION ( 'NONE',  ( -1.000000000000000000, 1.224646799147353454E-16, 0.0000000000000000000 ) ) ;
#48 =( LENGTH_UNIT ( ) NAMED_UNIT ( * ) SI_UNIT ( $, .METRE. ) );
#49 = AXIS2_PLACEMENT_3D ( 'NONE', #124, #298, #248 ) ;
#50 = CARTESIAN_POINT ( 'NONE',  ( 4.339303249886808058E-17, 0.0000000000000000000, 0.3543310000000000071 ) ) ;
#51 = DIRECTION ( 'NONE',  ( 1.224646799147353207E-16, 0.0000000000000000000, 1.000000000000000000 ) ) ;
#52 = AXIS2_PLACEMENT_3D ( 'NONE', #120, #148, #246 ) ;
#53 = AXIS2_PLACEMENT_3D ( 'NONE', #228, #275, #16 ) ;
#54 = EDGE_LOOP ( 'NONE', ( #303, #239, #307, #261 ) ) ;
#55 = ORIENTED_EDGE ( 'NONE', *, *, #109, .F. ) ;
#56 = APPLICATION_PROTOCOL_DEFINITION ( 'draft international standard', 'automotive_design', 1998, #259 ) ;
#57 = VERTEX_POINT ( 'NONE', #269 ) ;
#58 = VERTEX_POINT ( 'NONE', #39 ) ;
#59 = ADVANCED_FACE ( 'NONE', ( #122 ), #264, .T. ) ;
#60 = DIRECTION ( 'NONE',  ( 1.000000000000000000, 0.0000000000000000000, 0.0000000000000000000 ) ) ;
#61 = FACE_OUTER_BOUND ( 'NONE', #234, .T. ) ;
#62 = DIRECTION ( 'NONE',  ( -0.0000000000000000000, -0.0000000000000000000, -1.000000000000000000 ) ) ;
#63 = CIRCLE ( 'NONE', #52, 0.07874000000000000443 ) ;
#64 = DIRECTION ( 'NONE',  ( 1.224646799147353207E-16, 0.0000000000000000000, 1.000000000000000000 ) ) ;
#65 = LINE ( 'NONE', #312, #91 ) ;
#66 = DIRECTION ( 'NONE',  ( -1.000000000000000000, 0.0000000000000000000, 1.447052840699614406E-16 ) ) ;
#67 = AXIS2_PLACEMENT_3D ( 'NONE', #143, #145, #218 ) ;
#68 = CIRCLE ( 'NONE', #188, 0.06374000000000018540 ) ;
#69 = CARTESIAN_POINT ( 'NONE',  ( 0.0000000000000000000, 0.0000000000000000000, 1.968503999999999809 ) ) ;
#70 = DIRECTION ( 'NONE',  ( 0.0000000000000000000, 1.000000000000000000, 0.0000000000000000000 ) ) ;
#71 =( NAMED_UNIT ( * ) SI_UNIT ( $, .STERADIAN. ) SOLID_ANGLE_UNIT ( ) );
#72 = DIRECTION ( 'NONE',  ( 1.000000000000000000, 0.0000000000000000000, 0.0000000000000000000 ) ) ;
#73 = EDGE_CURVE ( 'NONE', #286, #57, #217, .T. ) ;
#74 = STYLED_ITEM ( 'NONE', ( #181 ), #231 ) ;
#75 = EDGE_CURVE ( 'NONE', #32, #58, #94, .T. ) ;
#76 = ORIENTED_EDGE ( 'NONE', *, *, #153, .T. ) ;
#77 = CONICAL_SURFACE ( 'NONE', #49, 0.05899594500000000796, 0.1745329251994338637 ) ;
#78 = VERTEX_POINT ( 'NONE', #292 ) ;
#79 = ORIENTED_EDGE ( 'NONE', *, *, #95, .T. ) ;
#80 = ORIENTED_EDGE ( 'NONE', *, *, #183, .F. ) ;
#81 =( NAMED_UNIT ( * ) SI_UNIT ( $, .STERADIAN. ) SOLID_ANGLE_UNIT ( ) );
#82 = EDGE_CURVE ( 'NONE', #210, #163, #195, .T. ) ;
#83 = AXIS2_PLACEMENT_3D ( 'NONE', #242, #219, #117 ) ;
#84 = CONICAL_SURFACE ( 'NONE', #204, 0.05899594500000000796, 0.1745329251994338637 ) ;
#85 = VERTEX_POINT ( 'NONE', #139 ) ;
#86 = SURFACE_STYLE_FILL_AREA ( #233 ) ;
#87 = LINE ( 'NONE', #168, #278 ) ;
#88 = EDGE_CURVE ( 'NONE', #163, #58, #119, .T. ) ;
#89 = PLANE ( 'NONE',  #83 ) ;
#90 = DIRECTION ( 'NONE',  ( -1.224646799147353207E-16, -0.0000000000000000000, -1.000000000000000000 ) ) ;
#91 = VECTOR ( 'NONE', #294, 39.37007874015748854 ) ;
#92 = EDGE_LOOP ( 'NONE', ( #162, #30 ) ) ;
#93 = DIRECTION ( 'NONE',  ( 0.1736481776669313581, 0.0000000000000000000, 0.9848077530122077983 ) ) ;
#94 = LINE ( 'NONE', #244, #266 ) ;
#95 = EDGE_CURVE ( 'NONE', #32, #305, #301, .T. ) ;
#96 = DIRECTION ( 'NONE',  ( -1.224646799147353207E-16, -0.0000000000000000000, -1.000000000000000000 ) ) ;
#97 = SURFACE_STYLE_USAGE ( .BOTH. , #302 ) ;
#98 = AXIS2_PLACEMENT_3D ( 'NONE', #202, #276, #47 ) ;
#99 = CYLINDRICAL_SURFACE ( 'NONE', #320, 0.05899594500000000796 ) ;
#100 = DIRECTION ( 'NONE',  ( 1.000000000000000000, 0.0000000000000000000, 0.0000000000000000000 ) ) ;
#101 = CARTESIAN_POINT ( 'NONE',  ( -0.06374000000000018540, 0.0000000000000000000, 1.968503999999999809 ) ) ;
#102 = CONICAL_SURFACE ( 'NONE', #250, 0.06374000000000018540, 0.7853981633974522758 ) ;
#103 = EDGE_CURVE ( 'NONE', #284, #210, #65, .T. ) ;
#104 = PRODUCT_DEFINITION_CONTEXT ( 'detailed design', #259, 'design' ) ;
#105 = ORIENTED_EDGE ( 'NONE', *, *, #296, .T. ) ;
#106 = ORIENTED_EDGE ( 'NONE', *, *, #88, .F. ) ;
#107 = CIRCLE ( 'NONE', #241, 0.05899594500000000796 ) ;
#108 = ORIENTED_EDGE ( 'NONE', *, *, #147, .F. ) ;
#109 = EDGE_CURVE ( 'NONE', #32, #182, #87, .T. ) ;
#110 = ORIENTED_EDGE ( 'NONE', *, *, #82, .F. ) ;
#111 = PRODUCT_CONTEXT ( 'NONE', #268, 'mechanical' ) ;
#112 = UNCERTAINTY_MEASURE_WITH_UNIT (LENGTH_MEASURE( 1.000000000000000082E-05 ), #161, 'distance_accuracy_value', 'NONE');
#113 = ORIENTED_EDGE ( 'NONE', *, *, #2, .T. ) ;
#114 = PRODUCT_DEFINITION_FORMATION_WITH_SPECIFIED_SOURCE ( 'ANY', '', #21, .NOT_KNOWN. ) ;
#115 = CARTESIAN_POINT ( 'NONE',  ( 7.224919520692329689E-18, 0.0000000000000000000, 0.05899594499999999409 ) ) ;
#116 = ADVANCED_FACE ( 'NONE', ( #172 ), #170, .T. ) ;
#117 = DIRECTION ( 'NONE',  ( 1.000000000000000000, 0.0000000000000000000, -0.0000000000000000000 ) ) ;
#118 = DIRECTION ( 'NONE',  ( -1.000000000000000000, 0.0000000000000000000, 1.447052840699614406E-16 ) ) ;
#119 = CIRCLE ( 'NONE', #315, 0.07874000000000000443 ) ;
#120 = CARTESIAN_POINT ( 'NONE',  ( 5.710590483456409964E-17, 0.0000000000000000000, 0.4663051001670314721 ) ) ;
#121 = VECTOR ( 'NONE', #10, 39.37007874015747433 ) ;
#122 = FACE_OUTER_BOUND ( 'NONE', #258, .T. ) ;
#123 = DIRECTION ( 'NONE',  ( -1.000000000000000000, 0.0000000000000000000, 0.0000000000000000000 ) ) ;
#124 = CARTESIAN_POINT ( 'NONE',  ( 4.339303249886808058E-17, 0.0000000000000000000, 0.3543310000000000071 ) ) ;
#125 = VECTOR ( 'NONE', #62, 39.37007874015748143 ) ;
#126 = CARTESIAN_POINT ( 'NONE',  ( 0.0000000000000000000, 0.0000000000000000000, 1.953504000000000129 ) ) ;
#127 = PRODUCT_RELATED_PRODUCT_CATEGORY ( 'part', '', ( #21 ) ) ;
#128 = SPHERICAL_SURFACE ( 'NONE', #34, 0.05899594499999999409 ) ;
#129 =( CONVERSION_BASED_UNIT ( 'INCH', #205 ) LENGTH_UNIT ( ) NAMED_UNIT ( #171 ) );
#130 = CARTESIAN_POINT ( 'NONE',  ( -0.05899594499999995939, 8.433894208589294869E-18, 0.3543310000000000071 ) ) ;
#131 = AXIS2_PLACEMENT_3D ( 'NONE', #297, #165, #245 ) ;
#132 = CONICAL_SURFACE ( 'NONE', #53, 0.06374000000000018540, 0.7853981633974522758 ) ;
#133 = ORIENTED_EDGE ( 'NONE', *, *, #103, .F. ) ;
#134 = ORIENTED_EDGE ( 'NONE', *, *, #224, .T. ) ;
#135 = ORIENTED_EDGE ( 'NONE', *, *, #206, .F. ) ;
#136 = PRESENTATION_LAYER_ASSIGNMENT (  '', '', ( #74 ) ) ;
#137 = EDGE_LOOP ( 'NONE', ( #135, #186, #80 ) ) ;
#138 = EDGE_LOOP ( 'NONE', ( #113, #105, #106, #110 ) ) ;
#139 = CARTESIAN_POINT ( 'NONE',  ( -0.05899594499999999409, 0.0000000000000000000, 0.05899594500000000796 ) ) ;
#140 = ADVANCED_FACE ( 'NONE', ( #144 ), #190, .T. ) ;
#141 = AXIS2_PLACEMENT_3D ( 'NONE', #265, #64, #118 ) ;
#142 = MECHANICAL_DESIGN_GEOMETRIC_PRESENTATION_REPRESENTATION (  '', ( #74 ), #149 ) ;
#143 = CARTESIAN_POINT ( 'NONE',  ( 0.0000000000000000000, 0.0000000000000000000, 1.968503999999999809 ) ) ;
#144 = FACE_OUTER_BOUND ( 'NONE', #8, .T. ) ;
#145 = DIRECTION ( 'NONE',  ( -0.0000000000000000000, -0.0000000000000000000, -1.000000000000000000 ) ) ;
#146 = ADVANCED_BREP_SHAPE_REPRESENTATION ( 'Micro_BMRM-030-4X', ( #231, #236 ), #223 ) ;
#147 = EDGE_CURVE ( 'NONE', #284, #286, #198, .T. ) ;
#148 = DIRECTION ( 'NONE',  ( -1.224646799147353207E-16, -0.0000000000000000000, -1.000000000000000000 ) ) ;
#149 =( GEOMETRIC_REPRESENTATION_CONTEXT ( 3 ) GLOBAL_UNCERTAINTY_ASSIGNED_CONTEXT ( ( #254 ) ) GLOBAL_UNIT_ASSIGNED_CONTEXT ( ( #207, #156, #155 ) ) REPRESENTATION_CONTEXT ( 'NONE', 'WORKASPACE' ) );
#150 = DIRECTION ( 'NONE',  ( -0.0000000000000000000, -0.0000000000000000000, -1.000000000000000000 ) ) ;
#151 = DIRECTION ( 'NONE',  ( 0.0000000000000000000, 0.0000000000000000000, -1.000000000000000000 ) ) ;
#152 = FACE_OUTER_BOUND ( 'NONE', #6, .T. ) ;
#153 = EDGE_CURVE ( 'NONE', #58, #163, #63, .T. ) ;
#154 = FACE_OUTER_BOUND ( 'NONE', #138, .T. ) ;
#155 =( NAMED_UNIT ( * ) SI_UNIT ( $, .STERADIAN. ) SOLID_ANGLE_UNIT ( ) );
#156 =( NAMED_UNIT ( * ) PLANE_ANGLE_UNIT ( ) SI_UNIT ( $, .RADIAN. ) );
#157 = DIRECTION ( 'NONE',  ( 0.0000000000000000000, 0.0000000000000000000, -1.000000000000000000 ) ) ;
#158 = VECTOR ( 'NONE', #96, 39.37007874015748143 ) ;
#159 = ORIENTED_EDGE ( 'NONE', *, *, #299, .F. ) ;
#160 = ORIENTED_EDGE ( 'NONE', *, *, #25, .F. ) ;
#161 =( CONVERSION_BASED_UNIT ( 'INCH', #7 ) LENGTH_UNIT ( ) NAMED_UNIT ( #196 ) );
#162 = ORIENTED_EDGE ( 'NONE', *, *, #147, .T. ) ;
#163 = VERTEX_POINT ( 'NONE', #14 ) ;
#164 = DIRECTION ( 'NONE',  ( 0.0000000000000000000, 0.0000000000000000000, 1.000000000000000000 ) ) ;
#165 = DIRECTION ( 'NONE',  ( -1.224646799147353207E-16, -0.0000000000000000000, -1.000000000000000000 ) ) ;
#166 = AXIS2_PLACEMENT_3D ( 'NONE', #13, #90, #41 ) ;
#167 = STYLED_ITEM ( 'NONE', ( #235 ), #146 ) ;
#168 = CARTESIAN_POINT ( 'NONE',  ( 0.05899594500000000796, 7.224919520692329689E-18, -7.224919520692329689E-18 ) ) ;
#169 = ORIENTED_EDGE ( 'NONE', *, *, #2, .F. ) ;
#170 = CYLINDRICAL_SURFACE ( 'NONE', #131, 0.05899594500000000796 ) ;
#171 = DIMENSIONAL_EXPONENTS ( 1.000000000000000000, 0.0000000000000000000, 0.0000000000000000000, 0.0000000000000000000, 0.0000000000000000000, 0.0000000000000000000, 0.0000000000000000000 ) ;
#172 = FACE_OUTER_BOUND ( 'NONE', #54, .T. ) ;
#173 = CYLINDRICAL_SURFACE ( 'NONE', #44, 0.07874000000000000443 ) ;
#174 = AXIS2_PLACEMENT_3D ( 'NONE', #126, #157, #72 ) ;
#175 = ADVANCED_FACE ( 'NONE', ( #220 ), #128, .T. ) ;
#176 = FACE_OUTER_BOUND ( 'NONE', #232, .T. ) ;
#177 = DIRECTION ( 'NONE',  ( 1.000000000000000000, 0.0000000000000000000, 0.0000000000000000000 ) ) ;
#178 = ORIENTED_EDGE ( 'NONE', *, *, #299, .T. ) ;
#179 = CARTESIAN_POINT ( 'NONE',  ( 7.224919520692329689E-18, 0.0000000000000000000, 0.05899594499999999409 ) ) ;
#180 = ADVANCED_FACE ( 'NONE', ( #61 ), #102, .T. ) ;
#181 = PRESENTATION_STYLE_ASSIGNMENT (( #97 ) ) ;
#182 = VERTEX_POINT ( 'NONE', #221 ) ;
#183 = EDGE_CURVE ( 'NONE', #85, #182, #107, .T. ) ;
#184 = EDGE_LOOP ( 'NONE', ( #283, #108, #309, #159 ) ) ;
#185 = ORIENTED_EDGE ( 'NONE', *, *, #75, .F. ) ;
#186 = ORIENTED_EDGE ( 'NONE', *, *, #25, .T. ) ;
#187 = CIRCLE ( 'NONE', #141, 0.05899594500000000796 ) ;
#188 = AXIS2_PLACEMENT_3D ( 'NONE', #26, #249, #100 ) ;
#189 = CARTESIAN_POINT ( 'NONE',  ( 0.0000000000000000000, 0.0000000000000000000, 1.953504000000000129 ) ) ;
#190 = SPHERICAL_SURFACE ( 'NONE', #271, 0.05899594499999999409 ) ;
#191 = APPLICATION_PROTOCOL_DEFINITION ( 'draft international standard', 'automotive_design', 1998, #268 ) ;
#192 = CARTESIAN_POINT ( 'NONE',  ( 0.06374000000000018540, 7.805898697765251255E-18, 1.968503999999999809 ) ) ;
#193 = DIRECTION ( 'NONE',  ( -1.224646799147353207E-16, -0.0000000000000000000, -1.000000000000000000 ) ) ;
#194 = ADVANCED_FACE ( 'NONE', ( #176 ), #99, .T. ) ;
#195 = LINE ( 'NONE', #317, #125 ) ;
#196 = DIMENSIONAL_EXPONENTS ( 1.000000000000000000, 0.0000000000000000000, 0.0000000000000000000, 0.0000000000000000000, 0.0000000000000000000, 0.0000000000000000000, 0.0000000000000000000 ) ;
#197 = CARTESIAN_POINT ( 'NONE',  ( 5.710590483456409964E-17, 0.0000000000000000000, 0.4663051001670314721 ) ) ;
#198 = CIRCLE ( 'NONE', #211, 0.06374000000000018540 ) ;
#199 = FACE_OUTER_BOUND ( 'NONE', #35, .T. ) ;
#200 = AXIS2_PLACEMENT_3D ( 'NONE', #50, #280, #19 ) ;
#201 =( LENGTH_UNIT ( ) NAMED_UNIT ( * ) SI_UNIT ( $, .METRE. ) );
#202 = CARTESIAN_POINT ( 'NONE',  ( 7.224919520692329689E-18, 0.0000000000000000000, 0.05899594499999999409 ) ) ;
#203 = FILL_AREA_STYLE ('',( #222 ) ) ;
#204 = AXIS2_PLACEMENT_3D ( 'NONE', #18, #51, #177 ) ;
#205 = LENGTH_MEASURE_WITH_UNIT ( LENGTH_MEASURE( 0.02539999999999999897 ), #201 );
#206 = EDGE_CURVE ( 'NONE', #78, #85, #226, .T. ) ;
#207 =( CONVERSION_BASED_UNIT ( 'INCH', #225 ) LENGTH_UNIT ( ) NAMED_UNIT ( #257 ) );
#208 = CARTESIAN_POINT ( 'NONE',  ( -0.05899594499999995939, 7.224919520692329689E-18, 0.3543310000000000071 ) ) ;
#209 = ADVANCED_FACE ( 'NONE', ( #154 ), #173, .T. ) ;
#210 = VERTEX_POINT ( 'NONE', #247 ) ;
#211 = AXIS2_PLACEMENT_3D ( 'NONE', #43, #164, #37 ) ;
#212 = ORIENTED_EDGE ( 'NONE', *, *, #296, .F. ) ;
#213 = DIRECTION ( 'NONE',  ( 1.000000000000000000, 0.0000000000000000000, 0.0000000000000000000 ) ) ;
#214 = ORIENTED_EDGE ( 'NONE', *, *, #153, .F. ) ;
#215 = ORIENTED_EDGE ( 'NONE', *, *, #88, .T. ) ;
#216 = SURFACE_SIDE_STYLE ('',( #86 ) ) ;
#217 = LINE ( 'NONE', #192, #304 ) ;
#218 = DIRECTION ( 'NONE',  ( -1.000000000000000000, 0.0000000000000000000, 0.0000000000000000000 ) ) ;
#219 = DIRECTION ( 'NONE',  ( 0.0000000000000000000, 0.0000000000000000000, 1.000000000000000000 ) ) ;
#220 = FACE_OUTER_BOUND ( 'NONE', #137, .T. ) ;
#221 = CARTESIAN_POINT ( 'NONE',  ( 0.05899594500000001490, 7.224919520692329689E-18, 0.05899594499999998715 ) ) ;
#222 = FILL_AREA_STYLE_COLOUR ( '', #282 ) ;
#223 =( GEOMETRIC_REPRESENTATION_CONTEXT ( 3 ) GLOBAL_UNCERTAINTY_ASSIGNED_CONTEXT ( ( #279 ) ) GLOBAL_UNIT_ASSIGNED_CONTEXT ( ( #129, #323, #71 ) ) REPRESENTATION_CONTEXT ( 'NONE', 'WORKASPACE' ) );
#224 = EDGE_CURVE ( 'NONE', #305, #85, #321, .T. ) ;
#225 = LENGTH_MEASURE_WITH_UNIT ( LENGTH_MEASURE( 0.02539999999999999897 ), #48 );
#226 = CIRCLE ( 'NONE', #98, 0.05899594499999999409 ) ;
#227 = CIRCLE ( 'NONE', #200, 0.05899594500000000796 ) ;
#228 = CARTESIAN_POINT ( 'NONE',  ( 0.0000000000000000000, 0.0000000000000000000, 1.968503999999999809 ) ) ;
#229 = ORIENTED_EDGE ( 'NONE', *, *, #255, .F. ) ;
#230 = ADVANCED_FACE ( 'NONE', ( #199 ), #77, .T. ) ;
#231 = MANIFOLD_SOLID_BREP ( 'Fillet1', #262 ) ;
#232 = EDGE_LOOP ( 'NONE', ( #55, #79, #134, #260 ) ) ;
#233 = FILL_AREA_STYLE ('',( #38 ) ) ;
#234 = EDGE_LOOP ( 'NONE', ( #229, #288, #169, #133 ) ) ;
#235 = PRESENTATION_STYLE_ASSIGNMENT (( #238 ) ) ;
#236 = AXIS2_PLACEMENT_3D ( 'NONE', #9, #285, #213 ) ;
#237 = ORIENTED_EDGE ( 'NONE', *, *, #95, .F. ) ;
#238 = SURFACE_STYLE_USAGE ( .BOTH. , #216 ) ;
#239 = ORIENTED_EDGE ( 'NONE', *, *, #109, .T. ) ;
#240 = DIRECTION ( 'NONE',  ( 1.000000000000000000, 0.0000000000000000000, 0.0000000000000000000 ) ) ;
#241 = AXIS2_PLACEMENT_3D ( 'NONE', #179, #274, #66 ) ;
#242 = CARTESIAN_POINT ( 'NONE',  ( 0.0000000000000000000, 0.0000000000000000000, 1.968503999999999809 ) ) ;
#243 = ADVANCED_FACE ( 'NONE', ( #152 ), #84, .T. ) ;
#244 = CARTESIAN_POINT ( 'NONE',  ( 0.05899594500000004960, 0.0000000000000000000, 0.3543310000000000071 ) ) ;
#245 = DIRECTION ( 'NONE',  ( -1.000000000000000000, 0.0000000000000000000, 1.224646799147352961E-16 ) ) ;
#246 = DIRECTION ( 'NONE',  ( 1.000000000000000000, 0.0000000000000000000, 0.0000000000000000000 ) ) ;
#247 = CARTESIAN_POINT ( 'NONE',  ( -0.07874000000000000443, 0.0000000000000000000, 1.953504000000000129 ) ) ;
#248 = DIRECTION ( 'NONE',  ( 1.000000000000000000, 0.0000000000000000000, 0.0000000000000000000 ) ) ;
#249 = DIRECTION ( 'NONE',  ( 0.0000000000000000000, 0.0000000000000000000, 1.000000000000000000 ) ) ;
#250 = AXIS2_PLACEMENT_3D ( 'NONE', #300, #151, #123 ) ;
#251 = DIRECTION ( 'NONE',  ( -1.000000000000000000, 0.0000000000000000000, 1.224646799147352961E-16 ) ) ;
#252 = CIRCLE ( 'NONE', #174, 0.07874000000000000443 ) ;
#253 = CARTESIAN_POINT ( 'NONE',  ( 0.07874000000000000443, 9.642868896486258509E-18, 1.968503999999999809 ) ) ;
#254 = UNCERTAINTY_MEASURE_WITH_UNIT (LENGTH_MEASURE( 1.000000000000000082E-05 ), #207, 'distance_accuracy_value', 'NONE');
#255 = EDGE_CURVE ( 'NONE', #286, #284, #68, .T. ) ;
#256 = LINE ( 'NONE', #208, #121 ) ;
#257 = DIMENSIONAL_EXPONENTS ( 1.000000000000000000, 0.0000000000000000000, 0.0000000000000000000, 0.0000000000000000000, 0.0000000000000000000, 0.0000000000000000000, 0.0000000000000000000 ) ;
#258 = EDGE_LOOP ( 'NONE', ( #212, #178, #29, #214 ) ) ;
#259 = APPLICATION_CONTEXT ( 'automotive_design' ) ;
#260 = ORIENTED_EDGE ( 'NONE', *, *, #183, .T. ) ;
#261 = ORIENTED_EDGE ( 'NONE', *, *, #224, .F. ) ;
#262 = CLOSED_SHELL ( 'NONE', ( #140, #116, #230, #180, #209, #59, #31, #306, #243, #194, #175 ) ) ;
#263 = ORIENTED_EDGE ( 'NONE', *, *, #75, .T. ) ;
#264 = CYLINDRICAL_SURFACE ( 'NONE', #67, 0.07874000000000000443 ) ;
#265 = CARTESIAN_POINT ( 'NONE',  ( 7.224919520692329689E-18, 0.0000000000000000000, 0.05899594499999999409 ) ) ;
#266 = VECTOR ( 'NONE', #93, 39.37007874015748143 ) ;
#267 = DIRECTION ( 'NONE',  ( 0.7071067811865502373, 8.659560562354966138E-17, -0.7071067811865446862 ) ) ;
#268 = APPLICATION_CONTEXT ( 'automotive_design' ) ;
#269 = CARTESIAN_POINT ( 'NONE',  ( 0.07874000000000000443, 9.642868896486258509E-18, 1.953504000000000129 ) ) ;
#270 = DIRECTION ( 'NONE',  ( 0.0000000000000000000, 1.000000000000000000, 0.0000000000000000000 ) ) ;
#271 = AXIS2_PLACEMENT_3D ( 'NONE', #291, #270, #240 ) ;
#272 = VECTOR ( 'NONE', #23, 39.37007874015748143 ) ;
#273 = CARTESIAN_POINT ( 'NONE',  ( 0.0000000000000000000, 0.0000000000000000000, 0.0000000000000000000 ) ) ;
#274 = DIRECTION ( 'NONE',  ( 1.224646799147353207E-16, 0.0000000000000000000, 1.000000000000000000 ) ) ;
#275 = DIRECTION ( 'NONE',  ( 0.0000000000000000000, 0.0000000000000000000, -1.000000000000000000 ) ) ;
#276 = DIRECTION ( 'NONE',  ( 1.224646799147353207E-16, 1.000000000000000000, -0.0000000000000000000 ) ) ;
#277 = LINE ( 'NONE', #253, #272 ) ;
#278 = VECTOR ( 'NONE', #193, 39.37007874015748143 ) ;
#279 = UNCERTAINTY_MEASURE_WITH_UNIT (LENGTH_MEASURE( 1.000000000000000082E-05 ), #129, 'distance_accuracy_value', 'NONE');
#280 = DIRECTION ( 'NONE',  ( -1.224646799147353207E-16, -0.0000000000000000000, -1.000000000000000000 ) ) ;
#281 = CIRCLE ( 'NONE', #293, 0.07874000000000000443 ) ;
#282 = COLOUR_RGB ( '',0.7921568627450980005, 0.8196078431372548767, 0.9333333333333333481 ) ;
#283 = ORIENTED_EDGE ( 'NONE', *, *, #73, .F. ) ;
#284 = VERTEX_POINT ( 'NONE', #101 ) ;
#285 = DIRECTION ( 'NONE',  ( 0.0000000000000000000, 0.0000000000000000000, 1.000000000000000000 ) ) ;
#286 = VERTEX_POINT ( 'NONE', #322 ) ;
#287 = EDGE_CURVE ( 'NONE', #305, #32, #227, .T. ) ;
#288 = ORIENTED_EDGE ( 'NONE', *, *, #73, .T. ) ;
#289 = DIRECTION ( 'NONE',  ( 0.0000000000000000000, 0.0000000000000000000, -1.000000000000000000 ) ) ;
#290 = PRODUCT_DEFINITION ( 'UNKNOWN', '', #114, #104 ) ;
#291 = CARTESIAN_POINT ( 'NONE',  ( 7.224919520692329689E-18, 0.0000000000000000000, 0.05899594499999999409 ) ) ;
#292 = CARTESIAN_POINT ( 'NONE',  ( 1.083737928103849376E-17, 0.0000000000000000000, 0.0000000000000000000 ) ) ;
#293 = AXIS2_PLACEMENT_3D ( 'NONE', #189, #289, #60 ) ;
#294 = DIRECTION ( 'NONE',  ( -0.7071067811865502373, 0.0000000000000000000, -0.7071067811865446862 ) ) ;
#295 = DIRECTION ( 'NONE',  ( 1.000000000000000000, 0.0000000000000000000, 0.0000000000000000000 ) ) ;
#296 = EDGE_CURVE ( 'NONE', #57, #58, #277, .T. ) ;
#297 = CARTESIAN_POINT ( 'NONE',  ( 0.0000000000000000000, 0.0000000000000000000, 0.0000000000000000000 ) ) ;
#298 = DIRECTION ( 'NONE',  ( 1.224646799147353207E-16, 0.0000000000000000000, 1.000000000000000000 ) ) ;
#299 = EDGE_CURVE ( 'NONE', #57, #210, #252, .T. ) ;
#300 = CARTESIAN_POINT ( 'NONE',  ( 0.0000000000000000000, 0.0000000000000000000, 1.968503999999999809 ) ) ;
#301 = CIRCLE ( 'NONE', #166, 0.05899594500000000796 ) ;
#302 = SURFACE_SIDE_STYLE ('',( #319 ) ) ;
#303 = ORIENTED_EDGE ( 'NONE', *, *, #287, .T. ) ;
#304 = VECTOR ( 'NONE', #267, 39.37007874015748854 ) ;
#305 = VERTEX_POINT ( 'NONE', #130 ) ;
#306 = ADVANCED_FACE ( 'NONE', ( #24 ), #132, .T. ) ;
#307 = ORIENTED_EDGE ( 'NONE', *, *, #17, .T. ) ;
#308 = SHAPE_DEFINITION_REPRESENTATION ( #40, #146 ) ;
#309 = ORIENTED_EDGE ( 'NONE', *, *, #103, .T. ) ;
#310 = ORIENTED_EDGE ( 'NONE', *, *, #12, .F. ) ;
#311 = PRESENTATION_LAYER_ASSIGNMENT (  '', '', ( #167 ) ) ;
#312 = CARTESIAN_POINT ( 'NONE',  ( -0.06374000000000018540, 0.0000000000000000000, 1.968503999999999809 ) ) ;
#313 = DIRECTION ( 'NONE',  ( 0.0000000000000000000, 0.0000000000000000000, -1.000000000000000000 ) ) ;
#314 = FACE_OUTER_BOUND ( 'NONE', #92, .T. ) ;
#315 = AXIS2_PLACEMENT_3D ( 'NONE', #197, #11, #295 ) ;
#316 = CARTESIAN_POINT ( 'NONE',  ( 0.05899594500000004960, 0.0000000000000000000, 0.3543310000000000071 ) ) ;
#317 = CARTESIAN_POINT ( 'NONE',  ( -0.07874000000000000443, 0.0000000000000000000, 1.968503999999999809 ) ) ;
#318 = CARTESIAN_POINT ( 'NONE',  ( -0.05899594500000000796, 0.0000000000000000000, 7.224919520692329689E-18 ) ) ;
#319 = SURFACE_STYLE_FILL_AREA ( #203 ) ;
#320 = AXIS2_PLACEMENT_3D ( 'NONE', #273, #45, #251 ) ;
#321 = LINE ( 'NONE', #318, #158 ) ;
#322 = CARTESIAN_POINT ( 'NONE',  ( 0.06374000000000018540, 8.724383797125754882E-18, 1.968503999999999809 ) ) ;
#323 =( NAMED_UNIT ( * ) PLANE_ANGLE_UNIT ( ) SI_UNIT ( $, .RADIAN. ) );
#324 = CIRCLE ( 'NONE', #27, 0.05899594499999999409 ) ;
#325 = ORIENTED_EDGE ( 'NONE', *, *, #12, .T. ) ;
ENDSEC;
END-ISO-10303-21;
