ISO-10303-21;
HEADER;
FILE_DESCRIPTION (( 'STEP AP214' ),
    '1' );
FILE_NAME ('Micro_BMR-024-2.STEP',
    '2021-09-03T13:55:31',
    ( '' ),
    ( '' ),
    'SwSTEP 2.0',
    'SolidWorks 2020',
    '' );
FILE_SCHEMA (( 'AUTOMOTIVE_DESIGN' ));
ENDSEC;

DATA;
#1 = ORIENTED_EDGE ( 'NONE', *, *, #225, .F. ) ;
#2 = EDGE_CURVE ( 'NONE', #302, #209, #186, .T. ) ;
#3 = DIRECTION ( 'NONE',  ( -1.000000000000000000, 0.0000000000000000000, 0.0000000000000000000 ) ) ;
#4 = VECTOR ( 'NONE', #150, 39.37007874015748143 ) ;
#5 = CARTESIAN_POINT ( 'NONE',  ( 0.0000000000000000000, 0.0000000000000000000, 1.500000000000000222 ) ) ;
#6 = DIRECTION ( 'NONE',  ( 0.0000000000000000000, 0.0000000000000000000, 1.000000000000000000 ) ) ;
#7 = CARTESIAN_POINT ( 'NONE',  ( 0.0000000000000000000, 0.0000000000000000000, 1.500000000000000222 ) ) ;
#8 = CLOSED_SHELL ( 'NONE', ( #203, #132, #93, #63, #238, #153, #168, #27, #138, #68, #253 ) ) ;
#9 = CIRCLE ( 'NONE', #272, 0.04750000000000064587 ) ;
#10 = STYLED_ITEM ( 'NONE', ( #74 ), #31 ) ;
#11 = DIRECTION ( 'NONE',  ( 1.000000000000000000, 0.0000000000000000000, 0.0000000000000000000 ) ) ;
#12 = ORIENTED_EDGE ( 'NONE', *, *, #239, .T. ) ;
#13 = CARTESIAN_POINT ( 'NONE',  ( 0.04750000000000064587, 6.735557395310483192E-18, 1.500000000000000222 ) ) ;
#14 = CARTESIAN_POINT ( 'NONE',  ( 4.389964282807362285E-17, 0.0000000000000000000, 0.3584677872725283154 ) ) ;
#15 = DIMENSIONAL_EXPONENTS ( 1.000000000000000000, 0.0000000000000000000, 0.0000000000000000000, 0.0000000000000000000, 0.0000000000000000000, 0.0000000000000000000, 0.0000000000000000000 ) ;
#16 = SURFACE_STYLE_USAGE ( .BOTH. , #220 ) ;
#17 = DIRECTION ( 'NONE',  ( -1.000000000000000000, 0.0000000000000000000, 0.0000000000000000000 ) ) ;
#18 = AXIS2_PLACEMENT_3D ( 'NONE', #7, #6, #116 ) ;
#19 = CARTESIAN_POINT ( 'NONE',  ( 1.468106582817847438E-18, 0.0000000000000000000, 0.01198800000000000039 ) ) ;
#20 = EDGE_CURVE ( 'NONE', #258, #51, #324, .T. ) ;
#21 = DIRECTION ( 'NONE',  ( 1.000000000000000000, 0.0000000000000000000, 0.0000000000000000000 ) ) ;
#22 = ORIENTED_EDGE ( 'NONE', *, *, #20, .F. ) ;
#23 = EDGE_CURVE ( 'NONE', #278, #83, #304, .T. ) ;
#24 = ORIENTED_EDGE ( 'NONE', *, *, #275, .T. ) ;
#25 = ORIENTED_EDGE ( 'NONE', *, *, #2, .T. ) ;
#26 = AXIS2_PLACEMENT_3D ( 'NONE', #58, #33, #241 ) ;
#27 = ADVANCED_FACE ( 'NONE', ( #55 ), #283, .T. ) ;
#28 = ORIENTED_EDGE ( 'NONE', *, *, #61, .F. ) ;
#29 = CARTESIAN_POINT ( 'NONE',  ( 0.0000000000000000000, 0.0000000000000000000, 1.500000000000000222 ) ) ;
#30 = DIRECTION ( 'NONE',  ( 1.000000000000000000, 0.0000000000000000000, 0.0000000000000000000 ) ) ;
#31 = ADVANCED_BREP_SHAPE_REPRESENTATION ( 'Micro_BMR-024-2', ( #267, #53 ), #48 ) ;
#32 = AXIS2_PLACEMENT_3D ( 'NONE', #69, #223, #17 ) ;
#33 = DIRECTION ( 'NONE',  ( 1.224646799147353454E-16, 0.0000000000000000000, 1.000000000000000000 ) ) ;
#34 = CARTESIAN_POINT ( 'NONE',  ( 8.817456953860943597E-18, 0.0000000000000000000, 0.07199999999999999456 ) ) ;
#35 = ORIENTED_EDGE ( 'NONE', *, *, #239, .F. ) ;
#36 = CARTESIAN_POINT ( 'NONE',  ( -0.01198799999999999692, 0.0000000000000000000, 0.01198800000000000386 ) ) ;
#37 = AXIS2_PLACEMENT_3D ( 'NONE', #165, #214, #3 ) ;
#38 = MECHANICAL_DESIGN_GEOMETRIC_PRESENTATION_REPRESENTATION (  '', ( #108 ), #118 ) ;
#39 = LENGTH_MEASURE_WITH_UNIT ( LENGTH_MEASURE( 0.02539999999999999897 ), #274 );
#40 = EDGE_CURVE ( 'NONE', #288, #302, #291, .T. ) ;
#41 = LINE ( 'NONE', #198, #147 ) ;
#42 = CONICAL_SURFACE ( 'NONE', #52, 0.01198799999999999866, 0.1745329251994338915 ) ;
#43 = LINE ( 'NONE', #224, #66 ) ;
#44 = AXIS2_PLACEMENT_3D ( 'NONE', #125, #97, #297 ) ;
#45 = FACE_OUTER_BOUND ( 'NONE', #226, .T. ) ;
#46 =( NAMED_UNIT ( * ) PLANE_ANGLE_UNIT ( ) SI_UNIT ( $, .RADIAN. ) );
#47 = CARTESIAN_POINT ( 'NONE',  ( -0.06250000000000002776, 0.0000000000000000000, 1.500000000000000222 ) ) ;
#48 =( GEOMETRIC_REPRESENTATION_CONTEXT ( 3 ) GLOBAL_UNCERTAINTY_ASSIGNED_CONTEXT ( ( #234 ) ) GLOBAL_UNIT_ASSIGNED_CONTEXT ( ( #206, #82, #80 ) ) REPRESENTATION_CONTEXT ( 'NONE', 'WORKASPACE' ) );
#49 = ORIENTED_EDGE ( 'NONE', *, *, #248, .F. ) ;
#50 = ORIENTED_EDGE ( 'NONE', *, *, #142, .T. ) ;
#51 = VERTEX_POINT ( 'NONE', #36 ) ;
#52 = AXIS2_PLACEMENT_3D ( 'NONE', #34, #143, #30 ) ;
#53 = AXIS2_PLACEMENT_3D ( 'NONE', #201, #106, #21 ) ;
#54 = UNCERTAINTY_MEASURE_WITH_UNIT (LENGTH_MEASURE( 1.000000000000000082E-05 ), #246, 'distance_accuracy_value', 'NONE');
#55 = FACE_OUTER_BOUND ( 'NONE', #111, .T. ) ;
#56 = CARTESIAN_POINT ( 'NONE',  ( -0.01198799999999998998, 1.468106582817846860E-18, 0.07199999999999999456 ) ) ;
#57 = EDGE_CURVE ( 'NONE', #323, #302, #306, .T. ) ;
#58 = CARTESIAN_POINT ( 'NONE',  ( 1.468106582817847438E-18, 0.0000000000000000000, 0.01198800000000000039 ) ) ;
#59 = VECTOR ( 'NONE', #309, 39.37007874015748854 ) ;
#60 = CARTESIAN_POINT ( 'NONE',  ( -0.06249999999999997918, 0.0000000000000000000, 0.3584677872725283154 ) ) ;
#61 = EDGE_CURVE ( 'NONE', #323, #256, #9, .T. ) ;
#62 = DIRECTION ( 'NONE',  ( 1.224646799147353454E-16, 0.0000000000000000000, 1.000000000000000000 ) ) ;
#63 = ADVANCED_FACE ( 'NONE', ( #242 ), #154, .T. ) ;
#64 = CYLINDRICAL_SURFACE ( 'NONE', #124, 0.01198799999999999866 ) ;
#65 = ORIENTED_EDGE ( 'NONE', *, *, #102, .F. ) ;
#66 = VECTOR ( 'NONE', #99, 39.37007874015748143 ) ;
#67 =( NAMED_UNIT ( * ) SI_UNIT ( $, .STERADIAN. ) SOLID_ANGLE_UNIT ( ) );
#68 = ADVANCED_FACE ( 'NONE', ( #240 ), #64, .T. ) ;
#69 = CARTESIAN_POINT ( 'NONE',  ( 8.817456953860943597E-18, 0.0000000000000000000, 0.07199999999999999456 ) ) ;
#70 = SPHERICAL_SURFACE ( 'NONE', #188, 0.01198800000000000039 ) ;
#71 = COLOUR_RGB ( '',0.7921568627450980005, 0.8196078431372548767, 0.9333333333333333481 ) ;
#72 = CARTESIAN_POINT ( 'NONE',  ( 1.468106582817847438E-18, 0.0000000000000000000, 0.01198800000000000039 ) ) ;
#73 =( NAMED_UNIT ( * ) SI_UNIT ( $, .STERADIAN. ) SOLID_ANGLE_UNIT ( ) );
#74 = PRESENTATION_STYLE_ASSIGNMENT (( #299 ) ) ;
#75 = EDGE_LOOP ( 'NONE', ( #122, #144, #136, #35 ) ) ;
#76 = DIRECTION ( 'NONE',  ( -1.224646799147353454E-16, -0.0000000000000000000, -1.000000000000000000 ) ) ;
#77 = AXIS2_PLACEMENT_3D ( 'NONE', #5, #193, #289 ) ;
#78 = CARTESIAN_POINT ( 'NONE',  ( 0.01198800000000000733, 0.0000000000000000000, 0.07199999999999999456 ) ) ;
#79 = PRODUCT_DEFINITION_FORMATION_WITH_SPECIFIED_SOURCE ( 'ANY', '', #174, .NOT_KNOWN. ) ;
#80 =( NAMED_UNIT ( * ) SI_UNIT ( $, .STERADIAN. ) SOLID_ANGLE_UNIT ( ) );
#81 = ORIENTED_EDGE ( 'NONE', *, *, #102, .T. ) ;
#82 =( NAMED_UNIT ( * ) PLANE_ANGLE_UNIT ( ) SI_UNIT ( $, .RADIAN. ) );
#83 = VERTEX_POINT ( 'NONE', #86 ) ;
#84 = DIRECTION ( 'NONE',  ( -1.000000000000000000, 0.0000000000000000000, 1.780327198073244800E-16 ) ) ;
#85 = CIRCLE ( 'NONE', #26, 0.01198799999999999866 ) ;
#86 = CARTESIAN_POINT ( 'NONE',  ( 0.06250000000000006939, 7.654042494670963708E-18, 0.3584677872725283154 ) ) ;
#87 = LINE ( 'NONE', #56, #254 ) ;
#88 = DIRECTION ( 'NONE',  ( -0.1736481776669311916, 2.126576849575783316E-17, 0.9848077530122080203 ) ) ;
#89 = CIRCLE ( 'NONE', #37, 0.01198799999999999866 ) ;
#90 = EDGE_LOOP ( 'NONE', ( #282, #322 ) ) ;
#91 = MECHANICAL_DESIGN_GEOMETRIC_PRESENTATION_REPRESENTATION (  '', ( #10 ), #317 ) ;
#92 = DIRECTION ( 'NONE',  ( 1.000000000000000000, 0.0000000000000000000, 0.0000000000000000000 ) ) ;
#93 = ADVANCED_FACE ( 'NONE', ( #290 ), #250, .T. ) ;
#94 = FACE_OUTER_BOUND ( 'NONE', #310, .T. ) ;
#95 = ORIENTED_EDGE ( 'NONE', *, *, #320, .F. ) ;
#96 = DIMENSIONAL_EXPONENTS ( 1.000000000000000000, 0.0000000000000000000, 0.0000000000000000000, 0.0000000000000000000, 0.0000000000000000000, 0.0000000000000000000, 0.0000000000000000000 ) ;
#97 = DIRECTION ( 'NONE',  ( 0.0000000000000000000, -1.000000000000000000, 0.0000000000000000000 ) ) ;
#98 = CARTESIAN_POINT ( 'NONE',  ( 0.06250000000000002776, 7.654042494670959086E-18, 1.485000000000000764 ) ) ;
#99 = DIRECTION ( 'NONE',  ( -0.0000000000000000000, -0.0000000000000000000, -1.000000000000000000 ) ) ;
#100 = VECTOR ( 'NONE', #131, 39.37007874015748143 ) ;
#101 = EDGE_CURVE ( 'NONE', #233, #209, #87, .T. ) ;
#102 = EDGE_CURVE ( 'NONE', #302, #288, #134, .T. ) ;
#103 =( LENGTH_UNIT ( ) NAMED_UNIT ( * ) SI_UNIT ( $, .METRE. ) );
#104 = DIRECTION ( 'NONE',  ( -1.000000000000000000, 0.0000000000000000000, 0.0000000000000000000 ) ) ;
#105 = ORIENTED_EDGE ( 'NONE', *, *, #2, .F. ) ;
#106 = DIRECTION ( 'NONE',  ( 0.0000000000000000000, 0.0000000000000000000, 1.000000000000000000 ) ) ;
#107 = ORIENTED_EDGE ( 'NONE', *, *, #225, .T. ) ;
#108 = STYLED_ITEM ( 'NONE', ( #314 ), #267 ) ;
#109 = ORIENTED_EDGE ( 'NONE', *, *, #178, .T. ) ;
#110 = PRODUCT_CONTEXT ( 'NONE', #227, 'mechanical' ) ;
#111 = EDGE_LOOP ( 'NONE', ( #1, #28, #325, #160 ) ) ;
#112 = PLANE ( 'NONE',  #243 ) ;
#113 = CIRCLE ( 'NONE', #32, 0.01198799999999999866 ) ;
#114 = AXIS2_PLACEMENT_3D ( 'NONE', #294, #270, #221 ) ;
#115 = CARTESIAN_POINT ( 'NONE',  ( 0.0000000000000000000, 0.0000000000000000000, 0.0000000000000000000 ) ) ;
#116 = DIRECTION ( 'NONE',  ( 1.000000000000000000, 0.0000000000000000000, 0.0000000000000000000 ) ) ;
#117 = CARTESIAN_POINT ( 'NONE',  ( 8.817456953860943597E-18, 0.0000000000000000000, 0.07199999999999999456 ) ) ;
#118 =( GEOMETRIC_REPRESENTATION_CONTEXT ( 3 ) GLOBAL_UNCERTAINTY_ASSIGNED_CONTEXT ( ( #54 ) ) GLOBAL_UNIT_ASSIGNED_CONTEXT ( ( #246, #121, #67 ) ) REPRESENTATION_CONTEXT ( 'NONE', 'WORKASPACE' ) );
#119 = EDGE_LOOP ( 'NONE', ( #230, #156, #257 ) ) ;
#120 = CARTESIAN_POINT ( 'NONE',  ( 2.202159874226770964E-18, 0.0000000000000000000, 0.0000000000000000000 ) ) ;
#121 =( NAMED_UNIT ( * ) PLANE_ANGLE_UNIT ( ) SI_UNIT ( $, .RADIAN. ) );
#122 = ORIENTED_EDGE ( 'NONE', *, *, #163, .T. ) ;
#123 = PRODUCT_DEFINITION ( 'UNKNOWN', '', #79, #255 ) ;
#124 = AXIS2_PLACEMENT_3D ( 'NONE', #217, #311, #171 ) ;
#125 = CARTESIAN_POINT ( 'NONE',  ( 1.468106582817847438E-18, 0.0000000000000000000, 0.01198800000000000039 ) ) ;
#126 = CARTESIAN_POINT ( 'NONE',  ( -0.01198799999999998998, 4.561074538744403069E-18, 0.07199999999999999456 ) ) ;
#127 = FACE_OUTER_BOUND ( 'NONE', #119, .T. ) ;
#128 = CIRCLE ( 'NONE', #18, 0.04750000000000064587 ) ;
#129 = ORIENTED_EDGE ( 'NONE', *, *, #23, .T. ) ;
#130 = DIRECTION ( 'NONE',  ( 1.000000000000000000, 0.0000000000000000000, 0.0000000000000000000 ) ) ;
#131 = DIRECTION ( 'NONE',  ( -0.0000000000000000000, -0.0000000000000000000, -1.000000000000000000 ) ) ;
#132 = ADVANCED_FACE ( 'NONE', ( #145 ), #190, .T. ) ;
#133 = EDGE_LOOP ( 'NONE', ( #300, #247, #12, #109 ) ) ;
#134 = CIRCLE ( 'NONE', #199, 0.06250000000000002776 ) ;
#135 = VERTEX_POINT ( 'NONE', #120 ) ;
#136 = ORIENTED_EDGE ( 'NONE', *, *, #20, .T. ) ;
#137 = DIRECTION ( 'NONE',  ( -0.0000000000000000000, -0.0000000000000000000, -1.000000000000000000 ) ) ;
#138 = ADVANCED_FACE ( 'NONE', ( #94 ), #42, .T. ) ;
#139 = DIRECTION ( 'NONE',  ( 0.0000000000000000000, 0.0000000000000000000, 1.000000000000000000 ) ) ;
#140 = VECTOR ( 'NONE', #268, 39.37007874015748854 ) ;
#141 = FACE_OUTER_BOUND ( 'NONE', #259, .T. ) ;
#142 = EDGE_CURVE ( 'NONE', #209, #83, #151, .T. ) ;
#143 = DIRECTION ( 'NONE',  ( 1.224646799147353454E-16, 0.0000000000000000000, 1.000000000000000000 ) ) ;
#144 = ORIENTED_EDGE ( 'NONE', *, *, #296, .T. ) ;
#145 = FACE_OUTER_BOUND ( 'NONE', #75, .T. ) ;
#146 = AXIS2_PLACEMENT_3D ( 'NONE', #115, #215, #244 ) ;
#147 = VECTOR ( 'NONE', #149, 39.37007874015748143 ) ;
#148 = CARTESIAN_POINT ( 'NONE',  ( 0.01198800000000000039, 1.468106582817846860E-18, 0.01198799999999999866 ) ) ;
#149 = DIRECTION ( 'NONE',  ( -1.224646799147353454E-16, -0.0000000000000000000, -1.000000000000000000 ) ) ;
#150 = DIRECTION ( 'NONE',  ( -1.224646799147353454E-16, -0.0000000000000000000, -1.000000000000000000 ) ) ;
#151 = CIRCLE ( 'NONE', #231, 0.06250000000000002776 ) ;
#152 = DIRECTION ( 'NONE',  ( 0.0000000000000000000, 1.000000000000000000, 0.0000000000000000000 ) ) ;
#153 = ADVANCED_FACE ( 'NONE', ( #141 ), #194, .T. ) ;
#154 = CONICAL_SURFACE ( 'NONE', #77, 0.04750000000000064587, 0.7853981633974466137 ) ;
#155 = AXIS2_PLACEMENT_3D ( 'NONE', #176, #266, #271 ) ;
#156 = ORIENTED_EDGE ( 'NONE', *, *, #248, .T. ) ;
#157 = UNCERTAINTY_MEASURE_WITH_UNIT (LENGTH_MEASURE( 1.000000000000000082E-05 ), #277, 'distance_accuracy_value', 'NONE');
#158 = ORIENTED_EDGE ( 'NONE', *, *, #142, .F. ) ;
#159 = FILL_AREA_STYLE ('',( #301 ) ) ;
#160 = ORIENTED_EDGE ( 'NONE', *, *, #40, .F. ) ;
#161 = AXIS2_PLACEMENT_3D ( 'NONE', #202, #229, #166 ) ;
#162 = ORIENTED_EDGE ( 'NONE', *, *, #23, .F. ) ;
#163 = EDGE_CURVE ( 'NONE', #233, #278, #89, .T. ) ;
#164 = ORIENTED_EDGE ( 'NONE', *, *, #40, .T. ) ;
#165 = CARTESIAN_POINT ( 'NONE',  ( 8.817456953860943597E-18, 0.0000000000000000000, 0.07199999999999999456 ) ) ;
#166 = DIRECTION ( 'NONE',  ( 1.000000000000000000, 0.0000000000000000000, 0.0000000000000000000 ) ) ;
#167 = PRESENTATION_LAYER_ASSIGNMENT (  '', '', ( #10 ) ) ;
#168 = ADVANCED_FACE ( 'NONE', ( #191 ), #112, .T. ) ;
#169 = SPHERICAL_SURFACE ( 'NONE', #212, 0.01198800000000000039 ) ;
#170 = PRODUCT_DEFINITION_SHAPE ( 'NONE', 'NONE',  #123 ) ;
#171 = DIRECTION ( 'NONE',  ( -1.000000000000000000, 0.0000000000000000000, 1.224646799147353454E-16 ) ) ;
#172 = FILL_AREA_STYLE_COLOUR ( '', #71 ) ;
#173 = COLOUR_RGB ( '',0.7921568627450980005, 0.8196078431372548767, 0.9333333333333333481 ) ;
#174 = PRODUCT ( 'Micro_BMR-024-2', 'Micro_BMR-024-2', '', ( #110 ) ) ;
#175 = DIRECTION ( 'NONE',  ( 1.000000000000000000, 0.0000000000000000000, 0.0000000000000000000 ) ) ;
#176 = CARTESIAN_POINT ( 'NONE',  ( 0.0000000000000000000, 0.0000000000000000000, 1.500000000000000222 ) ) ;
#177 = AXIS2_PLACEMENT_3D ( 'NONE', #29, #137, #237 ) ;
#178 = EDGE_CURVE ( 'NONE', #51, #258, #85, .T. ) ;
#179 = SURFACE_STYLE_FILL_AREA ( #316 ) ;
#180 = CARTESIAN_POINT ( 'NONE',  ( -0.04750000000000064587, 0.0000000000000000000, 1.500000000000000222 ) ) ;
#181 = ORIENTED_EDGE ( 'NONE', *, *, #210, .T. ) ;
#182 = AXIS2_PLACEMENT_3D ( 'NONE', #284, #319, #104 ) ;
#183 = DIRECTION ( 'NONE',  ( 0.1736481776669313859, 0.0000000000000000000, 0.9848077530122077983 ) ) ;
#184 = ORIENTED_EDGE ( 'NONE', *, *, #320, .T. ) ;
#185 = SURFACE_SIDE_STYLE ('',( #204 ) ) ;
#186 = LINE ( 'NONE', #47, #100 ) ;
#187 = EDGE_CURVE ( 'NONE', #256, #323, #128, .T. ) ;
#188 = AXIS2_PLACEMENT_3D ( 'NONE', #72, #152, #251 ) ;
#189 = EDGE_LOOP ( 'NONE', ( #195, #236, #50, #162 ) ) ;
#190 = CYLINDRICAL_SURFACE ( 'NONE', #146, 0.01198799999999999866 ) ;
#191 = FACE_OUTER_BOUND ( 'NONE', #90, .T. ) ;
#192 = CARTESIAN_POINT ( 'NONE',  ( 0.0000000000000000000, 0.0000000000000000000, 1.500000000000000222 ) ) ;
#193 = DIRECTION ( 'NONE',  ( 0.0000000000000000000, 0.0000000000000000000, -1.000000000000000000 ) ) ;
#194 = CYLINDRICAL_SURFACE ( 'NONE', #177, 0.06250000000000002776 ) ;
#195 = ORIENTED_EDGE ( 'NONE', *, *, #163, .F. ) ;
#196 = LINE ( 'NONE', #292, #4 ) ;
#197 = CARTESIAN_POINT ( 'NONE',  ( 1.468106582817847438E-18, 0.0000000000000000000, 0.01198800000000000039 ) ) ;
#198 = CARTESIAN_POINT ( 'NONE',  ( -0.01198799999999999866, 0.0000000000000000000, 1.468106582817847053E-18 ) ) ;
#199 = AXIS2_PLACEMENT_3D ( 'NONE', #213, #265, #11 ) ;
#200 = LINE ( 'NONE', #293, #140 ) ;
#201 = CARTESIAN_POINT ( 'NONE',  ( 0.0000000000000000000, 0.0000000000000000000, 0.0000000000000000000 ) ) ;
#202 = CARTESIAN_POINT ( 'NONE',  ( 0.0000000000000000000, 0.0000000000000000000, 1.485000000000000764 ) ) ;
#203 = ADVANCED_FACE ( 'NONE', ( #308 ), #169, .T. ) ;
#204 = SURFACE_STYLE_FILL_AREA ( #159 ) ;
#205 = EDGE_LOOP ( 'NONE', ( #49, #24, #22 ) ) ;
#206 =( CONVERSION_BASED_UNIT ( 'INCH', #321 ) LENGTH_UNIT ( ) NAMED_UNIT ( #96 ) );
#207 = ORIENTED_EDGE ( 'NONE', *, *, #219, .F. ) ;
#208 = LENGTH_MEASURE_WITH_UNIT ( LENGTH_MEASURE( 0.02539999999999999897 ), #103 );
#209 = VERTEX_POINT ( 'NONE', #60 ) ;
#210 = EDGE_CURVE ( 'NONE', #288, #83, #43, .T. ) ;
#211 = DIRECTION ( 'NONE',  ( 1.224646799147353454E-16, 0.0000000000000000000, 1.000000000000000000 ) ) ;
#212 = AXIS2_PLACEMENT_3D ( 'NONE', #197, #252, #175 ) ;
#213 = CARTESIAN_POINT ( 'NONE',  ( 0.0000000000000000000, 0.0000000000000000000, 1.485000000000000764 ) ) ;
#214 = DIRECTION ( 'NONE',  ( -1.224646799147353454E-16, -0.0000000000000000000, -1.000000000000000000 ) ) ;
#215 = DIRECTION ( 'NONE',  ( -1.224646799147353454E-16, -0.0000000000000000000, -1.000000000000000000 ) ) ;
#216 = ORIENTED_EDGE ( 'NONE', *, *, #101, .F. ) ;
#217 = CARTESIAN_POINT ( 'NONE',  ( 0.0000000000000000000, 0.0000000000000000000, 0.0000000000000000000 ) ) ;
#218 = DIRECTION ( 'NONE',  ( 0.0000000000000000000, 0.0000000000000000000, 1.000000000000000000 ) ) ;
#219 = EDGE_CURVE ( 'NONE', #278, #233, #113, .T. ) ;
#220 = SURFACE_SIDE_STYLE ('',( #179 ) ) ;
#221 = DIRECTION ( 'NONE',  ( -1.000000000000000000, 1.224646799147353207E-16, 0.0000000000000000000 ) ) ;
#222 = AXIS2_PLACEMENT_3D ( 'NONE', #14, #76, #130 ) ;
#223 = DIRECTION ( 'NONE',  ( -1.224646799147353454E-16, -0.0000000000000000000, -1.000000000000000000 ) ) ;
#224 = CARTESIAN_POINT ( 'NONE',  ( 0.06250000000000002776, 7.654042494670959086E-18, 1.500000000000000222 ) ) ;
#225 = EDGE_CURVE ( 'NONE', #256, #288, #200, .T. ) ;
#226 = EDGE_LOOP ( 'NONE', ( #81, #181, #158, #105 ) ) ;
#227 = APPLICATION_CONTEXT ( 'automotive_design' ) ;
#228 = SHAPE_DEFINITION_REPRESENTATION ( #170, #31 ) ;
#229 = DIRECTION ( 'NONE',  ( 0.0000000000000000000, 0.0000000000000000000, -1.000000000000000000 ) ) ;
#230 = ORIENTED_EDGE ( 'NONE', *, *, #275, .F. ) ;
#231 = AXIS2_PLACEMENT_3D ( 'NONE', #263, #285, #260 ) ;
#232 = CIRCLE ( 'NONE', #114, 0.01198800000000000039 ) ;
#233 = VERTEX_POINT ( 'NONE', #126 ) ;
#234 = UNCERTAINTY_MEASURE_WITH_UNIT (LENGTH_MEASURE( 1.000000000000000082E-05 ), #206, 'distance_accuracy_value', 'NONE');
#235 =( LENGTH_UNIT ( ) NAMED_UNIT ( * ) SI_UNIT ( $, .METRE. ) );
#236 = ORIENTED_EDGE ( 'NONE', *, *, #101, .T. ) ;
#237 = DIRECTION ( 'NONE',  ( -1.000000000000000000, 0.0000000000000000000, 0.0000000000000000000 ) ) ;
#238 = ADVANCED_FACE ( 'NONE', ( #45 ), #315, .T. ) ;
#239 = EDGE_CURVE ( 'NONE', #233, #51, #41, .T. ) ;
#240 = FACE_OUTER_BOUND ( 'NONE', #133, .T. ) ;
#241 = DIRECTION ( 'NONE',  ( -1.000000000000000000, 0.0000000000000000000, 1.780327198073244800E-16 ) ) ;
#242 = FACE_OUTER_BOUND ( 'NONE', #279, .T. ) ;
#243 = AXIS2_PLACEMENT_3D ( 'NONE', #261, #139, #286 ) ;
#244 = DIRECTION ( 'NONE',  ( -1.000000000000000000, 0.0000000000000000000, 1.224646799147353454E-16 ) ) ;
#245 = CIRCLE ( 'NONE', #44, 0.01198800000000000039 ) ;
#246 =( CONVERSION_BASED_UNIT ( 'INCH', #39 ) LENGTH_UNIT ( ) NAMED_UNIT ( #15 ) );
#247 = ORIENTED_EDGE ( 'NONE', *, *, #219, .T. ) ;
#248 = EDGE_CURVE ( 'NONE', #135, #258, #245, .T. ) ;
#249 = CARTESIAN_POINT ( 'NONE',  ( -0.06250000000000002776, 0.0000000000000000000, 1.485000000000000764 ) ) ;
#250 = CONICAL_SURFACE ( 'NONE', #305, 0.01198799999999999866, 0.1745329251994338915 ) ;
#251 = DIRECTION ( 'NONE',  ( 1.000000000000000000, 0.0000000000000000000, 0.0000000000000000000 ) ) ;
#252 = DIRECTION ( 'NONE',  ( 0.0000000000000000000, 1.000000000000000000, 0.0000000000000000000 ) ) ;
#253 = ADVANCED_FACE ( 'NONE', ( #127 ), #70, .T. ) ;
#254 = VECTOR ( 'NONE', #88, 39.37007874015747433 ) ;
#255 = PRODUCT_DEFINITION_CONTEXT ( 'detailed design', #276, 'design' ) ;
#256 = VERTEX_POINT ( 'NONE', #13 ) ;
#257 = ORIENTED_EDGE ( 'NONE', *, *, #178, .F. ) ;
#258 = VERTEX_POINT ( 'NONE', #148 ) ;
#259 = EDGE_LOOP ( 'NONE', ( #303, #164, #25, #95 ) ) ;
#260 = DIRECTION ( 'NONE',  ( 1.000000000000000000, 0.0000000000000000000, 0.0000000000000000000 ) ) ;
#261 = CARTESIAN_POINT ( 'NONE',  ( 0.0000000000000000000, 0.0000000000000000000, 1.500000000000000222 ) ) ;
#262 = PRESENTATION_LAYER_ASSIGNMENT (  '', '', ( #108 ) ) ;
#263 = CARTESIAN_POINT ( 'NONE',  ( 4.389964282807362285E-17, 0.0000000000000000000, 0.3584677872725283154 ) ) ;
#264 = CARTESIAN_POINT ( 'NONE',  ( -0.04750000000000064587, 0.0000000000000000000, 1.500000000000000222 ) ) ;
#265 = DIRECTION ( 'NONE',  ( 0.0000000000000000000, 0.0000000000000000000, -1.000000000000000000 ) ) ;
#266 = DIRECTION ( 'NONE',  ( -0.0000000000000000000, -0.0000000000000000000, -1.000000000000000000 ) ) ;
#267 = MANIFOLD_SOLID_BREP ( 'Fillet1', #8 ) ;
#268 = DIRECTION ( 'NONE',  ( 0.7071067811865462405, 8.659560562354916834E-17, -0.7071067811865486830 ) ) ;
#269 = DIMENSIONAL_EXPONENTS ( 1.000000000000000000, 0.0000000000000000000, 0.0000000000000000000, 0.0000000000000000000, 0.0000000000000000000, 0.0000000000000000000, 0.0000000000000000000 ) ;
#270 = DIRECTION ( 'NONE',  ( 1.224646799147353207E-16, 1.000000000000000000, -0.0000000000000000000 ) ) ;
#271 = DIRECTION ( 'NONE',  ( -1.000000000000000000, 0.0000000000000000000, 0.0000000000000000000 ) ) ;
#272 = AXIS2_PLACEMENT_3D ( 'NONE', #192, #218, #92 ) ;
#273 = CIRCLE ( 'NONE', #222, 0.06250000000000002776 ) ;
#274 =( LENGTH_UNIT ( ) NAMED_UNIT ( * ) SI_UNIT ( $, .METRE. ) );
#275 = EDGE_CURVE ( 'NONE', #135, #51, #232, .T. ) ;
#276 = APPLICATION_CONTEXT ( 'automotive_design' ) ;
#277 =( CONVERSION_BASED_UNIT ( 'INCH', #208 ) LENGTH_UNIT ( ) NAMED_UNIT ( #269 ) );
#278 = VERTEX_POINT ( 'NONE', #313 ) ;
#279 = EDGE_LOOP ( 'NONE', ( #280, #107, #65, #298 ) ) ;
#280 = ORIENTED_EDGE ( 'NONE', *, *, #187, .F. ) ;
#281 = APPLICATION_PROTOCOL_DEFINITION ( 'draft international standard', 'automotive_design', 1998, #227 ) ;
#282 = ORIENTED_EDGE ( 'NONE', *, *, #61, .T. ) ;
#283 = CONICAL_SURFACE ( 'NONE', #182, 0.04750000000000064587, 0.7853981633974466137 ) ;
#284 = CARTESIAN_POINT ( 'NONE',  ( 0.0000000000000000000, 0.0000000000000000000, 1.500000000000000222 ) ) ;
#285 = DIRECTION ( 'NONE',  ( -1.224646799147353454E-16, -0.0000000000000000000, -1.000000000000000000 ) ) ;
#286 = DIRECTION ( 'NONE',  ( 1.000000000000000000, 0.0000000000000000000, -0.0000000000000000000 ) ) ;
#287 = PRODUCT_RELATED_PRODUCT_CATEGORY ( 'part', '', ( #174 ) ) ;
#288 = VERTEX_POINT ( 'NONE', #98 ) ;
#289 = DIRECTION ( 'NONE',  ( -1.000000000000000000, 0.0000000000000000000, 0.0000000000000000000 ) ) ;
#290 = FACE_OUTER_BOUND ( 'NONE', #189, .T. ) ;
#291 = CIRCLE ( 'NONE', #161, 0.06250000000000002776 ) ;
#292 = CARTESIAN_POINT ( 'NONE',  ( 0.01198799999999999866, 1.468106582817846860E-18, -1.468106582817847053E-18 ) ) ;
#293 = CARTESIAN_POINT ( 'NONE',  ( 0.04750000000000064587, 5.817072295950006528E-18, 1.500000000000000222 ) ) ;
#294 = CARTESIAN_POINT ( 'NONE',  ( 1.468106582817847438E-18, 0.0000000000000000000, 0.01198800000000000039 ) ) ;
#295 = AXIS2_PLACEMENT_3D ( 'NONE', #19, #211, #84 ) ;
#296 = EDGE_CURVE ( 'NONE', #278, #258, #196, .T. ) ;
#297 = DIRECTION ( 'NONE',  ( 0.0000000000000000000, 0.0000000000000000000, -1.000000000000000000 ) ) ;
#298 = ORIENTED_EDGE ( 'NONE', *, *, #57, .F. ) ;
#299 = SURFACE_STYLE_USAGE ( .BOTH. , #185 ) ;
#300 = ORIENTED_EDGE ( 'NONE', *, *, #296, .F. ) ;
#301 = FILL_AREA_STYLE_COLOUR ( '', #173 ) ;
#302 = VERTEX_POINT ( 'NONE', #249 ) ;
#303 = ORIENTED_EDGE ( 'NONE', *, *, #210, .F. ) ;
#304 = LINE ( 'NONE', #78, #312 ) ;
#305 = AXIS2_PLACEMENT_3D ( 'NONE', #117, #62, #307 ) ;
#306 = LINE ( 'NONE', #264, #59 ) ;
#307 = DIRECTION ( 'NONE',  ( 1.000000000000000000, 0.0000000000000000000, 0.0000000000000000000 ) ) ;
#308 = FACE_OUTER_BOUND ( 'NONE', #205, .T. ) ;
#309 = DIRECTION ( 'NONE',  ( -0.7071067811865462405, 0.0000000000000000000, -0.7071067811865486830 ) ) ;
#310 = EDGE_LOOP ( 'NONE', ( #216, #207, #129, #184 ) ) ;
#311 = DIRECTION ( 'NONE',  ( -1.224646799147353454E-16, -0.0000000000000000000, -1.000000000000000000 ) ) ;
#312 = VECTOR ( 'NONE', #183, 39.37007874015748143 ) ;
#313 = CARTESIAN_POINT ( 'NONE',  ( 0.01198800000000000733, 0.0000000000000000000, 0.07199999999999999456 ) ) ;
#314 = PRESENTATION_STYLE_ASSIGNMENT (( #16 ) ) ;
#315 = CYLINDRICAL_SURFACE ( 'NONE', #155, 0.06250000000000002776 ) ;
#316 = FILL_AREA_STYLE ('',( #172 ) ) ;
#317 =( GEOMETRIC_REPRESENTATION_CONTEXT ( 3 ) GLOBAL_UNCERTAINTY_ASSIGNED_CONTEXT ( ( #157 ) ) GLOBAL_UNIT_ASSIGNED_CONTEXT ( ( #277, #46, #73 ) ) REPRESENTATION_CONTEXT ( 'NONE', 'WORKASPACE' ) );
#318 = APPLICATION_PROTOCOL_DEFINITION ( 'draft international standard', 'automotive_design', 1998, #276 ) ;
#319 = DIRECTION ( 'NONE',  ( 0.0000000000000000000, 0.0000000000000000000, -1.000000000000000000 ) ) ;
#320 = EDGE_CURVE ( 'NONE', #83, #209, #273, .T. ) ;
#321 = LENGTH_MEASURE_WITH_UNIT ( LENGTH_MEASURE( 0.02539999999999999897 ), #235 );
#322 = ORIENTED_EDGE ( 'NONE', *, *, #187, .T. ) ;
#323 = VERTEX_POINT ( 'NONE', #180 ) ;
#324 = CIRCLE ( 'NONE', #295, 0.01198799999999999866 ) ;
#325 = ORIENTED_EDGE ( 'NONE', *, *, #57, .T. ) ;
ENDSEC;
END-ISO-10303-21;
