ISO-10303-21;
HEADER;
FILE_DESCRIPTION (( 'STEP AP214' ),
    '1' );
FILE_NAME ('Micro_DM-750-2120X.STEP',
    '2021-09-02T16:11:19',
    ( '' ),
    ( '' ),
    'SwSTEP 2.0',
    'SolidWorks 2020',
    '' );
FILE_SCHEMA (( 'AUTOMOTIVE_DESIGN' ));
ENDSEC;

DATA;
#1 = COLOUR_RGB ( '',0.7921568627450980005, 0.8196078431372548767, 0.9333333333333333481 ) ;
#2 = DIRECTION ( 'NONE',  ( -1.000000000000000000, 0.0000000000000000000, 0.0000000000000000000 ) ) ;
#3 =( NAMED_UNIT ( * ) SI_UNIT ( $, .STERADIAN. ) SOLID_ANGLE_UNIT ( ) );
#4 = ADVANCED_FACE ( 'NONE', ( #16, #117 ), #178, .T. ) ;
#5 = UNCERTAINTY_MEASURE_WITH_UNIT (LENGTH_MEASURE( 1.000000000000000082E-05 ), #278, 'distance_accuracy_value', 'NONE');
#6 = APPLICATION_PROTOCOL_DEFINITION ( 'draft international standard', 'automotive_design', 1998, #329 ) ;
#7 = ORIENTED_EDGE ( 'NONE', *, *, #69, .F. ) ;
#8 = AXIS2_PLACEMENT_3D ( 'NONE', #246, #217, #22 ) ;
#9 = AXIS2_PLACEMENT_3D ( 'NONE', #126, #225, #328 ) ;
#10 = LINE ( 'NONE', #184, #60 ) ;
#11 = FILL_AREA_STYLE ('',( #240 ) ) ;
#12 = EDGE_CURVE ( 'NONE', #130, #84, #135, .T. ) ;
#13 = ORIENTED_EDGE ( 'NONE', *, *, #194, .F. ) ;
#14 = FACE_OUTER_BOUND ( 'NONE', #207, .T. ) ;
#15 = AXIS2_PLACEMENT_3D ( 'NONE', #258, #231, #2 ) ;
#16 = FACE_BOUND ( 'NONE', #298, .T. ) ;
#17 = PRESENTATION_STYLE_ASSIGNMENT (( #171 ) ) ;
#18 = ORIENTED_EDGE ( 'NONE', *, *, #235, .F. ) ;
#19 = CARTESIAN_POINT ( 'NONE',  ( 0.0000000000000000000, 0.0000000000000000000, 1.707404996040164512E-17 ) ) ;
#20 = VECTOR ( 'NONE', #156, 39.37007874015748143 ) ;
#21 = AXIS2_PLACEMENT_3D ( 'NONE', #317, #133, #62 ) ;
#22 = DIRECTION ( 'NONE',  ( 1.000000000000000000, 0.0000000000000000000, 0.0000000000000000000 ) ) ;
#23 = CIRCLE ( 'NONE', #9, 0.3750000000000000555 ) ;
#24 = DIRECTION ( 'NONE',  ( -0.0000000000000000000, -0.0000000000000000000, -1.000000000000000000 ) ) ;
#25 = ORIENTED_EDGE ( 'NONE', *, *, #50, .T. ) ;
#26 = LINE ( 'NONE', #47, #210 ) ;
#27 = DIRECTION ( 'NONE',  ( 1.000000000000000000, 0.0000000000000000000, -0.0000000000000000000 ) ) ;
#28 = VECTOR ( 'NONE', #251, 39.37007874015748143 ) ;
#29 = CARTESIAN_POINT ( 'NONE',  ( 0.3750000000000000555, 4.592425496802575451E-17, 4.000000000000000000 ) ) ;
#30 = CONICAL_SURFACE ( 'NONE', #72, 0.3599999999999994316, 0.7853981633974415066 ) ;
#31 = PRESENTATION_LAYER_ASSIGNMENT (  '', '', ( #125 ) ) ;
#32 = DIRECTION ( 'NONE',  ( -1.000000000000000000, 0.0000000000000000000, 0.0000000000000000000 ) ) ;
#33 = SHAPE_DEFINITION_REPRESENTATION ( #306, #111 ) ;
#34 = ORIENTED_EDGE ( 'NONE', *, *, #100, .T. ) ;
#35 =( CONVERSION_BASED_UNIT ( 'INCH', #56 ) LENGTH_UNIT ( ) NAMED_UNIT ( #316 ) );
#36 = ORIENTED_EDGE ( 'NONE', *, *, #202, .T. ) ;
#37 = MECHANICAL_DESIGN_GEOMETRIC_PRESENTATION_REPRESENTATION (  '', ( #187 ), #247 ) ;
#38 = ORIENTED_EDGE ( 'NONE', *, *, #128, .F. ) ;
#39 = CARTESIAN_POINT ( 'NONE',  ( 0.0000000000000000000, 0.0000000000000000000, 1.500000000000000222 ) ) ;
#40 = ORIENTED_EDGE ( 'NONE', *, *, #295, .T. ) ;
#41 = CLOSED_SHELL ( 'NONE', ( #271, #123, #168, #82, #173, #232, #42, #4, #158, #206, #93 ) ) ;
#42 = ADVANCED_FACE ( 'NONE', ( #289 ), #98, .T. ) ;
#43 = CYLINDRICAL_SURFACE ( 'NONE', #254, 0.3750000000000000555 ) ;
#44 = CARTESIAN_POINT ( 'NONE',  ( -0.3749500000000001165, 0.0000000000000000000, 0.0000000000000000000 ) ) ;
#45 = LENGTH_MEASURE_WITH_UNIT ( LENGTH_MEASURE( 0.02539999999999999897 ), #164 );
#46 = ORIENTED_EDGE ( 'NONE', *, *, #295, .F. ) ;
#47 = CARTESIAN_POINT ( 'NONE',  ( -0.3750000000000000555, 0.0000000000000000000, 4.000000000000000000 ) ) ;
#48 = DIRECTION ( 'NONE',  ( -1.000000000000000000, 0.0000000000000000000, 0.0000000000000000000 ) ) ;
#49 = CARTESIAN_POINT ( 'NONE',  ( 0.007499999999999999722, 0.0000000000000000000, 1.707404996040164512E-17 ) ) ;
#50 = EDGE_CURVE ( 'NONE', #160, #208, #283, .T. ) ;
#51 = AXIS2_PLACEMENT_3D ( 'NONE', #39, #136, #242 ) ;
#52 = ORIENTED_EDGE ( 'NONE', *, *, #148, .F. ) ;
#53 = DIRECTION ( 'NONE',  ( 0.8660254037844400399, 0.0000000000000000000, 0.4999999999999976685 ) ) ;
#54 =( NAMED_UNIT ( * ) SI_UNIT ( $, .STERADIAN. ) SOLID_ANGLE_UNIT ( ) );
#55 = DIRECTION ( 'NONE',  ( -1.000000000000000000, 0.0000000000000000000, 0.0000000000000000000 ) ) ;
#56 = LENGTH_MEASURE_WITH_UNIT ( LENGTH_MEASURE( 0.02539999999999999897 ), #132 );
#57 = DIRECTION ( 'NONE',  ( 1.000000000000000000, 0.0000000000000000000, 0.0000000000000000000 ) ) ;
#58 = DIRECTION ( 'NONE',  ( -0.0000000000000000000, 0.0000000000000000000, -1.000000000000000000 ) ) ;
#59 = EDGE_LOOP ( 'NONE', ( #36, #213 ) ) ;
#60 = VECTOR ( 'NONE', #292, 39.37007874015748143 ) ;
#61 = AXIS2_PLACEMENT_3D ( 'NONE', #74, #201, #55 ) ;
#62 = DIRECTION ( 'NONE',  ( -1.000000000000000000, 0.0000000000000000000, 0.0000000000000000000 ) ) ;
#63 = ORIENTED_EDGE ( 'NONE', *, *, #100, .F. ) ;
#64 = EDGE_CURVE ( 'NONE', #291, #87, #10, .T. ) ;
#65 = ORIENTED_EDGE ( 'NONE', *, *, #301, .F. ) ;
#66 = SURFACE_STYLE_FILL_AREA ( #11 ) ;
#67 = LINE ( 'NONE', #44, #256 ) ;
#68 = CARTESIAN_POINT ( 'NONE',  ( -0.007499999999999999722, 2.341830841669526008E-17, 1.707404996040164512E-17 ) ) ;
#69 = EDGE_CURVE ( 'NONE', #219, #165, #138, .T. ) ;
#70 = ORIENTED_EDGE ( 'NONE', *, *, #140, .T. ) ;
#71 = DIRECTION ( 'NONE',  ( 1.000000000000000000, 0.0000000000000000000, 0.0000000000000000000 ) ) ;
#72 = AXIS2_PLACEMENT_3D ( 'NONE', #268, #186, #94 ) ;
#73 = DIRECTION ( 'NONE',  ( 0.0000000000000000000, 0.0000000000000000000, 1.000000000000000000 ) ) ;
#74 = CARTESIAN_POINT ( 'NONE',  ( 0.0000000000000000000, 0.0000000000000000000, 0.0000000000000000000 ) ) ;
#75 = PLANE ( 'NONE',  #163 ) ;
#76 = LENGTH_MEASURE_WITH_UNIT ( LENGTH_MEASURE( 0.02539999999999999897 ), #78 );
#77 = CARTESIAN_POINT ( 'NONE',  ( 0.0000000000000000000, 0.0000000000000000000, 4.000000000000000000 ) ) ;
#78 =( LENGTH_UNIT ( ) NAMED_UNIT ( * ) SI_UNIT ( $, .METRE. ) );
#79 = CARTESIAN_POINT ( 'NONE',  ( 0.007499999999999999722, 0.0000000000000000000, 1.707404996040164512E-17 ) ) ;
#80 = FILL_AREA_STYLE_COLOUR ( '', #304 ) ;
#81 = PRESENTATION_LAYER_ASSIGNMENT (  '', '', ( #187 ) ) ;
#82 = ADVANCED_FACE ( 'NONE', ( #14 ), #114, .T. ) ;
#83 = SURFACE_STYLE_FILL_AREA ( #203 ) ;
#84 = VERTEX_POINT ( 'NONE', #145 ) ;
#85 = SURFACE_STYLE_USAGE ( .BOTH. , #177 ) ;
#86 = ORIENTED_EDGE ( 'NONE', *, *, #64, .F. ) ;
#87 = VERTEX_POINT ( 'NONE', #252 ) ;
#88 = ORIENTED_EDGE ( 'NONE', *, *, #202, .F. ) ;
#89 = DIRECTION ( 'NONE',  ( -0.0000000000000000000, -0.0000000000000000000, -1.000000000000000000 ) ) ;
#90 = DIRECTION ( 'NONE',  ( -1.000000000000000000, 0.0000000000000000000, 0.0000000000000000000 ) ) ;
#91 = FACE_OUTER_BOUND ( 'NONE', #179, .T. ) ;
#92 = CIRCLE ( 'NONE', #15, 0.007499999999999999722 ) ;
#93 = ADVANCED_FACE ( 'NONE', ( #327 ), #75, .F. ) ;
#94 = DIRECTION ( 'NONE',  ( -1.000000000000000000, 0.0000000000000000000, 0.0000000000000000000 ) ) ;
#95 = ORIENTED_EDGE ( 'NONE', *, *, #235, .T. ) ;
#96 = DIRECTION ( 'NONE',  ( -0.0000000000000000000, -0.0000000000000000000, -1.000000000000000000 ) ) ;
#97 = DIRECTION ( 'NONE',  ( -0.0000000000000000000, -0.0000000000000000000, -1.000000000000000000 ) ) ;
#98 = CONICAL_SURFACE ( 'NONE', #21, 0.3599999999999994316, 0.7853981633974415066 ) ;
#99 = DIRECTION ( 'NONE',  ( -0.0000000000000000000, -0.0000000000000000000, -1.000000000000000000 ) ) ;
#100 = EDGE_CURVE ( 'NONE', #291, #130, #321, .T. ) ;
#101 = DIRECTION ( 'NONE',  ( -1.000000000000000000, 0.0000000000000000000, 0.0000000000000000000 ) ) ;
#102 = MANIFOLD_SOLID_BREP ( 'Cut-Revolve4', #41 ) ;
#103 = ORIENTED_EDGE ( 'NONE', *, *, #191, .F. ) ;
#104 = CIRCLE ( 'NONE', #204, 0.3750000000000000555 ) ;
#105 = DIRECTION ( 'NONE',  ( 0.0000000000000000000, 0.0000000000000000000, 1.000000000000000000 ) ) ;
#106 = AXIS2_PLACEMENT_3D ( 'NONE', #303, #152, #32 ) ;
#107 =( GEOMETRIC_REPRESENTATION_CONTEXT ( 3 ) GLOBAL_UNCERTAINTY_ASSIGNED_CONTEXT ( ( #5 ) ) GLOBAL_UNIT_ASSIGNED_CONTEXT ( ( #278, #255, #54 ) ) REPRESENTATION_CONTEXT ( 'NONE', 'WORKASPACE' ) );
#108 = CARTESIAN_POINT ( 'NONE',  ( 0.3749500000000001165, 4.591813173403002577E-17, 0.0000000000000000000 ) ) ;
#109 = EDGE_LOOP ( 'NONE', ( #266, #63, #212, #320 ) ) ;
#110 = CIRCLE ( 'NONE', #296, 0.007499999999999999722 ) ;
#111 = ADVANCED_BREP_SHAPE_REPRESENTATION ( 'Micro_DM-750-2120X', ( #102, #188 ), #107 ) ;
#112 = ORIENTED_EDGE ( 'NONE', *, *, #265, .F. ) ;
#113 = EDGE_LOOP ( 'NONE', ( #312, #181 ) ) ;
#114 = CYLINDRICAL_SURFACE ( 'NONE', #216, 0.3750000000000000555 ) ;
#115 = PRODUCT_DEFINITION ( 'UNKNOWN', '', #309, #151 ) ;
#116 = CIRCLE ( 'NONE', #236, 0.3750000000000000555 ) ;
#117 = FACE_OUTER_BOUND ( 'NONE', #59, .T. ) ;
#118 = ORIENTED_EDGE ( 'NONE', *, *, #153, .F. ) ;
#119 = CARTESIAN_POINT ( 'NONE',  ( 0.0000000000000000000, 0.0000000000000000000, 1.707404996040164512E-17 ) ) ;
#120 = DIRECTION ( 'NONE',  ( -1.000000000000000000, 0.0000000000000000000, 0.0000000000000000000 ) ) ;
#121 = ORIENTED_EDGE ( 'NONE', *, *, #301, .T. ) ;
#122 = CARTESIAN_POINT ( 'NONE',  ( -0.007499999999999999722, 9.184850993605147975E-19, 1.707404996040164512E-17 ) ) ;
#123 = ADVANCED_FACE ( 'NONE', ( #215 ), #288, .T. ) ;
#124 = ORIENTED_EDGE ( 'NONE', *, *, #69, .T. ) ;
#125 = STYLED_ITEM ( 'NONE', ( #233 ), #111 ) ;
#126 = CARTESIAN_POINT ( 'NONE',  ( 0.0000000000000000000, 0.0000000000000000000, 3.984999999999998987 ) ) ;
#127 = DIRECTION ( 'NONE',  ( 1.000000000000000000, 0.0000000000000000000, -0.0000000000000000000 ) ) ;
#128 = EDGE_CURVE ( 'NONE', #87, #250, #26, .T. ) ;
#129 = CONICAL_SURFACE ( 'NONE', #314, 0.007499999999999999722, 1.047197551196600518 ) ;
#130 = VERTEX_POINT ( 'NONE', #218 ) ;
#131 = DIRECTION ( 'NONE',  ( 1.000000000000000000, 0.0000000000000000000, 0.0000000000000000000 ) ) ;
#132 =( LENGTH_UNIT ( ) NAMED_UNIT ( * ) SI_UNIT ( $, .METRE. ) );
#133 = DIRECTION ( 'NONE',  ( 0.0000000000000000000, 0.0000000000000000000, -1.000000000000000000 ) ) ;
#134 = CIRCLE ( 'NONE', #8, 0.3599999999999994316 ) ;
#135 = LINE ( 'NONE', #241, #20 ) ;
#136 = DIRECTION ( 'NONE',  ( -0.0000000000000000000, -0.0000000000000000000, -1.000000000000000000 ) ) ;
#137 = ORIENTED_EDGE ( 'NONE', *, *, #140, .F. ) ;
#138 = CIRCLE ( 'NONE', #51, 0.3749500000000001720 ) ;
#139 = DIRECTION ( 'NONE',  ( -0.0000000000000000000, -0.0000000000000000000, -1.000000000000000000 ) ) ;
#140 = EDGE_CURVE ( 'NONE', #157, #160, #245, .T. ) ;
#141 = DIRECTION ( 'NONE',  ( -1.000000000000000000, 0.0000000000000000000, 0.0000000000000000000 ) ) ;
#142 = ORIENTED_EDGE ( 'NONE', *, *, #285, .F. ) ;
#143 = DIRECTION ( 'NONE',  ( 1.000000000000000000, 0.0000000000000000000, 0.0000000000000000000 ) ) ;
#144 =( CONVERSION_BASED_UNIT ( 'INCH', #45 ) LENGTH_UNIT ( ) NAMED_UNIT ( #294 ) );
#145 = CARTESIAN_POINT ( 'NONE',  ( 0.3750000000000000555, 4.592425496802575451E-17, 3.984999999999998987 ) ) ;
#146 = DIRECTION ( 'NONE',  ( -1.000000000000000000, 0.0000000000000000000, 0.0000000000000000000 ) ) ;
#147 = LINE ( 'NONE', #49, #224 ) ;
#148 = EDGE_CURVE ( 'NONE', #87, #84, #104, .T. ) ;
#149 = UNCERTAINTY_MEASURE_WITH_UNIT (LENGTH_MEASURE( 1.000000000000000082E-05 ), #35, 'distance_accuracy_value', 'NONE');
#150 = PLANE ( 'NONE',  #199 ) ;
#151 = PRODUCT_DEFINITION_CONTEXT ( 'detailed design', #329, 'design' ) ;
#152 = DIRECTION ( 'NONE',  ( -0.0000000000000000000, -0.0000000000000000000, -1.000000000000000000 ) ) ;
#153 = EDGE_CURVE ( 'NONE', #264, #250, #182, .T. ) ;
#154 = ORIENTED_EDGE ( 'NONE', *, *, #222, .F. ) ;
#155 = UNCERTAINTY_MEASURE_WITH_UNIT (LENGTH_MEASURE( 1.000000000000000082E-05 ), #144, 'distance_accuracy_value', 'NONE');
#156 = DIRECTION ( 'NONE',  ( 0.7071067811865426878, 8.659560562354873694E-17, -0.7071067811865523467 ) ) ;
#157 = VERTEX_POINT ( 'NONE', #68 ) ;
#158 = ADVANCED_FACE ( 'NONE', ( #91 ), #129, .T. ) ;
#159 = CARTESIAN_POINT ( 'NONE',  ( 0.0000000000000000000, 0.0000000000000000000, 0.2121473564137267009 ) ) ;
#160 = VERTEX_POINT ( 'NONE', #185 ) ;
#161 = EDGE_LOOP ( 'NONE', ( #34, #260 ) ) ;
#162 = FACE_OUTER_BOUND ( 'NONE', #170, .T. ) ;
#163 = AXIS2_PLACEMENT_3D ( 'NONE', #226, #169, #127 ) ;
#164 =( LENGTH_UNIT ( ) NAMED_UNIT ( * ) SI_UNIT ( $, .METRE. ) );
#165 = VERTEX_POINT ( 'NONE', #273 ) ;
#166 = DIMENSIONAL_EXPONENTS ( 1.000000000000000000, 0.0000000000000000000, 0.0000000000000000000, 0.0000000000000000000, 0.0000000000000000000, 0.0000000000000000000, 0.0000000000000000000 ) ;
#167 = APPLICATION_CONTEXT ( 'automotive_design' ) ;
#168 = ADVANCED_FACE ( 'NONE', ( #300 ), #30, .T. ) ;
#169 = DIRECTION ( 'NONE',  ( 0.0000000000000000000, 0.0000000000000000000, 1.000000000000000000 ) ) ;
#170 = EDGE_LOOP ( 'NONE', ( #18, #234, #243, #118 ) ) ;
#171 = SURFACE_STYLE_USAGE ( .BOTH. , #244 ) ;
#172 = CARTESIAN_POINT ( 'NONE',  ( -0.3599999999999994316, 0.0000000000000000000, 4.000000000000000000 ) ) ;
#173 = ADVANCED_FACE ( 'NONE', ( #162 ), #43, .T. ) ;
#174 = CYLINDRICAL_SURFACE ( 'NONE', #61, 0.3749500000000001165 ) ;
#175 = CARTESIAN_POINT ( 'NONE',  ( 0.3749500000000001165, 0.0000000000000000000, 0.2121473564137267009 ) ) ;
#176 = CARTESIAN_POINT ( 'NONE',  ( -0.3750000000000000555, 0.0000000000000000000, 1.499999999999999778 ) ) ;
#177 = SURFACE_SIDE_STYLE ('',( #83 ) ) ;
#178 = PLANE ( 'NONE',  #221 ) ;
#179 = EDGE_LOOP ( 'NONE', ( #137, #154, #121, #40 ) ) ;
#180 = EDGE_CURVE ( 'NONE', #165, #160, #67, .T. ) ;
#181 = ORIENTED_EDGE ( 'NONE', *, *, #191, .T. ) ;
#182 = CIRCLE ( 'NONE', #229, 0.3750000000000000555 ) ;
#183 = ORIENTED_EDGE ( 'NONE', *, *, #285, .T. ) ;
#184 = CARTESIAN_POINT ( 'NONE',  ( -0.3599999999999994316, 0.0000000000000000000, 4.000000000000000000 ) ) ;
#185 = CARTESIAN_POINT ( 'NONE',  ( -0.3749500000000001165, 4.591813173403003194E-17, 0.2121473564137267009 ) ) ;
#186 = DIRECTION ( 'NONE',  ( 0.0000000000000000000, 0.0000000000000000000, -1.000000000000000000 ) ) ;
#187 = STYLED_ITEM ( 'NONE', ( #17 ), #102 ) ;
#188 = AXIS2_PLACEMENT_3D ( 'NONE', #261, #310, #57 ) ;
#189 = CARTESIAN_POINT ( 'NONE',  ( 0.0000000000000000000, 0.0000000000000000000, 4.000000000000000000 ) ) ;
#190 =( NAMED_UNIT ( * ) SI_UNIT ( $, .STERADIAN. ) SOLID_ANGLE_UNIT ( ) );
#191 = EDGE_CURVE ( 'NONE', #157, #274, #110, .T. ) ;
#192 = ORIENTED_EDGE ( 'NONE', *, *, #148, .T. ) ;
#193 = LINE ( 'NONE', #108, #269 ) ;
#194 = EDGE_CURVE ( 'NONE', #130, #291, #134, .T. ) ;
#195 = FACE_OUTER_BOUND ( 'NONE', #205, .T. ) ;
#196 = CYLINDRICAL_SURFACE ( 'NONE', #106, 0.3749500000000001165 ) ;
#197 = CARTESIAN_POINT ( 'NONE',  ( 0.0000000000000000000, 0.0000000000000000000, 4.000000000000000000 ) ) ;
#198 = AXIS2_PLACEMENT_3D ( 'NONE', #19, #73, #71 ) ;
#199 = AXIS2_PLACEMENT_3D ( 'NONE', #77, #105, #27 ) ;
#200 = FACE_OUTER_BOUND ( 'NONE', #161, .T. ) ;
#201 = DIRECTION ( 'NONE',  ( -0.0000000000000000000, -0.0000000000000000000, -1.000000000000000000 ) ) ;
#202 = EDGE_CURVE ( 'NONE', #250, #264, #116, .T. ) ;
#203 = FILL_AREA_STYLE ('',( #80 ) ) ;
#204 = AXIS2_PLACEMENT_3D ( 'NONE', #214, #270, #318 ) ;
#205 = EDGE_LOOP ( 'NONE', ( #112, #124, #311, #46 ) ) ;
#206 = ADVANCED_FACE ( 'NONE', ( #195 ), #196, .T. ) ;
#207 = EDGE_LOOP ( 'NONE', ( #192, #95, #88, #38 ) ) ;
#208 = VERTEX_POINT ( 'NONE', #175 ) ;
#209 = CARTESIAN_POINT ( 'NONE',  ( 0.0000000000000000000, 0.0000000000000000000, 4.000000000000000000 ) ) ;
#210 = VECTOR ( 'NONE', #24, 39.37007874015748143 ) ;
#211 = AXIS2_PLACEMENT_3D ( 'NONE', #326, #99, #101 ) ;
#212 = ORIENTED_EDGE ( 'NONE', *, *, #64, .T. ) ;
#213 = ORIENTED_EDGE ( 'NONE', *, *, #153, .T. ) ;
#214 = CARTESIAN_POINT ( 'NONE',  ( 0.0000000000000000000, 0.0000000000000000000, 3.984999999999998987 ) ) ;
#215 = FACE_OUTER_BOUND ( 'NONE', #281, .T. ) ;
#216 = AXIS2_PLACEMENT_3D ( 'NONE', #209, #230, #48 ) ;
#217 = DIRECTION ( 'NONE',  ( 0.0000000000000000000, 0.0000000000000000000, 1.000000000000000000 ) ) ;
#218 = CARTESIAN_POINT ( 'NONE',  ( 0.3599999999999994316, 4.500576986866520466E-17, 4.000000000000000000 ) ) ;
#219 = VERTEX_POINT ( 'NONE', #220 ) ;
#220 = CARTESIAN_POINT ( 'NONE',  ( 0.3749500000000001720, 4.591813173403003194E-17, 1.500000000000000222 ) ) ;
#221 = AXIS2_PLACEMENT_3D ( 'NONE', #286, #58, #263 ) ;
#222 = EDGE_CURVE ( 'NONE', #274, #157, #92, .T. ) ;
#223 = AXIS2_PLACEMENT_3D ( 'NONE', #197, #305, #131 ) ;
#224 = VECTOR ( 'NONE', #53, 39.37007874015748143 ) ;
#225 = DIRECTION ( 'NONE',  ( 0.0000000000000000000, 0.0000000000000000000, -1.000000000000000000 ) ) ;
#226 = CARTESIAN_POINT ( 'NONE',  ( 0.0000000000000000000, 0.0000000000000000000, 0.0000000000000000000 ) ) ;
#227 = LINE ( 'NONE', #29, #322 ) ;
#228 = APPLICATION_PROTOCOL_DEFINITION ( 'draft international standard', 'automotive_design', 1998, #167 ) ;
#229 = AXIS2_PLACEMENT_3D ( 'NONE', #319, #324, #90 ) ;
#230 = DIRECTION ( 'NONE',  ( -0.0000000000000000000, -0.0000000000000000000, -1.000000000000000000 ) ) ;
#231 = DIRECTION ( 'NONE',  ( -0.0000000000000000000, -0.0000000000000000000, -1.000000000000000000 ) ) ;
#232 = ADVANCED_FACE ( 'NONE', ( #200 ), #150, .T. ) ;
#233 = PRESENTATION_STYLE_ASSIGNMENT (( #85 ) ) ;
#234 = ORIENTED_EDGE ( 'NONE', *, *, #325, .T. ) ;
#235 = EDGE_CURVE ( 'NONE', #84, #264, #227, .T. ) ;
#236 = AXIS2_PLACEMENT_3D ( 'NONE', #323, #96, #146 ) ;
#237 =( NAMED_UNIT ( * ) PLANE_ANGLE_UNIT ( ) SI_UNIT ( $, .RADIAN. ) );
#238 = DIRECTION ( 'NONE',  ( -1.000000000000000000, 0.0000000000000000000, 0.0000000000000000000 ) ) ;
#239 = CIRCLE ( 'NONE', #284, 0.3749500000000000610 ) ;
#240 = FILL_AREA_STYLE_COLOUR ( '', #1 ) ;
#241 = CARTESIAN_POINT ( 'NONE',  ( 0.3599999999999994316, 4.408728476930464865E-17, 4.000000000000000000 ) ) ;
#242 = DIRECTION ( 'NONE',  ( -1.000000000000000000, 0.0000000000000000000, 0.0000000000000000000 ) ) ;
#243 = ORIENTED_EDGE ( 'NONE', *, *, #128, .T. ) ;
#244 = SURFACE_SIDE_STYLE ('',( #66 ) ) ;
#245 = LINE ( 'NONE', #122, #28 ) ;
#246 = CARTESIAN_POINT ( 'NONE',  ( 0.0000000000000000000, 0.0000000000000000000, 4.000000000000000000 ) ) ;
#247 =( GEOMETRIC_REPRESENTATION_CONTEXT ( 3 ) GLOBAL_UNCERTAINTY_ASSIGNED_CONTEXT ( ( #155 ) ) GLOBAL_UNIT_ASSIGNED_CONTEXT ( ( #144, #293, #190 ) ) REPRESENTATION_CONTEXT ( 'NONE', 'WORKASPACE' ) );
#248 = AXIS2_PLACEMENT_3D ( 'NONE', #159, #89, #238 ) ;
#249 = CIRCLE ( 'NONE', #211, 0.3749500000000001720 ) ;
#250 = VERTEX_POINT ( 'NONE', #176 ) ;
#251 = DIRECTION ( 'NONE',  ( -0.8660254037844400399, 1.060575238724908640E-16, 0.4999999999999976685 ) ) ;
#252 = CARTESIAN_POINT ( 'NONE',  ( -0.3750000000000000555, 0.0000000000000000000, 3.984999999999998987 ) ) ;
#253 = DIRECTION ( 'NONE',  ( -0.0000000000000000000, -0.0000000000000000000, -1.000000000000000000 ) ) ;
#254 = AXIS2_PLACEMENT_3D ( 'NONE', #189, #139, #120 ) ;
#255 =( NAMED_UNIT ( * ) PLANE_ANGLE_UNIT ( ) SI_UNIT ( $, .RADIAN. ) );
#256 = VECTOR ( 'NONE', #97, 39.37007874015748143 ) ;
#257 =( GEOMETRIC_REPRESENTATION_CONTEXT ( 3 ) GLOBAL_UNCERTAINTY_ASSIGNED_CONTEXT ( ( #149 ) ) GLOBAL_UNIT_ASSIGNED_CONTEXT ( ( #35, #237, #3 ) ) REPRESENTATION_CONTEXT ( 'NONE', 'WORKASPACE' ) );
#258 = CARTESIAN_POINT ( 'NONE',  ( 0.0000000000000000000, 0.0000000000000000000, 1.707404996040164512E-17 ) ) ;
#259 = PRODUCT_CONTEXT ( 'NONE', #167, 'mechanical' ) ;
#260 = ORIENTED_EDGE ( 'NONE', *, *, #194, .T. ) ;
#261 = CARTESIAN_POINT ( 'NONE',  ( 0.0000000000000000000, 0.0000000000000000000, 0.0000000000000000000 ) ) ;
#262 = ORIENTED_EDGE ( 'NONE', *, *, #50, .F. ) ;
#263 = DIRECTION ( 'NONE',  ( -1.000000000000000000, 0.0000000000000000000, 0.0000000000000000000 ) ) ;
#264 = VERTEX_POINT ( 'NONE', #302 ) ;
#265 = EDGE_CURVE ( 'NONE', #219, #208, #193, .T. ) ;
#266 = ORIENTED_EDGE ( 'NONE', *, *, #12, .F. ) ;
#267 = ORIENTED_EDGE ( 'NONE', *, *, #12, .T. ) ;
#268 = CARTESIAN_POINT ( 'NONE',  ( 0.0000000000000000000, 0.0000000000000000000, 4.000000000000000000 ) ) ;
#269 = VECTOR ( 'NONE', #308, 39.37007874015748143 ) ;
#270 = DIRECTION ( 'NONE',  ( 0.0000000000000000000, 0.0000000000000000000, -1.000000000000000000 ) ) ;
#271 = ADVANCED_FACE ( 'NONE', ( #282 ), #174, .T. ) ;
#272 = DIRECTION ( 'NONE',  ( -0.0000000000000000000, -0.0000000000000000000, -1.000000000000000000 ) ) ;
#273 = CARTESIAN_POINT ( 'NONE',  ( -0.3749500000000001720, 0.0000000000000000000, 1.500000000000000222 ) ) ;
#274 = VERTEX_POINT ( 'NONE', #79 ) ;
#275 = CARTESIAN_POINT ( 'NONE',  ( 0.0000000000000000000, 0.0000000000000000000, 1.707404996040164512E-17 ) ) ;
#276 = PRODUCT ( 'Micro_DM-750-2120X', 'Micro_DM-750-2120X', '', ( #259 ) ) ;
#277 = DIRECTION ( 'NONE',  ( -0.0000000000000000000, -0.0000000000000000000, -1.000000000000000000 ) ) ;
#278 =( CONVERSION_BASED_UNIT ( 'INCH', #76 ) LENGTH_UNIT ( ) NAMED_UNIT ( #166 ) );
#279 = DIRECTION ( 'NONE',  ( -1.000000000000000000, 0.0000000000000000000, 0.0000000000000000000 ) ) ;
#280 = PRODUCT_RELATED_PRODUCT_CATEGORY ( 'part', '', ( #276 ) ) ;
#281 = EDGE_LOOP ( 'NONE', ( #103, #70, #25, #65 ) ) ;
#282 = FACE_OUTER_BOUND ( 'NONE', #287, .T. ) ;
#283 = CIRCLE ( 'NONE', #248, 0.3749500000000000610 ) ;
#284 = AXIS2_PLACEMENT_3D ( 'NONE', #307, #277, #279 ) ;
#285 = EDGE_CURVE ( 'NONE', #165, #219, #249, .T. ) ;
#286 = CARTESIAN_POINT ( 'NONE',  ( 0.3749500000000001720, 0.0000000000000000000, 1.500000000000000222 ) ) ;
#287 = EDGE_LOOP ( 'NONE', ( #183, #313, #262, #299 ) ) ;
#288 = CONICAL_SURFACE ( 'NONE', #198, 0.007499999999999999722, 1.047197551196600518 ) ;
#289 = FACE_OUTER_BOUND ( 'NONE', #109, .T. ) ;
#290 = MECHANICAL_DESIGN_GEOMETRIC_PRESENTATION_REPRESENTATION (  '', ( #125 ), #257 ) ;
#291 = VERTEX_POINT ( 'NONE', #172 ) ;
#292 = DIRECTION ( 'NONE',  ( -0.7071067811865426878, 0.0000000000000000000, -0.7071067811865523467 ) ) ;
#293 =( NAMED_UNIT ( * ) PLANE_ANGLE_UNIT ( ) SI_UNIT ( $, .RADIAN. ) );
#294 = DIMENSIONAL_EXPONENTS ( 1.000000000000000000, 0.0000000000000000000, 0.0000000000000000000, 0.0000000000000000000, 0.0000000000000000000, 0.0000000000000000000, 0.0000000000000000000 ) ;
#295 = EDGE_CURVE ( 'NONE', #208, #160, #239, .T. ) ;
#296 = AXIS2_PLACEMENT_3D ( 'NONE', #275, #272, #141 ) ;
#297 = DIRECTION ( 'NONE',  ( 0.0000000000000000000, 0.0000000000000000000, 1.000000000000000000 ) ) ;
#298 = EDGE_LOOP ( 'NONE', ( #142, #7 ) ) ;
#299 = ORIENTED_EDGE ( 'NONE', *, *, #180, .F. ) ;
#300 = FACE_OUTER_BOUND ( 'NONE', #315, .T. ) ;
#301 = EDGE_CURVE ( 'NONE', #274, #208, #147, .T. ) ;
#302 = CARTESIAN_POINT ( 'NONE',  ( 0.3750000000000000555, 4.592425496802575451E-17, 1.499999999999999778 ) ) ;
#303 = CARTESIAN_POINT ( 'NONE',  ( 0.0000000000000000000, 0.0000000000000000000, 0.0000000000000000000 ) ) ;
#304 = COLOUR_RGB ( '',0.7921568627450980005, 0.8196078431372548767, 0.9333333333333333481 ) ;
#305 = DIRECTION ( 'NONE',  ( 0.0000000000000000000, 0.0000000000000000000, 1.000000000000000000 ) ) ;
#306 = PRODUCT_DEFINITION_SHAPE ( 'NONE', 'NONE',  #115 ) ;
#307 = CARTESIAN_POINT ( 'NONE',  ( 0.0000000000000000000, 0.0000000000000000000, 0.2121473564137267009 ) ) ;
#308 = DIRECTION ( 'NONE',  ( -0.0000000000000000000, -0.0000000000000000000, -1.000000000000000000 ) ) ;
#309 = PRODUCT_DEFINITION_FORMATION_WITH_SPECIFIED_SOURCE ( 'ANY', '', #276, .NOT_KNOWN. ) ;
#310 = DIRECTION ( 'NONE',  ( 0.0000000000000000000, 0.0000000000000000000, 1.000000000000000000 ) ) ;
#311 = ORIENTED_EDGE ( 'NONE', *, *, #180, .T. ) ;
#312 = ORIENTED_EDGE ( 'NONE', *, *, #222, .T. ) ;
#313 = ORIENTED_EDGE ( 'NONE', *, *, #265, .T. ) ;
#314 = AXIS2_PLACEMENT_3D ( 'NONE', #119, #297, #143 ) ;
#315 = EDGE_LOOP ( 'NONE', ( #13, #267, #52, #86 ) ) ;
#316 = DIMENSIONAL_EXPONENTS ( 1.000000000000000000, 0.0000000000000000000, 0.0000000000000000000, 0.0000000000000000000, 0.0000000000000000000, 0.0000000000000000000, 0.0000000000000000000 ) ;
#317 = CARTESIAN_POINT ( 'NONE',  ( 0.0000000000000000000, 0.0000000000000000000, 4.000000000000000000 ) ) ;
#318 = DIRECTION ( 'NONE',  ( 1.000000000000000000, 0.0000000000000000000, 0.0000000000000000000 ) ) ;
#319 = CARTESIAN_POINT ( 'NONE',  ( 0.0000000000000000000, 0.0000000000000000000, 1.499999999999999778 ) ) ;
#320 = ORIENTED_EDGE ( 'NONE', *, *, #325, .F. ) ;
#321 = CIRCLE ( 'NONE', #223, 0.3599999999999994316 ) ;
#322 = VECTOR ( 'NONE', #253, 39.37007874015748143 ) ;
#323 = CARTESIAN_POINT ( 'NONE',  ( 0.0000000000000000000, 0.0000000000000000000, 1.499999999999999778 ) ) ;
#324 = DIRECTION ( 'NONE',  ( -0.0000000000000000000, -0.0000000000000000000, -1.000000000000000000 ) ) ;
#325 = EDGE_CURVE ( 'NONE', #84, #87, #23, .T. ) ;
#326 = CARTESIAN_POINT ( 'NONE',  ( 0.0000000000000000000, 0.0000000000000000000, 1.500000000000000222 ) ) ;
#327 = FACE_OUTER_BOUND ( 'NONE', #113, .T. ) ;
#328 = DIRECTION ( 'NONE',  ( 1.000000000000000000, 0.0000000000000000000, 0.0000000000000000000 ) ) ;
#329 = APPLICATION_CONTEXT ( 'automotive_design' ) ;
ENDSEC;
END-ISO-10303-21;
