ISO-10303-21;
HEADER;
FILE_DESCRIPTION (( 'STEP AP214' ),
    '1' );
FILE_NAME ('03362.STEP',
    '2023-06-22T15:13:20',
    ( '' ),
    ( '' ),
    'SwSTEP 2.0',
    'SolidWorks 2023',
    '' );
FILE_SCHEMA (( 'AUTOMOTIVE_DESIGN' ));
ENDSEC;

DATA;
#1 = FILL_AREA_STYLE_COLOUR ( '', #142 ) ;
#2 = FACE_OUTER_BOUND ( 'NONE', #67, .T. ) ;
#3 = ORIENTED_EDGE ( 'NONE', *, *, #57, .T. ) ;
#4 =( LENGTH_UNIT ( ) NAMED_UNIT ( * ) SI_UNIT ( $, .METRE. ) );
#5 =( NAMED_UNIT ( * ) PLANE_ANGLE_UNIT ( ) SI_UNIT ( $, .RADIAN. ) );
#6 = CARTESIAN_POINT ( 'NONE',  ( -6.123233995736759873E-17, 3.500000000000000000, 0.000000000000000000 ) ) ;
#7 = LENGTH_MEASURE_WITH_UNIT ( LENGTH_MEASURE( 0.02539999999999999897 ), #63 );
#8 = DIRECTION ( 'NONE',  ( -2.721437331438560389E-17, 1.000000000000000000, -0.000000000000000000 ) ) ;
#9 = CARTESIAN_POINT ( 'NONE',  ( -0.1875000000000001110, 3.500000000000000000, 0.000000000000000000 ) ) ;
#10 = VERTEX_POINT ( 'NONE', #226 ) ;
#11 = ADVANCED_BREP_SHAPE_REPRESENTATION ( '03362', ( #23, #225, #60 ), #229 ) ;
#12 = PRESENTATION_LAYER_ASSIGNMENT (  '', '', ( #13 ) ) ;
#13 = STYLED_ITEM ( 'NONE', ( #28 ), #73 ) ;
#14 = DIMENSIONAL_EXPONENTS ( 1.000000000000000000, 0.000000000000000000, 0.000000000000000000, 0.000000000000000000, 0.000000000000000000, 0.000000000000000000, 0.000000000000000000 ) ;
#15 = UNCERTAINTY_MEASURE_WITH_UNIT (LENGTH_MEASURE( 1.000000000000000082E-05 ), #52, 'distance_accuracy_value', 'NONE');
#16 = ADVANCED_FACE ( 'NONE', ( #291 ), #102, .T. ) ;
#17 = DIRECTION ( 'NONE',  ( 0.000000000000000000, 0.000000000000000000, -1.000000000000000000 ) ) ;
#18 =( NAMED_UNIT ( * ) SI_UNIT ( $, .STERADIAN. ) SOLID_ANGLE_UNIT ( ) );
#19 = STYLED_ITEM ( 'NONE', ( #55 ), #16 ) ;
#20 = AXIS2_PLACEMENT_3D ( 'NONE', #121, #64, #99 ) ;
#21 = EDGE_CURVE ( 'NONE', #45, #78, #134, .T. ) ;
#22 = CYLINDRICAL_SURFACE ( 'NONE', #127, 0.1875000000000000278 ) ;
#23 = MANIFOLD_SOLID_BREP ( 'Revolve - Cutting Edge', #205 ) ;
#24 = LENGTH_MEASURE_WITH_UNIT ( LENGTH_MEASURE( 0.02539999999999999897 ), #309 );
#25 = CLOSED_SHELL ( 'NONE', ( #145, #217, #198, #144 ) ) ;
#26 = AXIS2_PLACEMENT_3D ( 'NONE', #300, #282, #42 ) ;
#27 = PRESENTATION_STYLE_ASSIGNMENT (( #192 ) ) ;
#28 = PRESENTATION_STYLE_ASSIGNMENT (( #137 ) ) ;
#29 = VERTEX_POINT ( 'NONE', #41 ) ;
#30 = ORIENTED_EDGE ( 'NONE', *, *, #250, .F. ) ;
#31 = DIRECTION ( 'NONE',  ( 0.000000000000000000, -0.000000000000000000, 1.000000000000000000 ) ) ;
#32 = CARTESIAN_POINT ( 'NONE',  ( 2.296212748401287726E-17, 0.000000000000000000, 0.1875000000000000278 ) ) ;
#33 = MECHANICAL_DESIGN_GEOMETRIC_PRESENTATION_REPRESENTATION (  '', ( #19 ), #303 ) ;
#34 = EDGE_LOOP ( 'NONE', ( #206, #65, #252, #237 ) ) ;
#35 = ORIENTED_EDGE ( 'NONE', *, *, #216, .T. ) ;
#36 = DIRECTION ( 'NONE',  ( -0.000000000000000000, -1.000000000000000000, -0.000000000000000000 ) ) ;
#37 = MECHANICAL_DESIGN_GEOMETRIC_PRESENTATION_REPRESENTATION (  '', ( #113 ), #284 ) ;
#38 = LINE ( 'NONE', #156, #244 ) ;
#39 = DIRECTION ( 'NONE',  ( -2.721437331438560697E-17, 1.000000000000000000, -0.000000000000000000 ) ) ;
#40 = CARTESIAN_POINT ( 'NONE',  ( 0.000000000000000000, 0.000000000000000000, 0.000000000000000000 ) ) ;
#41 = CARTESIAN_POINT ( 'NONE',  ( 2.296212748401287726E-17, 0.000000000000000000, 0.1875000000000000278 ) ) ;
#42 = DIRECTION ( 'NONE',  ( -1.000000000000000000, -2.721437331438560697E-17, 0.000000000000000000 ) ) ;
#43 = CIRCLE ( 'NONE', #164, 0.1875000000000000278 ) ;
#44 = VECTOR ( 'NONE', #122, 39.37007874015748143 ) ;
#45 = VERTEX_POINT ( 'NONE', #159 ) ;
#46 =( NAMED_UNIT ( * ) PLANE_ANGLE_UNIT ( ) SI_UNIT ( $, .RADIAN. ) );
#47 = EDGE_LOOP ( 'NONE', ( #307, #149, #275, #84 ) ) ;
#48 = SURFACE_SIDE_STYLE ('',( #118 ) ) ;
#49 = APPLICATION_CONTEXT ( 'automotive_design' ) ;
#50 = CARTESIAN_POINT ( 'NONE',  ( 0.000000000000000000, 0.000000000000000000, -0.1875000000000000278 ) ) ;
#51 = PRESENTATION_LAYER_ASSIGNMENT (  '', '', ( #113 ) ) ;
#52 =( CONVERSION_BASED_UNIT ( 'INCH', #285 ) LENGTH_UNIT ( ) NAMED_UNIT ( #107 ) );
#53 = EDGE_CURVE ( 'NONE', #78, #29, #43, .T. ) ;
#54 = CARTESIAN_POINT ( 'NONE',  ( 0.000000000000000000, 0.000000000000000000, 0.000000000000000000 ) ) ;
#55 = PRESENTATION_STYLE_ASSIGNMENT (( #249 ) ) ;
#56 = DIRECTION ( 'NONE',  ( 0.000000000000000000, 0.000000000000000000, 1.000000000000000000 ) ) ;
#57 = EDGE_CURVE ( 'NONE', #276, #227, #38, .T. ) ;
#58 =( CONVERSION_BASED_UNIT ( 'INCH', #7 ) LENGTH_UNIT ( ) NAMED_UNIT ( #14 ) );
#59 = CARTESIAN_POINT ( 'NONE',  ( 0.1875000000000000278, 1.250000000000000000, 2.296212748401288342E-17 ) ) ;
#60 = AXIS2_PLACEMENT_3D ( 'NONE', #97, #56, #199 ) ;
#61 =( NAMED_UNIT ( * ) PLANE_ANGLE_UNIT ( ) SI_UNIT ( $, .RADIAN. ) );
#62 = PRODUCT_CONTEXT ( 'NONE', #49, 'mechanical' ) ;
#63 =( LENGTH_UNIT ( ) NAMED_UNIT ( * ) SI_UNIT ( $, .METRE. ) );
#64 = DIRECTION ( 'NONE',  ( -0.000000000000000000, -1.000000000000000000, -0.000000000000000000 ) ) ;
#65 = ORIENTED_EDGE ( 'NONE', *, *, #158, .T. ) ;
#66 = STYLED_ITEM ( 'NONE', ( #246 ), #154 ) ;
#67 = EDGE_LOOP ( 'NONE', ( #219, #123 ) ) ;
#68 = ORIENTED_EDGE ( 'NONE', *, *, #53, .T. ) ;
#69 = DIMENSIONAL_EXPONENTS ( 1.000000000000000000, 0.000000000000000000, 0.000000000000000000, 0.000000000000000000, 0.000000000000000000, 0.000000000000000000, 0.000000000000000000 ) ;
#70 =( GEOMETRIC_REPRESENTATION_CONTEXT ( 3 ) GLOBAL_UNCERTAINTY_ASSIGNED_CONTEXT ( ( #254 ) ) GLOBAL_UNIT_ASSIGNED_CONTEXT ( ( #58, #61, #83 ) ) REPRESENTATION_CONTEXT ( 'NONE', 'WORKASPACE' ) );
#71 = FILL_AREA_STYLE ('',( #162 ) ) ;
#72 = PRODUCT_DEFINITION_CONTEXT ( 'detailed design', #150, 'design' ) ;
#73 = ADVANCED_FACE ( 'NONE', ( #108 ), #238, .T. ) ;
#74 = SURFACE_STYLE_FILL_AREA ( #190 ) ;
#75 = PRESENTATION_LAYER_ASSIGNMENT (  '', '', ( #66 ) ) ;
#76 =( NAMED_UNIT ( * ) SI_UNIT ( $, .STERADIAN. ) SOLID_ANGLE_UNIT ( ) );
#77 = CARTESIAN_POINT ( 'NONE',  ( -6.123233995736759873E-17, 3.500000000000000000, 0.000000000000000000 ) ) ;
#78 = VERTEX_POINT ( 'NONE', #50 ) ;
#79 =( NAMED_UNIT ( * ) PLANE_ANGLE_UNIT ( ) SI_UNIT ( $, .RADIAN. ) );
#80 = CIRCLE ( 'NONE', #20, 0.1875000000000000278 ) ;
#81 = SURFACE_STYLE_FILL_AREA ( #146 ) ;
#82 = DIRECTION ( 'NONE',  ( 1.000000000000000000, 2.721437331438560697E-17, 0.000000000000000000 ) ) ;
#83 =( NAMED_UNIT ( * ) SI_UNIT ( $, .STERADIAN. ) SOLID_ANGLE_UNIT ( ) );
#84 = ORIENTED_EDGE ( 'NONE', *, *, #161, .F. ) ;
#85 = ORIENTED_EDGE ( 'NONE', *, *, #158, .F. ) ;
#86 = PRODUCT_RELATED_PRODUCT_CATEGORY ( 'part', '', ( #271 ) ) ;
#87 = CARTESIAN_POINT ( 'NONE',  ( 0.000000000000000000, 1.250000000000000000, 0.000000000000000000 ) ) ;
#88 = DIRECTION ( 'NONE',  ( -2.721437331438560389E-17, 1.000000000000000000, -0.000000000000000000 ) ) ;
#89 = COLOUR_RGB ( '',0.7921568627450980005, 0.8196078431372548767, 0.9333333333333333481 ) ;
#90 = DIRECTION ( 'NONE',  ( -2.721437331438560389E-17, 1.000000000000000000, -0.000000000000000000 ) ) ;
#91 = UNCERTAINTY_MEASURE_WITH_UNIT (LENGTH_MEASURE( 1.000000000000000082E-05 ), #283, 'distance_accuracy_value', 'NONE');
#92 = VERTEX_POINT ( 'NONE', #240 ) ;
#93 =( NAMED_UNIT ( * ) SI_UNIT ( $, .STERADIAN. ) SOLID_ANGLE_UNIT ( ) );
#94 = DIRECTION ( 'NONE',  ( -2.721437331438560389E-17, 1.000000000000000000, -0.000000000000000000 ) ) ;
#95 = ORIENTED_EDGE ( 'NONE', *, *, #302, .F. ) ;
#96 =( CONVERSION_BASED_UNIT ( 'INCH', #308 ) LENGTH_UNIT ( ) NAMED_UNIT ( #69 ) );
#97 = CARTESIAN_POINT ( 'NONE',  ( 0.000000000000000000, 0.000000000000000000, 0.000000000000000000 ) ) ;
#98 = CYLINDRICAL_SURFACE ( 'NONE', #183, 0.1875000000000000555 ) ;
#99 = DIRECTION ( 'NONE',  ( 0.000000000000000000, 0.000000000000000000, -1.000000000000000000 ) ) ;
#100 = FILL_AREA_STYLE ('',( #176 ) ) ;
#101 = CIRCLE ( 'NONE', #247, 0.1875000000000000278 ) ;
#102 = CYLINDRICAL_SURFACE ( 'NONE', #235, 0.1875000000000000278 ) ;
#103 = VECTOR ( 'NONE', #130, 39.37007874015748143 ) ;
#104 = ORIENTED_EDGE ( 'NONE', *, *, #273, .F. ) ;
#105 =( LENGTH_UNIT ( ) NAMED_UNIT ( * ) SI_UNIT ( $, .METRE. ) );
#106 = UNCERTAINTY_MEASURE_WITH_UNIT (LENGTH_MEASURE( 1.000000000000000082E-05 ), #112, 'distance_accuracy_value', 'NONE');
#107 = DIMENSIONAL_EXPONENTS ( 1.000000000000000000, 0.000000000000000000, 0.000000000000000000, 0.000000000000000000, 0.000000000000000000, 0.000000000000000000, 0.000000000000000000 ) ;
#108 = FACE_OUTER_BOUND ( 'NONE', #262, .T. ) ;
#109 =( GEOMETRIC_REPRESENTATION_CONTEXT ( 3 ) GLOBAL_UNCERTAINTY_ASSIGNED_CONTEXT ( ( #15 ) ) GLOBAL_UNIT_ASSIGNED_CONTEXT ( ( #52, #214, #115 ) ) REPRESENTATION_CONTEXT ( 'NONE', 'WORKASPACE' ) );
#110 = DIRECTION ( 'NONE',  ( -2.721437331438560389E-17, 1.000000000000000000, -0.000000000000000000 ) ) ;
#111 = LENGTH_MEASURE_WITH_UNIT ( LENGTH_MEASURE( 0.02539999999999999897 ), #4 );
#112 =( CONVERSION_BASED_UNIT ( 'INCH', #24 ) LENGTH_UNIT ( ) NAMED_UNIT ( #179 ) );
#113 = STYLED_ITEM ( 'NONE', ( #136 ), #218 ) ;
#114 = DIRECTION ( 'NONE',  ( 0.000000000000000000, -1.000000000000000000, -0.000000000000000000 ) ) ;
#115 =( NAMED_UNIT ( * ) SI_UNIT ( $, .STERADIAN. ) SOLID_ANGLE_UNIT ( ) );
#116 =( LENGTH_UNIT ( ) NAMED_UNIT ( * ) SI_UNIT ( $, .METRE. ) );
#117 = SURFACE_SIDE_STYLE ('',( #288 ) ) ;
#118 = SURFACE_STYLE_FILL_AREA ( #263 ) ;
#119 = ORIENTED_EDGE ( 'NONE', *, *, #21, .T. ) ;
#120 = COLOUR_RGB ( '',0.7921568627450980005, 0.8196078431372548767, 0.9333333333333333481 ) ;
#121 = CARTESIAN_POINT ( 'NONE',  ( 0.000000000000000000, 1.250000000000000000, 0.000000000000000000 ) ) ;
#122 = DIRECTION ( 'NONE',  ( -0.000000000000000000, -1.000000000000000000, -0.000000000000000000 ) ) ;
#123 = ORIENTED_EDGE ( 'NONE', *, *, #161, .T. ) ;
#124 = PRESENTATION_LAYER_ASSIGNMENT (  '', '', ( #266 ) ) ;
#125 = ORIENTED_EDGE ( 'NONE', *, *, #306, .F. ) ;
#126 = LENGTH_MEASURE_WITH_UNIT ( LENGTH_MEASURE( 0.02539999999999999897 ), #105 );
#127 = AXIS2_PLACEMENT_3D ( 'NONE', #54, #140, #241 ) ;
#128 = DIRECTION ( 'NONE',  ( -1.000000000000000000, 0.000000000000000000, 0.000000000000000000 ) ) ;
#129 = DIRECTION ( 'NONE',  ( 0.000000000000000000, 0.000000000000000000, -1.000000000000000000 ) ) ;
#130 = DIRECTION ( 'NONE',  ( -0.000000000000000000, -1.000000000000000000, -0.000000000000000000 ) ) ;
#131 = DIRECTION ( 'NONE',  ( -1.000000000000000000, 0.000000000000000000, 0.000000000000000000 ) ) ;
#132 = PRESENTATION_LAYER_ASSIGNMENT (  '', '', ( #298 ) ) ;
#133 = AXIS2_PLACEMENT_3D ( 'NONE', #230, #110, #128 ) ;
#134 = LINE ( 'NONE', #189, #103 ) ;
#135 = PRODUCT_DEFINITION ( 'UNKNOWN', '', #299, #72 ) ;
#136 = PRESENTATION_STYLE_ASSIGNMENT (( #261 ) ) ;
#137 = SURFACE_STYLE_USAGE ( .BOTH. , #117 ) ;
#138 =( NAMED_UNIT ( * ) SI_UNIT ( $, .STERADIAN. ) SOLID_ANGLE_UNIT ( ) );
#139 = AXIS2_PLACEMENT_3D ( 'NONE', #185, #90, #232 ) ;
#140 = DIRECTION ( 'NONE',  ( -0.000000000000000000, -1.000000000000000000, -0.000000000000000000 ) ) ;
#141 = SURFACE_STYLE_USAGE ( .BOTH. , #292 ) ;
#142 = COLOUR_RGB ( '',1.000000000000000000, 0.000000000000000000, 0.000000000000000000 ) ;
#143 = CARTESIAN_POINT ( 'NONE',  ( 0.000000000000000000, 1.250000000000000000, 0.000000000000000000 ) ) ;
#144 = ADVANCED_FACE ( 'NONE', ( #2 ), #272, .F. ) ;
#145 = ADVANCED_FACE ( 'NONE', ( #174 ), #98, .T. ) ;
#146 = FILL_AREA_STYLE ('',( #180 ) ) ;
#147 = CIRCLE ( 'NONE', #245, 0.1875000000000000278 ) ;
#148 = DIRECTION ( 'NONE',  ( 0.000000000000000000, 0.000000000000000000, -1.000000000000000000 ) ) ;
#149 = ORIENTED_EDGE ( 'NONE', *, *, #306, .T. ) ;
#150 = APPLICATION_CONTEXT ( 'automotive_design' ) ;
#151 = DIMENSIONAL_EXPONENTS ( 1.000000000000000000, 0.000000000000000000, 0.000000000000000000, 0.000000000000000000, 0.000000000000000000, 0.000000000000000000, 0.000000000000000000 ) ;
#152 = EDGE_LOOP ( 'NONE', ( #297, #125 ) ) ;
#153 = CARTESIAN_POINT ( 'NONE',  ( 0.000000000000000000, 0.000000000000000000, 0.000000000000000000 ) ) ;
#154 = ADVANCED_FACE ( 'NONE', ( #200 ), #201, .T. ) ;
#155 = VECTOR ( 'NONE', #281, 39.37007874015748143 ) ;
#156 = CARTESIAN_POINT ( 'NONE',  ( 0.1874999999999999722, 3.500000000000000000, 2.296212748401288034E-17 ) ) ;
#157 = FACE_OUTER_BOUND ( 'NONE', #47, .T. ) ;
#158 = EDGE_CURVE ( 'NONE', #92, #29, #178, .T. ) ;
#159 = CARTESIAN_POINT ( 'NONE',  ( 0.000000000000000000, 1.250000000000000000, -0.1875000000000000278 ) ) ;
#160 = DIRECTION ( 'NONE',  ( -1.000000000000000000, 0.000000000000000000, 0.000000000000000000 ) ) ;
#161 = EDGE_CURVE ( 'NONE', #227, #10, #255, .T. ) ;
#162 = FILL_AREA_STYLE_COLOUR ( '', #120 ) ;
#163 = SURFACE_SIDE_STYLE ('',( #74 ) ) ;
#164 = AXIS2_PLACEMENT_3D ( 'NONE', #153, #209, #301 ) ;
#165 = AXIS2_PLACEMENT_3D ( 'NONE', #143, #293, #31 ) ;
#166 = CARTESIAN_POINT ( 'NONE',  ( 0.000000000000000000, 0.000000000000000000, 0.000000000000000000 ) ) ;
#167 = CARTESIAN_POINT ( 'NONE',  ( 0.1875000000000000278, 3.500000000000000000, 2.296212748401288342E-17 ) ) ;
#168 = MECHANICAL_DESIGN_GEOMETRIC_PRESENTATION_REPRESENTATION (  '', ( #266 ), #109 ) ;
#169 =( CONVERSION_BASED_UNIT ( 'INCH', #111 ) LENGTH_UNIT ( ) NAMED_UNIT ( #151 ) );
#170 = FILL_AREA_STYLE ('',( #1 ) ) ;
#171 = SURFACE_SIDE_STYLE ('',( #81 ) ) ;
#172 = SHAPE_DEFINITION_REPRESENTATION ( #193, #11 ) ;
#173 = EDGE_CURVE ( 'NONE', #175, #276, #101, .T. ) ;
#174 = FACE_OUTER_BOUND ( 'NONE', #279, .T. ) ;
#175 = VERTEX_POINT ( 'NONE', #259 ) ;
#176 = FILL_AREA_STYLE_COLOUR ( '', #207 ) ;
#177 = COLOUR_RGB ( '',1.000000000000000000, 0.000000000000000000, 0.000000000000000000 ) ;
#178 = LINE ( 'NONE', #32, #44 ) ;
#179 = DIMENSIONAL_EXPONENTS ( 1.000000000000000000, 0.000000000000000000, 0.000000000000000000, 0.000000000000000000, 0.000000000000000000, 0.000000000000000000, 0.000000000000000000 ) ;
#180 = FILL_AREA_STYLE_COLOUR ( '', #265 ) ;
#181 = DIMENSIONAL_EXPONENTS ( 1.000000000000000000, 0.000000000000000000, 0.000000000000000000, 0.000000000000000000, 0.000000000000000000, 0.000000000000000000, 0.000000000000000000 ) ;
#182 =( LENGTH_UNIT ( ) NAMED_UNIT ( * ) SI_UNIT ( $, .METRE. ) );
#183 = AXIS2_PLACEMENT_3D ( 'NONE', #6, #295, #221 ) ;
#184 = SURFACE_SIDE_STYLE ('',( #258 ) ) ;
#185 = CARTESIAN_POINT ( 'NONE',  ( -6.123233995736759873E-17, 3.500000000000000000, 0.000000000000000000 ) ) ;
#186 = LENGTH_MEASURE_WITH_UNIT ( LENGTH_MEASURE( 0.02539999999999999897 ), #182 );
#187 =( GEOMETRIC_REPRESENTATION_CONTEXT ( 3 ) GLOBAL_UNCERTAINTY_ASSIGNED_CONTEXT ( ( #233 ) ) GLOBAL_UNIT_ASSIGNED_CONTEXT ( ( #96, #79, #76 ) ) REPRESENTATION_CONTEXT ( 'NONE', 'WORKASPACE' ) );
#188 = PLANE ( 'NONE',  #26 ) ;
#189 = CARTESIAN_POINT ( 'NONE',  ( 0.000000000000000000, 0.000000000000000000, -0.1875000000000000278 ) ) ;
#190 = FILL_AREA_STYLE ('',( #305 ) ) ;
#191 = MECHANICAL_DESIGN_GEOMETRIC_PRESENTATION_REPRESENTATION (  '', ( #13 ), #187 ) ;
#192 = SURFACE_STYLE_USAGE ( .BOTH. , #48 ) ;
#193 = PRODUCT_DEFINITION_SHAPE ( 'NONE', 'NONE',  #135 ) ;
#194 = DIRECTION ( 'NONE',  ( -1.000000000000000000, 0.000000000000000000, 0.000000000000000000 ) ) ;
#195 = ORIENTED_EDGE ( 'NONE', *, *, #250, .T. ) ;
#196 = PRESENTATION_LAYER_ASSIGNMENT (  '', '', ( #19 ) ) ;
#197 = AXIS2_PLACEMENT_3D ( 'NONE', #166, #114, #264 ) ;
#198 = ADVANCED_FACE ( 'NONE', ( #157 ), #277, .T. ) ;
#199 = DIRECTION ( 'NONE',  ( 1.000000000000000000, 0.000000000000000000, 0.000000000000000000 ) ) ;
#200 = FACE_OUTER_BOUND ( 'NONE', #242, .T. ) ;
#201 = PLANE ( 'NONE',  #165 ) ;
#202 = DIRECTION ( 'NONE',  ( -0.000000000000000000, -1.000000000000000000, -0.000000000000000000 ) ) ;
#203 = APPLICATION_PROTOCOL_DEFINITION ( 'draft international standard', 'automotive_design', 1998, #49 ) ;
#204 = ORIENTED_EDGE ( 'NONE', *, *, #173, .T. ) ;
#205 = CLOSED_SHELL ( 'NONE', ( #218, #154, #16, #73 ) ) ;
#206 = ORIENTED_EDGE ( 'NONE', *, *, #273, .T. ) ;
#207 = COLOUR_RGB ( '',1.000000000000000000, 0.000000000000000000, 0.000000000000000000 ) ;
#208 = FACE_OUTER_BOUND ( 'NONE', #152, .T. ) ;
#209 = DIRECTION ( 'NONE',  ( -0.000000000000000000, -1.000000000000000000, -0.000000000000000000 ) ) ;
#210 = SURFACE_STYLE_USAGE ( .BOTH. , #184 ) ;
#211 =( GEOMETRIC_REPRESENTATION_CONTEXT ( 3 ) GLOBAL_UNCERTAINTY_ASSIGNED_CONTEXT ( ( #91 ) ) GLOBAL_UNIT_ASSIGNED_CONTEXT ( ( #283, #234, #18 ) ) REPRESENTATION_CONTEXT ( 'NONE', 'WORKASPACE' ) );
#212 = CIRCLE ( 'NONE', #294, 0.1875000000000000278 ) ;
#213 =( NAMED_UNIT ( * ) SI_UNIT ( $, .STERADIAN. ) SOLID_ANGLE_UNIT ( ) );
#214 =( NAMED_UNIT ( * ) PLANE_ANGLE_UNIT ( ) SI_UNIT ( $, .RADIAN. ) );
#215 = AXIS2_PLACEMENT_3D ( 'NONE', #77, #94, #194 ) ;
#216 = EDGE_CURVE ( 'NONE', #29, #78, #147, .T. ) ;
#217 = ADVANCED_FACE ( 'NONE', ( #208 ), #188, .F. ) ;
#218 = ADVANCED_FACE ( 'NONE', ( #236 ), #22, .T. ) ;
#219 = ORIENTED_EDGE ( 'NONE', *, *, #248, .T. ) ;
#220 = CIRCLE ( 'NONE', #133, 0.1875000000000000278 ) ;
#221 = DIRECTION ( 'NONE',  ( -1.000000000000000000, 0.000000000000000000, 0.000000000000000000 ) ) ;
#222 = SURFACE_STYLE_FILL_AREA ( #100 ) ;
#223 = CARTESIAN_POINT ( 'NONE',  ( -6.123233995736759873E-17, 3.500000000000000000, 0.000000000000000000 ) ) ;
#224 = LINE ( 'NONE', #9, #155 ) ;
#225 = MANIFOLD_SOLID_BREP ( 'Revolve - Tool Body (Straight Shanked)', #25 ) ;
#226 = CARTESIAN_POINT ( 'NONE',  ( -0.1875000000000001388, 3.500000000000000000, 0.000000000000000000 ) ) ;
#227 = VERTEX_POINT ( 'NONE', #167 ) ;
#228 = EDGE_LOOP ( 'NONE', ( #85, #195, #119, #269 ) ) ;
#229 =( GEOMETRIC_REPRESENTATION_CONTEXT ( 3 ) GLOBAL_UNCERTAINTY_ASSIGNED_CONTEXT ( ( #287 ) ) GLOBAL_UNIT_ASSIGNED_CONTEXT ( ( #169, #46, #138 ) ) REPRESENTATION_CONTEXT ( 'NONE', 'WORKASPACE' ) );
#230 = CARTESIAN_POINT ( 'NONE',  ( 0.000000000000000000, 1.250000000000000000, 0.000000000000000000 ) ) ;
#231 =( NAMED_UNIT ( * ) PLANE_ANGLE_UNIT ( ) SI_UNIT ( $, .RADIAN. ) );
#232 = DIRECTION ( 'NONE',  ( -1.000000000000000000, 0.000000000000000000, 0.000000000000000000 ) ) ;
#233 = UNCERTAINTY_MEASURE_WITH_UNIT (LENGTH_MEASURE( 1.000000000000000082E-05 ), #96, 'distance_accuracy_value', 'NONE');
#234 =( NAMED_UNIT ( * ) PLANE_ANGLE_UNIT ( ) SI_UNIT ( $, .RADIAN. ) );
#235 = AXIS2_PLACEMENT_3D ( 'NONE', #304, #256, #129 ) ;
#236 = FACE_OUTER_BOUND ( 'NONE', #34, .T. ) ;
#237 = ORIENTED_EDGE ( 'NONE', *, *, #21, .F. ) ;
#238 = PLANE ( 'NONE',  #197 ) ;
#239 = MECHANICAL_DESIGN_GEOMETRIC_PRESENTATION_REPRESENTATION (  '', ( #66 ), #70 ) ;
#240 = CARTESIAN_POINT ( 'NONE',  ( 2.296212748401287726E-17, 1.250000000000000000, 0.1875000000000000278 ) ) ;
#241 = DIRECTION ( 'NONE',  ( 0.000000000000000000, 0.000000000000000000, -1.000000000000000000 ) ) ;
#242 = EDGE_LOOP ( 'NONE', ( #104, #30 ) ) ;
#243 =( LENGTH_UNIT ( ) NAMED_UNIT ( * ) SI_UNIT ( $, .METRE. ) );
#244 = VECTOR ( 'NONE', #39, 39.37007874015748143 ) ;
#245 = AXIS2_PLACEMENT_3D ( 'NONE', #40, #36, #17 ) ;
#246 = PRESENTATION_STYLE_ASSIGNMENT (( #141 ) ) ;
#247 = AXIS2_PLACEMENT_3D ( 'NONE', #87, #88, #160 ) ;
#248 = EDGE_CURVE ( 'NONE', #10, #227, #274, .T. ) ;
#249 = SURFACE_STYLE_USAGE ( .BOTH. , #171 ) ;
#250 = EDGE_CURVE ( 'NONE', #92, #45, #212, .T. ) ;
#251 = ORIENTED_EDGE ( 'NONE', *, *, #248, .F. ) ;
#252 = ORIENTED_EDGE ( 'NONE', *, *, #53, .F. ) ;
#253 = PRESENTATION_STYLE_ASSIGNMENT (( #210 ) ) ;
#254 = UNCERTAINTY_MEASURE_WITH_UNIT (LENGTH_MEASURE( 1.000000000000000082E-05 ), #58, 'distance_accuracy_value', 'NONE');
#255 = CIRCLE ( 'NONE', #290, 0.1875000000000000833 ) ;
#256 = DIRECTION ( 'NONE',  ( -0.000000000000000000, -1.000000000000000000, -0.000000000000000000 ) ) ;
#257 =( CONVERSION_BASED_UNIT ( 'INCH', #186 ) LENGTH_UNIT ( ) NAMED_UNIT ( #181 ) );
#258 = SURFACE_STYLE_FILL_AREA ( #71 ) ;
#259 = CARTESIAN_POINT ( 'NONE',  ( -0.1875000000000000278, 1.250000000000000000, 0.000000000000000000 ) ) ;
#260 = MECHANICAL_DESIGN_GEOMETRIC_PRESENTATION_REPRESENTATION (  '', ( #298 ), #211 ) ;
#261 = SURFACE_STYLE_USAGE ( .BOTH. , #163 ) ;
#262 = EDGE_LOOP ( 'NONE', ( #68, #35 ) ) ;
#263 = FILL_AREA_STYLE ('',( #286 ) ) ;
#264 = DIRECTION ( 'NONE',  ( 0.000000000000000000, 0.000000000000000000, -1.000000000000000000 ) ) ;
#265 = COLOUR_RGB ( '',1.000000000000000000, 0.000000000000000000, 0.000000000000000000 ) ;
#266 = STYLED_ITEM ( 'NONE', ( #27 ), #225 ) ;
#267 = DIRECTION ( 'NONE',  ( 2.721437331438560697E-17, -1.000000000000000000, 0.000000000000000000 ) ) ;
#268 = AXIS2_PLACEMENT_3D ( 'NONE', #270, #267, #82 ) ;
#269 = ORIENTED_EDGE ( 'NONE', *, *, #216, .F. ) ;
#270 = CARTESIAN_POINT ( 'NONE',  ( 0.1875000000000000278, 3.500000000000000000, 0.000000000000000000 ) ) ;
#271 = PRODUCT ( '03362', '03362', '', ( #62 ) ) ;
#272 = PLANE ( 'NONE',  #268 ) ;
#273 = EDGE_CURVE ( 'NONE', #45, #92, #80, .T. ) ;
#274 = CIRCLE ( 'NONE', #215, 0.1875000000000000833 ) ;
#275 = ORIENTED_EDGE ( 'NONE', *, *, #302, .T. ) ;
#276 = VERTEX_POINT ( 'NONE', #59 ) ;
#277 = CYLINDRICAL_SURFACE ( 'NONE', #139, 0.1875000000000000555 ) ;
#278 = UNCERTAINTY_MEASURE_WITH_UNIT (LENGTH_MEASURE( 1.000000000000000082E-05 ), #257, 'distance_accuracy_value', 'NONE');
#279 = EDGE_LOOP ( 'NONE', ( #204, #3, #251, #95 ) ) ;
#280 = DIMENSIONAL_EXPONENTS ( 1.000000000000000000, 0.000000000000000000, 0.000000000000000000, 0.000000000000000000, 0.000000000000000000, 0.000000000000000000, 0.000000000000000000 ) ;
#281 = DIRECTION ( 'NONE',  ( -2.721437331438560697E-17, 1.000000000000000000, -0.000000000000000000 ) ) ;
#282 = DIRECTION ( 'NONE',  ( -2.721437331438560697E-17, 1.000000000000000000, 0.000000000000000000 ) ) ;
#283 =( CONVERSION_BASED_UNIT ( 'INCH', #126 ) LENGTH_UNIT ( ) NAMED_UNIT ( #280 ) );
#284 =( GEOMETRIC_REPRESENTATION_CONTEXT ( 3 ) GLOBAL_UNCERTAINTY_ASSIGNED_CONTEXT ( ( #106 ) ) GLOBAL_UNIT_ASSIGNED_CONTEXT ( ( #112, #5, #93 ) ) REPRESENTATION_CONTEXT ( 'NONE', 'WORKASPACE' ) );
#285 = LENGTH_MEASURE_WITH_UNIT ( LENGTH_MEASURE( 0.02539999999999999897 ), #243 );
#286 = FILL_AREA_STYLE_COLOUR ( '', #89 ) ;
#287 = UNCERTAINTY_MEASURE_WITH_UNIT (LENGTH_MEASURE( 1.000000000000000082E-05 ), #169, 'distance_accuracy_value', 'NONE');
#288 = SURFACE_STYLE_FILL_AREA ( #170 ) ;
#289 = CARTESIAN_POINT ( 'NONE',  ( 0.000000000000000000, 1.250000000000000000, 0.000000000000000000 ) ) ;
#290 = AXIS2_PLACEMENT_3D ( 'NONE', #223, #8, #131 ) ;
#291 = FACE_OUTER_BOUND ( 'NONE', #228, .T. ) ;
#292 = SURFACE_SIDE_STYLE ('',( #222 ) ) ;
#293 = DIRECTION ( 'NONE',  ( 0.000000000000000000, 1.000000000000000000, 0.000000000000000000 ) ) ;
#294 = AXIS2_PLACEMENT_3D ( 'NONE', #289, #202, #148 ) ;
#295 = DIRECTION ( 'NONE',  ( -2.721437331438560389E-17, 1.000000000000000000, -0.000000000000000000 ) ) ;
#296 = APPLICATION_PROTOCOL_DEFINITION ( 'draft international standard', 'automotive_design', 1998, #150 ) ;
#297 = ORIENTED_EDGE ( 'NONE', *, *, #173, .F. ) ;
#298 = STYLED_ITEM ( 'NONE', ( #253 ), #23 ) ;
#299 = PRODUCT_DEFINITION_FORMATION_WITH_SPECIFIED_SOURCE ( 'ANY', '', #271, .NOT_KNOWN. ) ;
#300 = CARTESIAN_POINT ( 'NONE',  ( 6.943332327138218856E-35, 1.250000000000000000, 0.000000000000000000 ) ) ;
#301 = DIRECTION ( 'NONE',  ( 0.000000000000000000, 0.000000000000000000, -1.000000000000000000 ) ) ;
#302 = EDGE_CURVE ( 'NONE', #175, #10, #224, .T. ) ;
#303 =( GEOMETRIC_REPRESENTATION_CONTEXT ( 3 ) GLOBAL_UNCERTAINTY_ASSIGNED_CONTEXT ( ( #278 ) ) GLOBAL_UNIT_ASSIGNED_CONTEXT ( ( #257, #231, #213 ) ) REPRESENTATION_CONTEXT ( 'NONE', 'WORKASPACE' ) );
#304 = CARTESIAN_POINT ( 'NONE',  ( 0.000000000000000000, 0.000000000000000000, 0.000000000000000000 ) ) ;
#305 = FILL_AREA_STYLE_COLOUR ( '', #177 ) ;
#306 = EDGE_CURVE ( 'NONE', #276, #175, #220, .T. ) ;
#307 = ORIENTED_EDGE ( 'NONE', *, *, #57, .F. ) ;
#308 = LENGTH_MEASURE_WITH_UNIT ( LENGTH_MEASURE( 0.02539999999999999897 ), #116 );
#309 =( LENGTH_UNIT ( ) NAMED_UNIT ( * ) SI_UNIT ( $, .METRE. ) );
ENDSEC;
END-ISO-10303-21;
