ISO-10303-21;
HEADER;
FILE_DESCRIPTION (( 'STEP AP214' ),
    '1' );
FILE_NAME ('Micro_AEMM-070-3X.STEP',
    '2022-03-15T14:28:14',
    ( '' ),
    ( '' ),
    'SwSTEP 2.0',
    'SolidWorks 2022',
    '' );
FILE_SCHEMA (( 'AUTOMOTIVE_DESIGN' ));
ENDSEC;

DATA;
#1 = AXIS2_PLACEMENT_3D ( 'NONE', #219, #195, #105 ) ;
#2 = EDGE_LOOP ( 'NONE', ( #206, #119, #277, #243 ) ) ;
#3 = STYLED_ITEM ( 'NONE', ( #163 ), #279 ) ;
#4 = EDGE_CURVE ( 'NONE', #235, #232, #74, .T. ) ;
#5 =( LENGTH_UNIT ( ) NAMED_UNIT ( * ) SI_UNIT ( $, .METRE. ) );
#6 = DIRECTION ( 'NONE',  ( -1.000000000000000000, 0.000000000000000000, 0.000000000000000000 ) ) ;
#7 = CARTESIAN_POINT ( 'NONE',  ( -0.1424804999999990940, 0.000000000000000000, 2.480315000000000047 ) ) ;
#8 = EDGE_CURVE ( 'NONE', #232, #162, #157, .T. ) ;
#9 = CARTESIAN_POINT ( 'NONE',  ( 0.000000000000000000, 0.000000000000000000, 2.480315000000000047 ) ) ;
#10 = CARTESIAN_POINT ( 'NONE',  ( 0.1376577045000001165, 0.000000000000000000, 0.8661419999999999675 ) ) ;
#11 = ORIENTED_EDGE ( 'NONE', *, *, #28, .T. ) ;
#12 = VERTEX_POINT ( 'NONE', #10 ) ;
#13 = FACE_OUTER_BOUND ( 'NONE', #261, .T. ) ;
#14 = UNCERTAINTY_MEASURE_WITH_UNIT (LENGTH_MEASURE( 1.000000000000000082E-05 ), #140, 'distance_accuracy_value', 'NONE');
#15 = AXIS2_PLACEMENT_3D ( 'NONE', #128, #21, #38 ) ;
#16 = DIRECTION ( 'NONE',  ( -1.224646799147353207E-16, -0.000000000000000000, -1.000000000000000000 ) ) ;
#17 = CARTESIAN_POINT ( 'NONE',  ( 1.060718027907086782E-16, 0.000000000000000000, 0.8661419999999999675 ) ) ;
#18 = CARTESIAN_POINT ( 'NONE',  ( -0.1424804999999990940, 0.000000000000000000, 2.480315000000000047 ) ) ;
#19 = EDGE_CURVE ( 'NONE', #12, #86, #142, .T. ) ;
#20 = AXIS2_PLACEMENT_3D ( 'NONE', #124, #208, #283 ) ;
#21 = DIRECTION ( 'NONE',  ( -1.224646799147353207E-16, -0.000000000000000000, -1.000000000000000000 ) ) ;
#22 = DIRECTION ( 'NONE',  ( 1.224646799147353207E-16, 0.000000000000000000, 1.000000000000000000 ) ) ;
#23 = SURFACE_STYLE_FILL_AREA ( #273 ) ;
#24 = CIRCLE ( 'NONE', #240, 0.1376577045000000055 ) ;
#25 = ORIENTED_EDGE ( 'NONE', *, *, #96, .F. ) ;
#26 = LINE ( 'NONE', #183, #185 ) ;
#27 = DIRECTION ( 'NONE',  ( -1.224646799147353207E-16, -0.000000000000000000, -1.000000000000000000 ) ) ;
#28 = EDGE_CURVE ( 'NONE', #86, #270, #193, .T. ) ;
#29 = ORIENTED_EDGE ( 'NONE', *, *, #282, .T. ) ;
#30 = ORIENTED_EDGE ( 'NONE', *, *, #4, .F. ) ;
#31 = VECTOR ( 'NONE', #246, 39.37007874015747433 ) ;
#32 = EDGE_CURVE ( 'NONE', #235, #203, #127, .T. ) ;
#33 = DIRECTION ( 'NONE',  ( 1.000000000000000000, 0.000000000000000000, 0.000000000000000000 ) ) ;
#34 = CIRCLE ( 'NONE', #199, 0.1376577045000000055 ) ;
#35 = AXIS2_PLACEMENT_3D ( 'NONE', #94, #234, #121 ) ;
#36 = CARTESIAN_POINT ( 'NONE',  ( -0.1574804999999999955, 0.000000000000000000, 2.465314999999999923 ) ) ;
#37 = FACE_OUTER_BOUND ( 'NONE', #97, .T. ) ;
#38 = DIRECTION ( 'NONE',  ( 1.000000000000000000, 0.000000000000000000, 0.000000000000000000 ) ) ;
#39 = ORIENTED_EDGE ( 'NONE', *, *, #275, .F. ) ;
#40 = CYLINDRICAL_SURFACE ( 'NONE', #184, 0.1574804999999999955 ) ;
#41 = PRODUCT_DEFINITION_FORMATION_WITH_SPECIFIED_SOURCE ( 'ANY', '', #170, .NOT_KNOWN. ) ;
#42 = EDGE_LOOP ( 'NONE', ( #144, #188, #276, #25 ) ) ;
#43 = CYLINDRICAL_SURFACE ( 'NONE', #108, 0.1376577045000000055 ) ;
#44 = EDGE_CURVE ( 'NONE', #203, #162, #125, .T. ) ;
#45 = AXIS2_PLACEMENT_3D ( 'NONE', #130, #216, #263 ) ;
#46 = ORIENTED_EDGE ( 'NONE', *, *, #110, .T. ) ;
#47 = PRODUCT_RELATED_PRODUCT_CATEGORY ( 'part', '', ( #170 ) ) ;
#48 = LENGTH_MEASURE_WITH_UNIT ( LENGTH_MEASURE( 0.02539999999999999897 ), #5 );
#49 = ORIENTED_EDGE ( 'NONE', *, *, #32, .T. ) ;
#50 = ORIENTED_EDGE ( 'NONE', *, *, #32, .F. ) ;
#51 = ORIENTED_EDGE ( 'NONE', *, *, #96, .T. ) ;
#52 = DIRECTION ( 'NONE',  ( 0.000000000000000000, 0.000000000000000000, 1.000000000000000000 ) ) ;
#53 = EDGE_LOOP ( 'NONE', ( #213, #93, #51, #101 ) ) ;
#54 = AXIS2_PLACEMENT_3D ( 'NONE', #189, #289, #290 ) ;
#55 = ADVANCED_FACE ( 'NONE', ( #165 ), #212, .F. ) ;
#56 = CARTESIAN_POINT ( 'NONE',  ( 0.1376577045000000055, 1.685820671938972047E-17, 0.000000000000000000 ) ) ;
#57 = UNCERTAINTY_MEASURE_WITH_UNIT (LENGTH_MEASURE( 1.000000000000000082E-05 ), #95, 'distance_accuracy_value', 'NONE');
#58 = PRESENTATION_LAYER_ASSIGNMENT (  '', '', ( #280 ) ) ;
#59 = CARTESIAN_POINT ( 'NONE',  ( 1.060718027907086782E-16, 0.000000000000000000, 0.8661419999999999675 ) ) ;
#60 = DIRECTION ( 'NONE',  ( 1.000000000000000000, 0.000000000000000000, 0.000000000000000000 ) ) ;
#61 = APPLICATION_CONTEXT ( 'automotive_design' ) ;
#62 = ORIENTED_EDGE ( 'NONE', *, *, #226, .T. ) ;
#63 = VECTOR ( 'NONE', #100, 39.37007874015748854 ) ;
#64 = CARTESIAN_POINT ( 'NONE',  ( -0.1376577044999999222, 1.685820671938972047E-17, 0.8661419999999999675 ) ) ;
#65 = ADVANCED_FACE ( 'NONE', ( #13 ), #132, .T. ) ;
#66 = DIRECTION ( 'NONE',  ( -1.224646799147353207E-16, -0.000000000000000000, -1.000000000000000000 ) ) ;
#67 = FILL_AREA_STYLE ('',( #178 ) ) ;
#68 = ORIENTED_EDGE ( 'NONE', *, *, #28, .F. ) ;
#69 = ORIENTED_EDGE ( 'NONE', *, *, #19, .T. ) ;
#70 = ORIENTED_EDGE ( 'NONE', *, *, #4, .T. ) ;
#71 = EDGE_LOOP ( 'NONE', ( #210, #69, #103, #73 ) ) ;
#72 = DIRECTION ( 'NONE',  ( -1.000000000000000000, 0.000000000000000000, 0.000000000000000000 ) ) ;
#73 = ORIENTED_EDGE ( 'NONE', *, *, #253, .F. ) ;
#74 = LINE ( 'NONE', #181, #260 ) ;
#75 = PRODUCT_DEFINITION_CONTEXT ( 'detailed design', #77, 'design' ) ;
#76 = CIRCLE ( 'NONE', #298, 0.1376577045000000055 ) ;
#77 = APPLICATION_CONTEXT ( 'automotive_design' ) ;
#78 = DIRECTION ( 'NONE',  ( -1.000000000000000000, 0.000000000000000000, 1.224646799147353207E-16 ) ) ;
#79 = DIRECTION ( 'NONE',  ( 1.000000000000000000, 0.000000000000000000, 0.000000000000000000 ) ) ;
#80 = ADVANCED_FACE ( 'NONE', ( #152 ), #40, .T. ) ;
#81 = DIRECTION ( 'NONE',  ( -1.000000000000000000, 0.000000000000000000, 0.000000000000000000 ) ) ;
#82 = AXIS2_PLACEMENT_3D ( 'NONE', #239, #16, #79 ) ;
#83 = DIRECTION ( 'NONE',  ( 0.000000000000000000, 0.000000000000000000, -1.000000000000000000 ) ) ;
#84 = CARTESIAN_POINT ( 'NONE',  ( 0.1574804999999999955, 1.928579902531247412E-17, 2.480315000000000047 ) ) ;
#85 = DIRECTION ( 'NONE',  ( 1.000000000000000000, 0.000000000000000000, 0.000000000000000000 ) ) ;
#86 = VERTEX_POINT ( 'NONE', #56 ) ;
#87 = EDGE_CURVE ( 'NONE', #232, #284, #154, .T. ) ;
#88 = CIRCLE ( 'NONE', #1, 0.1424804999999990940 ) ;
#89 = LENGTH_MEASURE_WITH_UNIT ( LENGTH_MEASURE( 0.02539999999999999897 ), #177 );
#90 = CARTESIAN_POINT ( 'NONE',  ( 0.1574805000000001343, 1.928579902531249261E-17, 0.9785626597331489318 ) ) ;
#91 = SURFACE_STYLE_FILL_AREA ( #67 ) ;
#92 = EDGE_CURVE ( 'NONE', #203, #235, #88, .T. ) ;
#93 = ORIENTED_EDGE ( 'NONE', *, *, #282, .F. ) ;
#94 = CARTESIAN_POINT ( 'NONE',  ( 0.000000000000000000, 0.000000000000000000, 0.000000000000000000 ) ) ;
#95 =( CONVERSION_BASED_UNIT ( 'INCH', #89 ) LENGTH_UNIT ( ) NAMED_UNIT ( #217 ) );
#96 = EDGE_CURVE ( 'NONE', #12, #284, #196, .T. ) ;
#97 = EDGE_LOOP ( 'NONE', ( #123, #49 ) ) ;
#98 = PRODUCT_DEFINITION_SHAPE ( 'NONE', 'NONE',  #172 ) ;
#99 = FACE_OUTER_BOUND ( 'NONE', #2, .T. ) ;
#100 = DIRECTION ( 'NONE',  ( -0.7071067811865627828, 0.000000000000000000, -0.7071067811865321406 ) ) ;
#101 = ORIENTED_EDGE ( 'NONE', *, *, #168, .T. ) ;
#102 = DIRECTION ( 'NONE',  ( 1.000000000000000000, 0.000000000000000000, -0.000000000000000000 ) ) ;
#103 = ORIENTED_EDGE ( 'NONE', *, *, #226, .F. ) ;
#104 = CARTESIAN_POINT ( 'NONE',  ( 0.000000000000000000, 0.000000000000000000, 2.480315000000000047 ) ) ;
#105 = DIRECTION ( 'NONE',  ( 1.000000000000000000, 0.000000000000000000, 0.000000000000000000 ) ) ;
#106 = FACE_OUTER_BOUND ( 'NONE', #42, .T. ) ;
#107 = CARTESIAN_POINT ( 'NONE',  ( -0.1574804999999998567, 0.000000000000000000, 0.9785626597331489318 ) ) ;
#108 = AXIS2_PLACEMENT_3D ( 'NONE', #241, #268, #134 ) ;
#109 = CYLINDRICAL_SURFACE ( 'NONE', #45, 0.1376577045000000055 ) ;
#110 = EDGE_CURVE ( 'NONE', #162, #232, #272, .T. ) ;
#111 = DIRECTION ( 'NONE',  ( -1.224646799147353207E-16, -0.000000000000000000, -1.000000000000000000 ) ) ;
#112 = SURFACE_SIDE_STYLE ('',( #91 ) ) ;
#113 = ORIENTED_EDGE ( 'NONE', *, *, #253, .T. ) ;
#114 = AXIS2_PLACEMENT_3D ( 'NONE', #118, #286, #33 ) ;
#115 =( CONVERSION_BASED_UNIT ( 'INCH', #247 ) LENGTH_UNIT ( ) NAMED_UNIT ( #238 ) );
#116 = CARTESIAN_POINT ( 'NONE',  ( -0.1574804999999999955, 0.000000000000000000, 2.480315000000000047 ) ) ;
#117 = APPLICATION_PROTOCOL_DEFINITION ( 'draft international standard', 'automotive_design', 1998, #77 ) ;
#118 = CARTESIAN_POINT ( 'NONE',  ( 0.000000000000000000, 0.000000000000000000, 2.480315000000000047 ) ) ;
#119 = ORIENTED_EDGE ( 'NONE', *, *, #8, .T. ) ;
#120 = CARTESIAN_POINT ( 'NONE',  ( -0.1376577045000000055, 0.000000000000000000, 3.371641343877944094E-17 ) ) ;
#121 = DIRECTION ( 'NONE',  ( 1.000000000000000000, 0.000000000000000000, 0.000000000000000000 ) ) ;
#122 = DIRECTION ( 'NONE',  ( 0.7071067811865627828, 8.659560562355118980E-17, -0.7071067811865321406 ) ) ;
#123 = ORIENTED_EDGE ( 'NONE', *, *, #92, .T. ) ;
#124 = CARTESIAN_POINT ( 'NONE',  ( 0.000000000000000000, 0.000000000000000000, 2.465314999999999923 ) ) ;
#125 = LINE ( 'NONE', #7, #63 ) ;
#126 = ORIENTED_EDGE ( 'NONE', *, *, #92, .F. ) ;
#127 = CIRCLE ( 'NONE', #114, 0.1424804999999990940 ) ;
#128 = CARTESIAN_POINT ( 'NONE',  ( 1.198393629007321272E-16, 0.000000000000000000, 0.9785626597331489318 ) ) ;
#129 = CARTESIAN_POINT ( 'NONE',  ( 0.1574804999999999955, 1.928579902531247412E-17, 2.465314999999999923 ) ) ;
#130 = CARTESIAN_POINT ( 'NONE',  ( 0.000000000000000000, 0.000000000000000000, 0.000000000000000000 ) ) ;
#131 = ORIENTED_EDGE ( 'NONE', *, *, #87, .T. ) ;
#132 = CONICAL_SURFACE ( 'NONE', #291, 0.1424804999999990940, 0.7853981633974699283 ) ;
#133 =( GEOMETRIC_REPRESENTATION_CONTEXT ( 3 ) GLOBAL_UNCERTAINTY_ASSIGNED_CONTEXT ( ( #14 ) ) GLOBAL_UNIT_ASSIGNED_CONTEXT ( ( #140, #229, #141 ) ) REPRESENTATION_CONTEXT ( 'NONE', 'WORKASPACE' ) );
#134 = DIRECTION ( 'NONE',  ( -1.000000000000000000, 0.000000000000000000, 1.224646799147353207E-16 ) ) ;
#135 =( NAMED_UNIT ( * ) SI_UNIT ( $, .STERADIAN. ) SOLID_ANGLE_UNIT ( ) );
#136 = CYLINDRICAL_SURFACE ( 'NONE', #221, 0.1574804999999999955 ) ;
#137 = CIRCLE ( 'NONE', #15, 0.1574804999999999955 ) ;
#138 = COLOUR_RGB ( '',0.7921568627450980005, 0.8196078431372548767, 0.9333333333333333481 ) ;
#139 = ORIENTED_EDGE ( 'NONE', *, *, #44, .T. ) ;
#140 =( CONVERSION_BASED_UNIT ( 'INCH', #48 ) LENGTH_UNIT ( ) NAMED_UNIT ( #262 ) );
#141 =( NAMED_UNIT ( * ) SI_UNIT ( $, .STERADIAN. ) SOLID_ANGLE_UNIT ( ) );
#142 = LINE ( 'NONE', #288, #233 ) ;
#143 = ADVANCED_FACE ( 'NONE', ( #296 ), #43, .T. ) ;
#144 = ORIENTED_EDGE ( 'NONE', *, *, #223, .F. ) ;
#145 = DIRECTION ( 'NONE',  ( -1.224646799147353207E-16, -0.000000000000000000, -1.000000000000000000 ) ) ;
#146 = VERTEX_POINT ( 'NONE', #222 ) ;
#147 = ORIENTED_EDGE ( 'NONE', *, *, #110, .F. ) ;
#148 = CARTESIAN_POINT ( 'NONE',  ( 0.000000000000000000, 0.000000000000000000, 2.465314999999999923 ) ) ;
#149 = AXIS2_PLACEMENT_3D ( 'NONE', #258, #52, #102 ) ;
#150 = VECTOR ( 'NONE', #231, 39.37007874015748143 ) ;
#151 = DIRECTION ( 'NONE',  ( -1.000000000000000000, 0.000000000000000000, 1.224646799147353207E-16 ) ) ;
#152 = FACE_OUTER_BOUND ( 'NONE', #153, .T. ) ;
#153 = EDGE_LOOP ( 'NONE', ( #46, #131, #254, #39 ) ) ;
#154 = LINE ( 'NONE', #84, #287 ) ;
#155 = DIRECTION ( 'NONE',  ( -0.000000000000000000, -0.000000000000000000, -1.000000000000000000 ) ) ;
#156 = EDGE_LOOP ( 'NONE', ( #256, #29, #113, #68 ) ) ;
#157 = CIRCLE ( 'NONE', #20, 0.1574804999999999955 ) ;
#158 = MECHANICAL_DESIGN_GEOMETRIC_PRESENTATION_REPRESENTATION (  '', ( #3 ), #194 ) ;
#159 = SURFACE_STYLE_USAGE ( .BOTH. , #112 ) ;
#160 = EDGE_CURVE ( 'NONE', #250, #284, #179, .T. ) ;
#161 =( NAMED_UNIT ( * ) SI_UNIT ( $, .STERADIAN. ) SOLID_ANGLE_UNIT ( ) );
#162 = VERTEX_POINT ( 'NONE', #36 ) ;
#163 = PRESENTATION_STYLE_ASSIGNMENT (( #197 ) ) ;
#164 = ORIENTED_EDGE ( 'NONE', *, *, #44, .F. ) ;
#165 = FACE_OUTER_BOUND ( 'NONE', #209, .T. ) ;
#166 = PRESENTATION_LAYER_ASSIGNMENT (  '', '', ( #3 ) ) ;
#167 = CARTESIAN_POINT ( 'NONE',  ( 2.064534889826502042E-33, 0.000000000000000000, 1.685820671938972047E-17 ) ) ;
#168 = EDGE_CURVE ( 'NONE', #284, #250, #137, .T. ) ;
#169 = DIRECTION ( 'NONE',  ( -1.224646799147353207E-16, -0.000000000000000000, -1.000000000000000000 ) ) ;
#170 = PRODUCT ( 'Micro_AEMM-070-3X', 'Micro_AEMM-070-3X', '', ( #205 ) ) ;
#171 = CARTESIAN_POINT ( 'NONE',  ( 2.064534889826502042E-33, 0.000000000000000000, 1.685820671938972047E-17 ) ) ;
#172 = PRODUCT_DEFINITION ( 'UNKNOWN', '', #41, #75 ) ;
#173 = FACE_OUTER_BOUND ( 'NONE', #156, .T. ) ;
#174 = CARTESIAN_POINT ( 'NONE',  ( 1.060718027907086782E-16, 0.000000000000000000, 0.8661419999999999675 ) ) ;
#175 = DIRECTION ( 'NONE',  ( 1.224646799147353207E-16, 0.000000000000000000, 1.000000000000000000 ) ) ;
#176 = CONICAL_SURFACE ( 'NONE', #207, 0.1376577045000000055, 0.1745329251994339192 ) ;
#177 =( LENGTH_UNIT ( ) NAMED_UNIT ( * ) SI_UNIT ( $, .METRE. ) );
#178 = FILL_AREA_STYLE_COLOUR ( '', #138 ) ;
#179 = CIRCLE ( 'NONE', #82, 0.1574804999999999955 ) ;
#180 = ADVANCED_BREP_SHAPE_REPRESENTATION ( 'Micro_AEMM-070-3X', ( #279, #35 ), #133 ) ;
#181 = CARTESIAN_POINT ( 'NONE',  ( 0.1424804999999990940, 1.744882882659133128E-17, 2.480315000000000047 ) ) ;
#182 = ADVANCED_FACE ( 'NONE', ( #173 ), #109, .T. ) ;
#183 = CARTESIAN_POINT ( 'NONE',  ( -0.1376577045000000055, 0.000000000000000000, 1.685820671938972047E-17 ) ) ;
#184 = AXIS2_PLACEMENT_3D ( 'NONE', #190, #192, #242 ) ;
#185 = VECTOR ( 'NONE', #111, 39.37007874015748143 ) ;
#186 = ORIENTED_EDGE ( 'NONE', *, *, #8, .F. ) ;
#187 = DIRECTION ( 'NONE',  ( -1.000000000000000000, 0.000000000000000000, 0.000000000000000000 ) ) ;
#188 = ORIENTED_EDGE ( 'NONE', *, *, #211, .T. ) ;
#189 = CARTESIAN_POINT ( 'NONE',  ( 0.000000000000000000, 0.000000000000000000, 2.480315000000000047 ) ) ;
#190 = CARTESIAN_POINT ( 'NONE',  ( 0.000000000000000000, 0.000000000000000000, 2.480315000000000047 ) ) ;
#191 = ADVANCED_FACE ( 'NONE', ( #295 ), #176, .T. ) ;
#192 = DIRECTION ( 'NONE',  ( -0.000000000000000000, -0.000000000000000000, -1.000000000000000000 ) ) ;
#193 = CIRCLE ( 'NONE', #220, 0.1376577045000000055 ) ;
#194 =( GEOMETRIC_REPRESENTATION_CONTEXT ( 3 ) GLOBAL_UNCERTAINTY_ASSIGNED_CONTEXT ( ( #57 ) ) GLOBAL_UNIT_ASSIGNED_CONTEXT ( ( #95, #255, #135 ) ) REPRESENTATION_CONTEXT ( 'NONE', 'WORKASPACE' ) );
#195 = DIRECTION ( 'NONE',  ( 0.000000000000000000, 0.000000000000000000, 1.000000000000000000 ) ) ;
#196 = LINE ( 'NONE', #292, #265 ) ;
#197 = SURFACE_STYLE_USAGE ( .BOTH. , #204 ) ;
#198 = ADVANCED_FACE ( 'NONE', ( #106 ), #215, .T. ) ;
#199 = AXIS2_PLACEMENT_3D ( 'NONE', #171, #267, #151 ) ;
#200 =( GEOMETRIC_REPRESENTATION_CONTEXT ( 3 ) GLOBAL_UNCERTAINTY_ASSIGNED_CONTEXT ( ( #236 ) ) GLOBAL_UNIT_ASSIGNED_CONTEXT ( ( #115, #227, #161 ) ) REPRESENTATION_CONTEXT ( 'NONE', 'WORKASPACE' ) );
#201 = CARTESIAN_POINT ( 'NONE',  ( 1.060718027907086782E-16, 0.000000000000000000, 0.8661419999999999675 ) ) ;
#202 = ADVANCED_FACE ( 'NONE', ( #37 ), #271, .T. ) ;
#203 = VERTEX_POINT ( 'NONE', #18 ) ;
#204 = SURFACE_SIDE_STYLE ('',( #23 ) ) ;
#205 = PRODUCT_CONTEXT ( 'NONE', #61, 'mechanical' ) ;
#206 = ORIENTED_EDGE ( 'NONE', *, *, #87, .F. ) ;
#207 = AXIS2_PLACEMENT_3D ( 'NONE', #17, #22, #85 ) ;
#208 = DIRECTION ( 'NONE',  ( 0.000000000000000000, 0.000000000000000000, -1.000000000000000000 ) ) ;
#209 = EDGE_LOOP ( 'NONE', ( #62, #11 ) ) ;
#210 = ORIENTED_EDGE ( 'NONE', *, *, #223, .T. ) ;
#211 = EDGE_CURVE ( 'NONE', #146, #250, #264, .T. ) ;
#212 = PLANE ( 'NONE',  #149 ) ;
#213 = ORIENTED_EDGE ( 'NONE', *, *, #211, .F. ) ;
#214 = DIRECTION ( 'NONE',  ( 1.000000000000000000, 0.000000000000000000, 0.000000000000000000 ) ) ;
#215 = CONICAL_SURFACE ( 'NONE', #274, 0.1376577045000000055, 0.1745329251994339192 ) ;
#216 = DIRECTION ( 'NONE',  ( -1.224646799147353207E-16, -0.000000000000000000, -1.000000000000000000 ) ) ;
#217 = DIMENSIONAL_EXPONENTS ( 1.000000000000000000, 0.000000000000000000, 0.000000000000000000, 0.000000000000000000, 0.000000000000000000, 0.000000000000000000, 0.000000000000000000 ) ;
#218 = CARTESIAN_POINT ( 'NONE',  ( 0.1424804999999990940, 1.836731392595189962E-17, 2.480315000000000047 ) ) ;
#219 = CARTESIAN_POINT ( 'NONE',  ( 0.000000000000000000, 0.000000000000000000, 2.480315000000000047 ) ) ;
#220 = AXIS2_PLACEMENT_3D ( 'NONE', #167, #27, #78 ) ;
#221 = AXIS2_PLACEMENT_3D ( 'NONE', #224, #297, #72 ) ;
#222 = CARTESIAN_POINT ( 'NONE',  ( -0.1376577044999999222, 1.807200287235109884E-17, 0.8661419999999999675 ) ) ;
#223 = EDGE_CURVE ( 'NONE', #146, #12, #76, .T. ) ;
#224 = CARTESIAN_POINT ( 'NONE',  ( 0.000000000000000000, 0.000000000000000000, 2.480315000000000047 ) ) ;
#225 =( LENGTH_UNIT ( ) NAMED_UNIT ( * ) SI_UNIT ( $, .METRE. ) );
#226 = EDGE_CURVE ( 'NONE', #270, #86, #34, .T. ) ;
#227 =( NAMED_UNIT ( * ) PLANE_ANGLE_UNIT ( ) SI_UNIT ( $, .RADIAN. ) );
#228 = PRESENTATION_STYLE_ASSIGNMENT (( #159 ) ) ;
#229 =( NAMED_UNIT ( * ) PLANE_ANGLE_UNIT ( ) SI_UNIT ( $, .RADIAN. ) );
#230 = FACE_OUTER_BOUND ( 'NONE', #252, .T. ) ;
#231 = DIRECTION ( 'NONE',  ( -0.000000000000000000, -0.000000000000000000, -1.000000000000000000 ) ) ;
#232 = VERTEX_POINT ( 'NONE', #129 ) ;
#233 = VECTOR ( 'NONE', #145, 39.37007874015748143 ) ;
#234 = DIRECTION ( 'NONE',  ( 0.000000000000000000, 0.000000000000000000, 1.000000000000000000 ) ) ;
#235 = VERTEX_POINT ( 'NONE', #218 ) ;
#236 = UNCERTAINTY_MEASURE_WITH_UNIT (LENGTH_MEASURE( 1.000000000000000082E-05 ), #115, 'distance_accuracy_value', 'NONE');
#237 = DIRECTION ( 'NONE',  ( 0.000000000000000000, 0.000000000000000000, -1.000000000000000000 ) ) ;
#238 = DIMENSIONAL_EXPONENTS ( 1.000000000000000000, 0.000000000000000000, 0.000000000000000000, 0.000000000000000000, 0.000000000000000000, 0.000000000000000000, 0.000000000000000000 ) ;
#239 = CARTESIAN_POINT ( 'NONE',  ( 1.198393629007321272E-16, 0.000000000000000000, 0.9785626597331489318 ) ) ;
#240 = AXIS2_PLACEMENT_3D ( 'NONE', #201, #66, #299 ) ;
#241 = CARTESIAN_POINT ( 'NONE',  ( 0.000000000000000000, 0.000000000000000000, 0.000000000000000000 ) ) ;
#242 = DIRECTION ( 'NONE',  ( -1.000000000000000000, 0.000000000000000000, 0.000000000000000000 ) ) ;
#243 = ORIENTED_EDGE ( 'NONE', *, *, #168, .F. ) ;
#244 = DIRECTION ( 'NONE',  ( 0.1736481776669314137, 0.000000000000000000, 0.9848077530122077983 ) ) ;
#245 = CLOSED_SHELL ( 'NONE', ( #143, #198, #259, #80, #269, #202, #65, #191, #182, #55 ) ) ;
#246 = DIRECTION ( 'NONE',  ( -0.1736481776669312194, 2.126576849575783625E-17, 0.9848077530122080203 ) ) ;
#247 = LENGTH_MEASURE_WITH_UNIT ( LENGTH_MEASURE( 0.02539999999999999897 ), #225 );
#248 = AXIS2_PLACEMENT_3D ( 'NONE', #148, #83, #60 ) ;
#249 = MECHANICAL_DESIGN_GEOMETRIC_PRESENTATION_REPRESENTATION (  '', ( #280 ), #200 ) ;
#250 = VERTEX_POINT ( 'NONE', #107 ) ;
#251 = SHAPE_DEFINITION_REPRESENTATION ( #98, #180 ) ;
#252 = EDGE_LOOP ( 'NONE', ( #50, #70, #147, #164 ) ) ;
#253 = EDGE_CURVE ( 'NONE', #146, #270, #26, .T. ) ;
#254 = ORIENTED_EDGE ( 'NONE', *, *, #160, .F. ) ;
#255 =( NAMED_UNIT ( * ) PLANE_ANGLE_UNIT ( ) SI_UNIT ( $, .RADIAN. ) );
#256 = ORIENTED_EDGE ( 'NONE', *, *, #19, .F. ) ;
#257 = FILL_AREA_STYLE_COLOUR ( '', #294 ) ;
#258 = CARTESIAN_POINT ( 'NONE',  ( 0.000000000000000000, 0.000000000000000000, 0.000000000000000000 ) ) ;
#259 = ADVANCED_FACE ( 'NONE', ( #230 ), #293, .T. ) ;
#260 = VECTOR ( 'NONE', #122, 39.37007874015748854 ) ;
#261 = EDGE_LOOP ( 'NONE', ( #30, #126, #139, #186 ) ) ;
#262 = DIMENSIONAL_EXPONENTS ( 1.000000000000000000, 0.000000000000000000, 0.000000000000000000, 0.000000000000000000, 0.000000000000000000, 0.000000000000000000, 0.000000000000000000 ) ;
#263 = DIRECTION ( 'NONE',  ( -1.000000000000000000, 0.000000000000000000, 1.224646799147353207E-16 ) ) ;
#264 = LINE ( 'NONE', #64, #31 ) ;
#265 = VECTOR ( 'NONE', #244, 39.37007874015748143 ) ;
#266 = AXIS2_PLACEMENT_3D ( 'NONE', #9, #278, #187 ) ;
#267 = DIRECTION ( 'NONE',  ( -1.224646799147353207E-16, -0.000000000000000000, -1.000000000000000000 ) ) ;
#268 = DIRECTION ( 'NONE',  ( -1.224646799147353207E-16, -0.000000000000000000, -1.000000000000000000 ) ) ;
#269 = ADVANCED_FACE ( 'NONE', ( #99 ), #136, .T. ) ;
#270 = VERTEX_POINT ( 'NONE', #120 ) ;
#271 = PLANE ( 'NONE',  #54 ) ;
#272 = CIRCLE ( 'NONE', #248, 0.1574804999999999955 ) ;
#273 = FILL_AREA_STYLE ('',( #257 ) ) ;
#274 = AXIS2_PLACEMENT_3D ( 'NONE', #174, #175, #214 ) ;
#275 = EDGE_CURVE ( 'NONE', #162, #250, #281, .T. ) ;
#276 = ORIENTED_EDGE ( 'NONE', *, *, #160, .T. ) ;
#277 = ORIENTED_EDGE ( 'NONE', *, *, #275, .T. ) ;
#278 = DIRECTION ( 'NONE',  ( 0.000000000000000000, 0.000000000000000000, -1.000000000000000000 ) ) ;
#279 = MANIFOLD_SOLID_BREP ( 'Cut-Revolve1', #245 ) ;
#280 = STYLED_ITEM ( 'NONE', ( #228 ), #180 ) ;
#281 = LINE ( 'NONE', #116, #150 ) ;
#282 = EDGE_CURVE ( 'NONE', #12, #146, #24, .T. ) ;
#283 = DIRECTION ( 'NONE',  ( 1.000000000000000000, 0.000000000000000000, 0.000000000000000000 ) ) ;
#284 = VERTEX_POINT ( 'NONE', #90 ) ;
#285 = APPLICATION_PROTOCOL_DEFINITION ( 'draft international standard', 'automotive_design', 1998, #61 ) ;
#286 = DIRECTION ( 'NONE',  ( 0.000000000000000000, 0.000000000000000000, 1.000000000000000000 ) ) ;
#287 = VECTOR ( 'NONE', #155, 39.37007874015748143 ) ;
#288 = CARTESIAN_POINT ( 'NONE',  ( 0.1376577045000000055, 1.685820671938972047E-17, -1.685820671938972047E-17 ) ) ;
#289 = DIRECTION ( 'NONE',  ( 0.000000000000000000, 0.000000000000000000, 1.000000000000000000 ) ) ;
#290 = DIRECTION ( 'NONE',  ( 1.000000000000000000, 0.000000000000000000, -0.000000000000000000 ) ) ;
#291 = AXIS2_PLACEMENT_3D ( 'NONE', #104, #237, #6 ) ;
#292 = CARTESIAN_POINT ( 'NONE',  ( 0.1376577045000001165, 0.000000000000000000, 0.8661419999999999675 ) ) ;
#293 = CONICAL_SURFACE ( 'NONE', #266, 0.1424804999999990940, 0.7853981633974699283 ) ;
#294 = COLOUR_RGB ( '',0.7921568627450980005, 0.8196078431372548767, 0.9333333333333333481 ) ;
#295 = FACE_OUTER_BOUND ( 'NONE', #53, .T. ) ;
#296 = FACE_OUTER_BOUND ( 'NONE', #71, .T. ) ;
#297 = DIRECTION ( 'NONE',  ( -0.000000000000000000, -0.000000000000000000, -1.000000000000000000 ) ) ;
#298 = AXIS2_PLACEMENT_3D ( 'NONE', #59, #169, #81 ) ;
#299 = DIRECTION ( 'NONE',  ( -1.000000000000000000, 0.000000000000000000, 0.000000000000000000 ) ) ;
ENDSEC;
END-ISO-10303-21;
