ISO-10303-21;
HEADER;
FILE_DESCRIPTION (( 'STEP AP214' ),
    '1' );
FILE_NAME ('49105.STEP',
    '2023-06-30T21:57:25',
    ( '' ),
    ( '' ),
    'SwSTEP 2.0',
    'SolidWorks 2023',
    '' );
FILE_SCHEMA (( 'AUTOMOTIVE_DESIGN' ));
ENDSEC;

DATA;
#1 = UNCERTAINTY_MEASURE_WITH_UNIT (LENGTH_MEASURE( 1.000000000000000082E-05 ), #363, 'distance_accuracy_value', 'NONE');
#2 = CARTESIAN_POINT ( 'NONE',  ( -6.123233995736766036E-17, 2.500000000000000000, 0.000000000000000000 ) ) ;
#3 = DIRECTION ( 'NONE',  ( -1.224646799147352961E-16, 1.000000000000000000, -0.000000000000000000 ) ) ;
#4 =( NAMED_UNIT ( * ) PLANE_ANGLE_UNIT ( ) SI_UNIT ( $, .RADIAN. ) );
#5 = DIRECTION ( 'NONE',  ( 1.000000000000000000, 1.224646799147352961E-16, 0.000000000000000000 ) ) ;
#6 = SURFACE_STYLE_FILL_AREA ( #257 ) ;
#7 = AXIS2_PLACEMENT_3D ( 'NONE', #200, #3, #58 ) ;
#8 = ORIENTED_EDGE ( 'NONE', *, *, #324, .F. ) ;
#9 = AXIS2_PLACEMENT_3D ( 'NONE', #31, #104, #212 ) ;
#10 = EDGE_CURVE ( 'NONE', #291, #270, #181, .T. ) ;
#11 = DIRECTION ( 'NONE',  ( -1.224646799147352961E-16, 1.000000000000000000, -0.000000000000000000 ) ) ;
#12 =( LENGTH_UNIT ( ) NAMED_UNIT ( * ) SI_UNIT ( $, .METRE. ) );
#13 = ORIENTED_EDGE ( 'NONE', *, *, #85, .F. ) ;
#14 = MECHANICAL_DESIGN_GEOMETRIC_PRESENTATION_REPRESENTATION (  '', ( #76 ), #316 ) ;
#15 = MECHANICAL_DESIGN_GEOMETRIC_PRESENTATION_REPRESENTATION (  '', ( #144 ), #350 ) ;
#16 = CARTESIAN_POINT ( 'NONE',  ( 1.530808498934190585E-17, 0.7500000000000001110, 0.1249999999999999029 ) ) ;
#17 = CARTESIAN_POINT ( 'NONE',  ( 0.000000000000000000, 0.000000000000000000, 0.000000000000000000 ) ) ;
#18 = CARTESIAN_POINT ( 'NONE',  ( -1.530808498934191509E-17, 0.1250000000000000000, 0.000000000000000000 ) ) ;
#19 = DIRECTION ( 'NONE',  ( 0.000000000000000000, 0.000000000000000000, 1.000000000000000000 ) ) ;
#20 = APPLICATION_PROTOCOL_DEFINITION ( 'draft international standard', 'automotive_design', 1998, #170 ) ;
#21 = AXIS2_PLACEMENT_3D ( 'NONE', #251, #173, #169 ) ;
#22 = CIRCLE ( 'NONE', #323, 0.1250000000000000000 ) ;
#23 = ADVANCED_FACE ( 'NONE', ( #25 ), #138, .T. ) ;
#24 = ORIENTED_EDGE ( 'NONE', *, *, #242, .T. ) ;
#25 = FACE_OUTER_BOUND ( 'NONE', #103, .T. ) ;
#26 = ORIENTED_EDGE ( 'NONE', *, *, #184, .T. ) ;
#27 = SURFACE_SIDE_STYLE ('',( #249 ) ) ;
#28 = PRESENTATION_STYLE_ASSIGNMENT (( #367 ) ) ;
#29 = DIMENSIONAL_EXPONENTS ( 1.000000000000000000, 0.000000000000000000, 0.000000000000000000, 0.000000000000000000, 0.000000000000000000, 0.000000000000000000, 0.000000000000000000 ) ;
#30 = EDGE_LOOP ( 'NONE', ( #235, #341 ) ) ;
#31 = CARTESIAN_POINT ( 'NONE',  ( -6.123233995736766036E-17, 2.500000000000000000, 0.000000000000000000 ) ) ;
#32 = CARTESIAN_POINT ( 'NONE',  ( -1.530808498934191509E-17, 0.1250000000000000000, 0.000000000000000000 ) ) ;
#33 = LENGTH_MEASURE_WITH_UNIT ( LENGTH_MEASURE( 0.02539999999999999897 ), #290 );
#34 = DIRECTION ( 'NONE',  ( 1.000000000000000000, 0.000000000000000000, 0.000000000000000000 ) ) ;
#35 = FILL_AREA_STYLE_COLOUR ( '', #208 ) ;
#36 = LENGTH_MEASURE_WITH_UNIT ( LENGTH_MEASURE( 0.02539999999999999897 ), #135 );
#37 =( NAMED_UNIT ( * ) PLANE_ANGLE_UNIT ( ) SI_UNIT ( $, .RADIAN. ) );
#38 = CARTESIAN_POINT ( 'NONE',  ( -1.530808498934191509E-17, 0.1250000000000000000, 0.000000000000000000 ) ) ;
#39 = DIRECTION ( 'NONE',  ( -1.224646799147352961E-16, 1.000000000000000000, -0.000000000000000000 ) ) ;
#40 =( NAMED_UNIT ( * ) PLANE_ANGLE_UNIT ( ) SI_UNIT ( $, .RADIAN. ) );
#41 =( NAMED_UNIT ( * ) PLANE_ANGLE_UNIT ( ) SI_UNIT ( $, .RADIAN. ) );
#42 = EDGE_CURVE ( 'NONE', #291, #277, #146, .T. ) ;
#43 = CARTESIAN_POINT ( 'NONE',  ( 0.1249999999999997918, 2.500000000000000000, 1.530808498934189660E-17 ) ) ;
#44 = VECTOR ( 'NONE', #284, 39.37007874015748143 ) ;
#45 = SURFACE_STYLE_USAGE ( .BOTH. , #247 ) ;
#46 = AXIS2_PLACEMENT_3D ( 'NONE', #269, #84, #34 ) ;
#47 =( GEOMETRIC_REPRESENTATION_CONTEXT ( 3 ) GLOBAL_UNCERTAINTY_ASSIGNED_CONTEXT ( ( #1 ) ) GLOBAL_UNIT_ASSIGNED_CONTEXT ( ( #363, #220, #330 ) ) REPRESENTATION_CONTEXT ( 'NONE', 'WORKASPACE' ) );
#48 = ORIENTED_EDGE ( 'NONE', *, *, #355, .F. ) ;
#49 =( LENGTH_UNIT ( ) NAMED_UNIT ( * ) SI_UNIT ( $, .METRE. ) );
#50 = ORIENTED_EDGE ( 'NONE', *, *, #259, .F. ) ;
#51 = PRODUCT_DEFINITION_SHAPE ( 'NONE', 'NONE',  #234 ) ;
#52 = FILL_AREA_STYLE_COLOUR ( '', #205 ) ;
#53 = VECTOR ( 'NONE', #11, 39.37007874015748143 ) ;
#54 = PRESENTATION_LAYER_ASSIGNMENT (  '', '', ( #281 ) ) ;
#55 =( CONVERSION_BASED_UNIT ( 'INCH', #159 ) LENGTH_UNIT ( ) NAMED_UNIT ( #368 ) );
#56 = EDGE_LOOP ( 'NONE', ( #216, #278, #125, #8 ) ) ;
#57 = FILL_AREA_STYLE_COLOUR ( '', #275 ) ;
#58 = DIRECTION ( 'NONE',  ( -1.000000000000000000, 0.000000000000000000, 0.000000000000000000 ) ) ;
#59 =( NAMED_UNIT ( * ) PLANE_ANGLE_UNIT ( ) SI_UNIT ( $, .RADIAN. ) );
#60 = UNCERTAINTY_MEASURE_WITH_UNIT (LENGTH_MEASURE( 1.000000000000000082E-05 ), #345, 'distance_accuracy_value', 'NONE');
#61 = EDGE_CURVE ( 'NONE', #369, #175, #222, .T. ) ;
#62 = DIRECTION ( 'NONE',  ( 1.224646799147352961E-16, -1.000000000000000000, 0.000000000000000000 ) ) ;
#63 = VERTEX_POINT ( 'NONE', #351 ) ;
#64 = DIRECTION ( 'NONE',  ( -1.224646799147352961E-16, 1.000000000000000000, -0.000000000000000000 ) ) ;
#65 =( CONVERSION_BASED_UNIT ( 'INCH', #237 ) LENGTH_UNIT ( ) NAMED_UNIT ( #102 ) );
#66 = FILL_AREA_STYLE_COLOUR ( '', #113 ) ;
#67 = DIRECTION ( 'NONE',  ( -1.000000000000000000, 0.000000000000000000, 0.000000000000000000 ) ) ;
#68 = ORIENTED_EDGE ( 'NONE', *, *, #232, .F. ) ;
#69 = CARTESIAN_POINT ( 'NONE',  ( -0.1249999999999999306, 2.500000000000000000, 0.000000000000000000 ) ) ;
#70 = EDGE_CURVE ( 'NONE', #129, #261, #118, .T. ) ;
#71 = CYLINDRICAL_SURFACE ( 'NONE', #115, 0.1249999999999999445 ) ;
#72 = ORIENTED_EDGE ( 'NONE', *, *, #100, .F. ) ;
#73 = DIRECTION ( 'NONE',  ( -0.000000000000000000, -1.000000000000000000, -0.000000000000000000 ) ) ;
#74 = AXIS2_PLACEMENT_3D ( 'NONE', #349, #195, #160 ) ;
#75 = SURFACE_STYLE_FILL_AREA ( #328 ) ;
#76 = STYLED_ITEM ( 'NONE', ( #294 ), #271 ) ;
#77 = ORIENTED_EDGE ( 'NONE', *, *, #192, .T. ) ;
#78 =( NAMED_UNIT ( * ) PLANE_ANGLE_UNIT ( ) SI_UNIT ( $, .RADIAN. ) );
#79 = SURFACE_SIDE_STYLE ('',( #332 ) ) ;
#80 = FILL_AREA_STYLE ('',( #334 ) ) ;
#81 = EDGE_LOOP ( 'NONE', ( #211, #266 ) ) ;
#82 =( GEOMETRIC_REPRESENTATION_CONTEXT ( 3 ) GLOBAL_UNCERTAINTY_ASSIGNED_CONTEXT ( ( #343 ) ) GLOBAL_UNIT_ASSIGNED_CONTEXT ( ( #158, #40, #88 ) ) REPRESENTATION_CONTEXT ( 'NONE', 'WORKASPACE' ) );
#83 = DIMENSIONAL_EXPONENTS ( 1.000000000000000000, 0.000000000000000000, 0.000000000000000000, 0.000000000000000000, 0.000000000000000000, 0.000000000000000000, 0.000000000000000000 ) ;
#84 = DIRECTION ( 'NONE',  ( 0.000000000000000000, 0.000000000000000000, 1.000000000000000000 ) ) ;
#85 = EDGE_CURVE ( 'NONE', #189, #369, #348, .T. ) ;
#86 = FILL_AREA_STYLE ('',( #66 ) ) ;
#87 = CARTESIAN_POINT ( 'NONE',  ( 0.000000000000000000, 0.000000000000000000, 0.000000000000000000 ) ) ;
#88 =( NAMED_UNIT ( * ) SI_UNIT ( $, .STERADIAN. ) SOLID_ANGLE_UNIT ( ) );
#89 =( CONVERSION_BASED_UNIT ( 'INCH', #33 ) LENGTH_UNIT ( ) NAMED_UNIT ( #282 ) );
#90 = DIRECTION ( 'NONE',  ( -1.224646799147352961E-16, 1.000000000000000000, -0.000000000000000000 ) ) ;
#91 = COLOUR_RGB ( '',1.000000000000000000, 0.000000000000000000, 0.000000000000000000 ) ;
#92 = DIRECTION ( 'NONE',  ( 0.000000000000000000, 0.000000000000000000, -1.000000000000000000 ) ) ;
#93 = CARTESIAN_POINT ( 'NONE',  ( 0.1249999999999999029, 2.500000000000000000, 0.000000000000000000 ) ) ;
#94 = EDGE_CURVE ( 'NONE', #189, #63, #110, .T. ) ;
#95 = CYLINDRICAL_SURFACE ( 'NONE', #137, 0.1249999999999998612 ) ;
#96 = DIRECTION ( 'NONE',  ( -0.000000000000000000, -1.000000000000000000, -0.000000000000000000 ) ) ;
#97 = AXIS2_PLACEMENT_3D ( 'NONE', #318, #64, #297 ) ;
#98 = PRODUCT_DEFINITION_FORMATION_WITH_SPECIFIED_SOURCE ( 'ANY', '', #161, .NOT_KNOWN. ) ;
#99 = AXIS2_PLACEMENT_3D ( 'NONE', #87, #226, #314 ) ;
#100 = EDGE_CURVE ( 'NONE', #175, #63, #331, .T. ) ;
#101 = FILL_AREA_STYLE ('',( #364 ) ) ;
#102 = DIMENSIONAL_EXPONENTS ( 1.000000000000000000, 0.000000000000000000, 0.000000000000000000, 0.000000000000000000, 0.000000000000000000, 0.000000000000000000, 0.000000000000000000 ) ;
#103 = EDGE_LOOP ( 'NONE', ( #301, #168, #225, #213 ) ) ;
#104 = DIRECTION ( 'NONE',  ( -1.224646799147352961E-16, 1.000000000000000000, -0.000000000000000000 ) ) ;
#105 = DIRECTION ( 'NONE',  ( -0.000000000000000000, -1.000000000000000000, -0.000000000000000000 ) ) ;
#106 = MECHANICAL_DESIGN_GEOMETRIC_PRESENTATION_REPRESENTATION (  '', ( #227 ), #289 ) ;
#107 = ORIENTED_EDGE ( 'NONE', *, *, #335, .F. ) ;
#108 = CARTESIAN_POINT ( 'NONE',  ( -0.1249999999999995837, 0.7499999999999998890, 0.000000000000000000 ) ) ;
#109 = CARTESIAN_POINT ( 'NONE',  ( -0.1250000000000000278, 2.500000000000000000, 0.000000000000000000 ) ) ;
#110 = LINE ( 'NONE', #43, #53 ) ;
#111 =( NAMED_UNIT ( * ) SI_UNIT ( $, .STERADIAN. ) SOLID_ANGLE_UNIT ( ) );
#112 = CYLINDRICAL_SURFACE ( 'NONE', #99, 0.1249999999999999445 ) ;
#113 = COLOUR_RGB ( '',1.000000000000000000, 0.000000000000000000, 0.000000000000000000 ) ;
#114 = LINE ( 'NONE', #130, #44 ) ;
#115 = AXIS2_PLACEMENT_3D ( 'NONE', #340, #105, #347 ) ;
#116 = DIRECTION ( 'NONE',  ( 0.000000000000000000, 0.000000000000000000, 1.000000000000000000 ) ) ;
#117 = SHAPE_DEFINITION_REPRESENTATION ( #51, #272 ) ;
#118 = CIRCLE ( 'NONE', #366, 0.1250000000000000000 ) ;
#119 = AXIS2_PLACEMENT_3D ( 'NONE', #217, #319, #92 ) ;
#120 = FACE_OUTER_BOUND ( 'NONE', #30, .T. ) ;
#121 = VERTEX_POINT ( 'NONE', #236 ) ;
#122 = LENGTH_MEASURE_WITH_UNIT ( LENGTH_MEASURE( 0.02539999999999999897 ), #49 );
#123 = MECHANICAL_DESIGN_GEOMETRIC_PRESENTATION_REPRESENTATION (  '', ( #337 ), #82 ) ;
#124 = STYLED_ITEM ( 'NONE', ( #28 ), #329 ) ;
#125 = ORIENTED_EDGE ( 'NONE', *, *, #61, .T. ) ;
#126 = PRESENTATION_STYLE_ASSIGNMENT (( #215 ) ) ;
#127 = SURFACE_STYLE_USAGE ( .BOTH. , #287 ) ;
#128 = FACE_OUTER_BOUND ( 'NONE', #283, .T. ) ;
#129 = VERTEX_POINT ( 'NONE', #228 ) ;
#130 = CARTESIAN_POINT ( 'NONE',  ( 0.000000000000000000, 0.000000000000000000, -0.1249999999999999445 ) ) ;
#131 = DIRECTION ( 'NONE',  ( -1.224646799147352961E-16, 1.000000000000000000, -0.000000000000000000 ) ) ;
#132 = UNCERTAINTY_MEASURE_WITH_UNIT (LENGTH_MEASURE( 1.000000000000000082E-05 ), #157, 'distance_accuracy_value', 'NONE');
#133 = CYLINDRICAL_SURFACE ( 'NONE', #267, 0.1249999999999998612 ) ;
#134 = CARTESIAN_POINT ( 'NONE',  ( 0.000000000000000000, 0.1250000000000000278, 0.000000000000000000 ) ) ;
#135 =( LENGTH_UNIT ( ) NAMED_UNIT ( * ) SI_UNIT ( $, .METRE. ) );
#136 = DIRECTION ( 'NONE',  ( -0.000000000000000000, -1.000000000000000000, -0.000000000000000000 ) ) ;
#137 = AXIS2_PLACEMENT_3D ( 'NONE', #286, #202, #67 ) ;
#138 = SPHERICAL_SURFACE ( 'NONE', #46, 0.1250000000000000000 ) ;
#139 = DIMENSIONAL_EXPONENTS ( 1.000000000000000000, 0.000000000000000000, 0.000000000000000000, 0.000000000000000000, 0.000000000000000000, 0.000000000000000000, 0.000000000000000000 ) ;
#140 = ORIENTED_EDGE ( 'NONE', *, *, #242, .F. ) ;
#141 = ADVANCED_FACE ( 'NONE', ( #312 ), #95, .T. ) ;
#142 = CLOSED_SHELL ( 'NONE', ( #185, #273, #141, #147 ) ) ;
#143 = AXIS2_PLACEMENT_3D ( 'NONE', #18, #19, #243 ) ;
#144 = STYLED_ITEM ( 'NONE', ( #361 ), #293 ) ;
#145 = DIRECTION ( 'NONE',  ( 1.000000000000000000, 0.000000000000000000, 0.000000000000000000 ) ) ;
#146 = CIRCLE ( 'NONE', #21, 0.1249999999999999029 ) ;
#147 = ADVANCED_FACE ( 'NONE', ( #167 ), #295, .F. ) ;
#148 = DIRECTION ( 'NONE',  ( -0.000000000000000000, -1.000000000000000000, -0.000000000000000000 ) ) ;
#149 = SURFACE_STYLE_FILL_AREA ( #80 ) ;
#150 = DIRECTION ( 'NONE',  ( 0.000000000000000000, -0.000000000000000000, 1.000000000000000000 ) ) ;
#151 = COLOUR_RGB ( '',1.000000000000000000, 0.000000000000000000, 0.000000000000000000 ) ;
#152 = PRESENTATION_LAYER_ASSIGNMENT (  '', '', ( #124 ) ) ;
#153 = PRESENTATION_STYLE_ASSIGNMENT (( #183 ) ) ;
#154 = LENGTH_MEASURE_WITH_UNIT ( LENGTH_MEASURE( 0.02539999999999999897 ), #252 );
#155 = CARTESIAN_POINT ( 'NONE',  ( 1.530808498934191817E-17, 0.1250000000000000278, 0.1250000000000000000 ) ) ;
#156 = ORIENTED_EDGE ( 'NONE', *, *, #70, .T. ) ;
#157 =( CONVERSION_BASED_UNIT ( 'INCH', #154 ) LENGTH_UNIT ( ) NAMED_UNIT ( #83 ) );
#158 =( CONVERSION_BASED_UNIT ( 'INCH', #307 ) LENGTH_UNIT ( ) NAMED_UNIT ( #139 ) );
#159 = LENGTH_MEASURE_WITH_UNIT ( LENGTH_MEASURE( 0.02539999999999999897 ), #221 );
#160 = DIRECTION ( 'NONE',  ( 0.000000000000000000, 0.000000000000000000, -1.000000000000000000 ) ) ;
#161 = PRODUCT ( '49105', '49105', '', ( #241 ) ) ;
#162 = CIRCLE ( 'NONE', #359, 0.1249999999999999029 ) ;
#163 =( NAMED_UNIT ( * ) PLANE_ANGLE_UNIT ( ) SI_UNIT ( $, .RADIAN. ) );
#164 = UNCERTAINTY_MEASURE_WITH_UNIT (LENGTH_MEASURE( 1.000000000000000082E-05 ), #89, 'distance_accuracy_value', 'NONE');
#165 = PRODUCT_RELATED_PRODUCT_CATEGORY ( 'part', '', ( #161 ) ) ;
#166 = SURFACE_SIDE_STYLE ('',( #313 ) ) ;
#167 = FACE_OUTER_BOUND ( 'NONE', #81, .T. ) ;
#168 = ORIENTED_EDGE ( 'NONE', *, *, #259, .T. ) ;
#169 = DIRECTION ( 'NONE',  ( 0.000000000000000000, 0.000000000000000000, -1.000000000000000000 ) ) ;
#170 = APPLICATION_CONTEXT ( 'automotive_design' ) ;
#171 =( CONVERSION_BASED_UNIT ( 'INCH', #122 ) LENGTH_UNIT ( ) NAMED_UNIT ( #190 ) );
#172 = ORIENTED_EDGE ( 'NONE', *, *, #61, .F. ) ;
#173 = DIRECTION ( 'NONE',  ( -0.000000000000000000, -1.000000000000000000, -0.000000000000000000 ) ) ;
#174 = AXIS2_PLACEMENT_3D ( 'NONE', #191, #131, #229 ) ;
#175 = VERTEX_POINT ( 'NONE', #109 ) ;
#176 = PRESENTATION_LAYER_ASSIGNMENT (  '', '', ( #227 ) ) ;
#177 =( NAMED_UNIT ( * ) SI_UNIT ( $, .STERADIAN. ) SOLID_ANGLE_UNIT ( ) );
#178 =( NAMED_UNIT ( * ) SI_UNIT ( $, .STERADIAN. ) SOLID_ANGLE_UNIT ( ) );
#179 = ADVANCED_FACE ( 'NONE', ( #128 ), #112, .T. ) ;
#180 = AXIS2_PLACEMENT_3D ( 'NONE', #93, #62, #5 ) ;
#181 = LINE ( 'NONE', #305, #198 ) ;
#182 =( NAMED_UNIT ( * ) SI_UNIT ( $, .STERADIAN. ) SOLID_ANGLE_UNIT ( ) );
#183 = SURFACE_STYLE_USAGE ( .BOTH. , #79 ) ;
#184 = EDGE_CURVE ( 'NONE', #121, #129, #199, .T. ) ;
#185 = ADVANCED_FACE ( 'NONE', ( #254 ), #133, .T. ) ;
#186 = SURFACE_SIDE_STYLE ('',( #149 ) ) ;
#187 = CARTESIAN_POINT ( 'NONE',  ( -0.1250000000000000000, 0.1250000000000000278, 1.530808498934191201E-17 ) ) ;
#188 = STYLED_ITEM ( 'NONE', ( #372 ), #210 ) ;
#189 = VERTEX_POINT ( 'NONE', #346 ) ;
#190 = DIMENSIONAL_EXPONENTS ( 1.000000000000000000, 0.000000000000000000, 0.000000000000000000, 0.000000000000000000, 0.000000000000000000, 0.000000000000000000, 0.000000000000000000 ) ;
#191 = CARTESIAN_POINT ( 'NONE',  ( 1.530808498934191078E-16, 0.7499999999999998890, 0.000000000000000000 ) ) ;
#192 = EDGE_CURVE ( 'NONE', #277, #291, #162, .T. ) ;
#193 = FACE_OUTER_BOUND ( 'NONE', #322, .T. ) ;
#194 = UNCERTAINTY_MEASURE_WITH_UNIT (LENGTH_MEASURE( 1.000000000000000082E-05 ), #55, 'distance_accuracy_value', 'NONE');
#195 = DIRECTION ( 'NONE',  ( -0.000000000000000000, -1.000000000000000000, -0.000000000000000000 ) ) ;
#196 = EDGE_CURVE ( 'NONE', #238, #121, #370, .T. ) ;
#197 = CARTESIAN_POINT ( 'NONE',  ( 0.000000000000000000, 0.7500000000000001110, 0.000000000000000000 ) ) ;
#198 = VECTOR ( 'NONE', #148, 39.37007874015748143 ) ;
#199 = CIRCLE ( 'NONE', #74, 0.1250000000000000000 ) ;
#200 = CARTESIAN_POINT ( 'NONE',  ( 1.530808498934191078E-16, 0.7499999999999998890, 0.000000000000000000 ) ) ;
#201 = DIRECTION ( 'NONE',  ( 1.224646799147353207E-16, -0.000000000000000000, 1.000000000000000000 ) ) ;
#202 = DIRECTION ( 'NONE',  ( -1.224646799147352961E-16, 1.000000000000000000, -0.000000000000000000 ) ) ;
#203 = DIRECTION ( 'NONE',  ( 0.000000000000000000, 0.000000000000000000, -1.000000000000000000 ) ) ;
#204 = EDGE_LOOP ( 'NONE', ( #77, #344, #68, #248, #140 ) ) ;
#205 = COLOUR_RGB ( '',0.7921568627450980005, 0.8196078431372548767, 0.9333333333333333481 ) ;
#206 = SPHERICAL_SURFACE ( 'NONE', #143, 0.1250000000000000000 ) ;
#207 = CARTESIAN_POINT ( 'NONE',  ( 0.000000000000000000, 0.7500000000000001110, -0.1249999999999999029 ) ) ;
#208 = COLOUR_RGB ( '',1.000000000000000000, 0.000000000000000000, 0.000000000000000000 ) ;
#209 = FILL_AREA_STYLE_COLOUR ( '', #151 ) ;
#210 = ADVANCED_FACE ( 'NONE', ( #321 ), #71, .T. ) ;
#211 = ORIENTED_EDGE ( 'NONE', *, *, #100, .T. ) ;
#212 = DIRECTION ( 'NONE',  ( -1.000000000000000000, 0.000000000000000000, 0.000000000000000000 ) ) ;
#213 = ORIENTED_EDGE ( 'NONE', *, *, #232, .T. ) ;
#214 =( LENGTH_UNIT ( ) NAMED_UNIT ( * ) SI_UNIT ( $, .METRE. ) );
#215 = SURFACE_STYLE_USAGE ( .BOTH. , #27 ) ;
#216 = ORIENTED_EDGE ( 'NONE', *, *, #94, .F. ) ;
#217 = CARTESIAN_POINT ( 'NONE',  ( 0.000000000000000000, 0.1250000000000000278, 0.000000000000000000 ) ) ;
#218 = VECTOR ( 'NONE', #90, 39.37007874015748143 ) ;
#219 = AXIS2_PLACEMENT_3D ( 'NONE', #308, #306, #150 ) ;
#220 =( NAMED_UNIT ( * ) PLANE_ANGLE_UNIT ( ) SI_UNIT ( $, .RADIAN. ) );
#221 =( LENGTH_UNIT ( ) NAMED_UNIT ( * ) SI_UNIT ( $, .METRE. ) );
#222 = LINE ( 'NONE', #69, #218 ) ;
#223 = UNCERTAINTY_MEASURE_WITH_UNIT (LENGTH_MEASURE( 1.000000000000000082E-05 ), #65, 'distance_accuracy_value', 'NONE');
#224 = DIRECTION ( 'NONE',  ( -1.000000000000000000, 0.000000000000000000, 0.000000000000000000 ) ) ;
#225 = ORIENTED_EDGE ( 'NONE', *, *, #70, .F. ) ;
#226 = DIRECTION ( 'NONE',  ( -0.000000000000000000, -1.000000000000000000, -0.000000000000000000 ) ) ;
#227 = STYLED_ITEM ( 'NONE', ( #285 ), #179 ) ;
#228 = CARTESIAN_POINT ( 'NONE',  ( 0.1250000000000000000, 0.1250000000000000278, 0.000000000000000000 ) ) ;
#229 = DIRECTION ( 'NONE',  ( -1.000000000000000000, 0.000000000000000000, 0.000000000000000000 ) ) ;
#230 =( GEOMETRIC_REPRESENTATION_CONTEXT ( 3 ) GLOBAL_UNCERTAINTY_ASSIGNED_CONTEXT ( ( #132 ) ) GLOBAL_UNIT_ASSIGNED_CONTEXT ( ( #157, #78, #333 ) ) REPRESENTATION_CONTEXT ( 'NONE', 'WORKASPACE' ) );
#231 = CARTESIAN_POINT ( 'NONE',  ( -7.654042494670957545E-18, 0.000000000000000000, 0.000000000000000000 ) ) ;
#232 = EDGE_CURVE ( 'NONE', #129, #270, #299, .T. ) ;
#233 = DIRECTION ( 'NONE',  ( 0.000000000000000000, 0.000000000000000000, -1.000000000000000000 ) ) ;
#234 = PRODUCT_DEFINITION ( 'UNKNOWN', '', #98, #264 ) ;
#235 = ORIENTED_EDGE ( 'NONE', *, *, #192, .F. ) ;
#236 = CARTESIAN_POINT ( 'NONE',  ( 0.000000000000000000, 0.1250000000000000278, -0.1250000000000000000 ) ) ;
#237 = LENGTH_MEASURE_WITH_UNIT ( LENGTH_MEASURE( 0.02539999999999999897 ), #12 );
#238 = VERTEX_POINT ( 'NONE', #187 ) ;
#239 = AXIS2_PLACEMENT_3D ( 'NONE', #32, #201, #309 ) ;
#240 = CIRCLE ( 'NONE', #174, 0.1249999999999997363 ) ;
#241 = PRODUCT_CONTEXT ( 'NONE', #353, 'mechanical' ) ;
#242 = EDGE_CURVE ( 'NONE', #277, #121, #114, .T. ) ;
#243 = DIRECTION ( 'NONE',  ( 1.000000000000000000, 0.000000000000000000, 0.000000000000000000 ) ) ;
#244 = APPLICATION_PROTOCOL_DEFINITION ( 'draft international standard', 'automotive_design', 1998, #353 ) ;
#245 = DIRECTION ( 'NONE',  ( -1.224646799147352961E-16, 1.000000000000000000, 0.000000000000000000 ) ) ;
#246 =( GEOMETRIC_REPRESENTATION_CONTEXT ( 3 ) GLOBAL_UNCERTAINTY_ASSIGNED_CONTEXT ( ( #194 ) ) GLOBAL_UNIT_ASSIGNED_CONTEXT ( ( #55, #4, #111 ) ) REPRESENTATION_CONTEXT ( 'NONE', 'WORKASPACE' ) );
#247 = SURFACE_SIDE_STYLE ('',( #75 ) ) ;
#248 = ORIENTED_EDGE ( 'NONE', *, *, #184, .F. ) ;
#249 = SURFACE_STYLE_FILL_AREA ( #279 ) ;
#250 = PRESENTATION_LAYER_ASSIGNMENT (  '', '', ( #337 ) ) ;
#251 = CARTESIAN_POINT ( 'NONE',  ( 0.000000000000000000, 0.7500000000000001110, 0.000000000000000000 ) ) ;
#252 =( LENGTH_UNIT ( ) NAMED_UNIT ( * ) SI_UNIT ( $, .METRE. ) );
#253 =( LENGTH_UNIT ( ) NAMED_UNIT ( * ) SI_UNIT ( $, .METRE. ) );
#254 = FACE_OUTER_BOUND ( 'NONE', #354, .T. ) ;
#255 = ORIENTED_EDGE ( 'NONE', *, *, #196, .F. ) ;
#256 = LENGTH_MEASURE_WITH_UNIT ( LENGTH_MEASURE( 0.02539999999999999897 ), #253 );
#257 = FILL_AREA_STYLE ('',( #35 ) ) ;
#258 = AXIS2_PLACEMENT_3D ( 'NONE', #17, #116, #145 ) ;
#259 = EDGE_CURVE ( 'NONE', #238, #261, #339, .T. ) ;
#260 = SURFACE_STYLE_USAGE ( .BOTH. , #166 ) ;
#261 = VERTEX_POINT ( 'NONE', #231 ) ;
#262 = DIRECTION ( 'NONE',  ( 0.000000000000000000, 0.000000000000000000, -1.000000000000000000 ) ) ;
#263 = DIRECTION ( 'NONE',  ( 0.000000000000000000, 0.000000000000000000, -1.000000000000000000 ) ) ;
#264 = PRODUCT_DEFINITION_CONTEXT ( 'detailed design', #170, 'design' ) ;
#265 = SURFACE_STYLE_USAGE ( .BOTH. , #317 ) ;
#266 = ORIENTED_EDGE ( 'NONE', *, *, #324, .T. ) ;
#267 = AXIS2_PLACEMENT_3D ( 'NONE', #2, #39, #224 ) ;
#268 =( GEOMETRIC_REPRESENTATION_CONTEXT ( 3 ) GLOBAL_UNCERTAINTY_ASSIGNED_CONTEXT ( ( #223 ) ) GLOBAL_UNIT_ASSIGNED_CONTEXT ( ( #65, #41, #177 ) ) REPRESENTATION_CONTEXT ( 'NONE', 'WORKASPACE' ) );
#269 = CARTESIAN_POINT ( 'NONE',  ( -1.530808498934191509E-17, 0.1250000000000000000, 0.000000000000000000 ) ) ;
#270 = VERTEX_POINT ( 'NONE', #155 ) ;
#271 = ADVANCED_FACE ( 'NONE', ( #342 ), #206, .T. ) ;
#272 = ADVANCED_BREP_SHAPE_REPRESENTATION ( '49105', ( #329, #327, #258 ), #268 ) ;
#273 = ADVANCED_FACE ( 'NONE', ( #193 ), #358, .F. ) ;
#274 = CARTESIAN_POINT ( 'NONE',  ( 1.530808498934191571E-16, 0.7500000000000001110, 0.000000000000000000 ) ) ;
#275 = COLOUR_RGB ( '',1.000000000000000000, 0.000000000000000000, 0.000000000000000000 ) ;
#276 = COLOUR_RGB ( '',0.7921568627450980005, 0.8196078431372548767, 0.9333333333333333481 ) ;
#277 = VERTEX_POINT ( 'NONE', #207 ) ;
#278 = ORIENTED_EDGE ( 'NONE', *, *, #85, .T. ) ;
#279 = FILL_AREA_STYLE ('',( #52 ) ) ;
#280 = AXIS2_PLACEMENT_3D ( 'NONE', #352, #96, #203 ) ;
#281 = STYLED_ITEM ( 'NONE', ( #126 ), #327 ) ;
#282 = DIMENSIONAL_EXPONENTS ( 1.000000000000000000, 0.000000000000000000, 0.000000000000000000, 0.000000000000000000, 0.000000000000000000, 0.000000000000000000, 0.000000000000000000 ) ;
#283 = EDGE_LOOP ( 'NONE', ( #296, #336, #24, #255, #48 ) ) ;
#284 = DIRECTION ( 'NONE',  ( -0.000000000000000000, -1.000000000000000000, -0.000000000000000000 ) ) ;
#285 = PRESENTATION_STYLE_ASSIGNMENT (( #265 ) ) ;
#286 = CARTESIAN_POINT ( 'NONE',  ( -6.123233995736766036E-17, 2.500000000000000000, 0.000000000000000000 ) ) ;
#287 = SURFACE_SIDE_STYLE ('',( #6 ) ) ;
#288 = UNCERTAINTY_MEASURE_WITH_UNIT (LENGTH_MEASURE( 1.000000000000000082E-05 ), #171, 'distance_accuracy_value', 'NONE');
#289 =( GEOMETRIC_REPRESENTATION_CONTEXT ( 3 ) GLOBAL_UNCERTAINTY_ASSIGNED_CONTEXT ( ( #164 ) ) GLOBAL_UNIT_ASSIGNED_CONTEXT ( ( #89, #37, #373 ) ) REPRESENTATION_CONTEXT ( 'NONE', 'WORKASPACE' ) );
#290 =( LENGTH_UNIT ( ) NAMED_UNIT ( * ) SI_UNIT ( $, .METRE. ) );
#291 = VERTEX_POINT ( 'NONE', #16 ) ;
#292 = SURFACE_STYLE_FILL_AREA ( #311 ) ;
#293 = ADVANCED_FACE ( 'NONE', ( #120 ), #360, .T. ) ;
#294 = PRESENTATION_STYLE_ASSIGNMENT (( #260 ) ) ;
#295 = PLANE ( 'NONE',  #180 ) ;
#296 = ORIENTED_EDGE ( 'NONE', *, *, #10, .F. ) ;
#297 = DIRECTION ( 'NONE',  ( -1.000000000000000000, 0.000000000000000000, 0.000000000000000000 ) ) ;
#298 = CLOSED_SHELL ( 'NONE', ( #23, #210, #293, #179, #271 ) ) ;
#299 = CIRCLE ( 'NONE', #119, 0.1250000000000000000 ) ;
#300 = DIRECTION ( 'NONE',  ( -1.000000000000000000, 0.000000000000000000, 0.000000000000000000 ) ) ;
#301 = ORIENTED_EDGE ( 'NONE', *, *, #355, .T. ) ;
#302 = AXIS2_PLACEMENT_3D ( 'NONE', #274, #245, #320 ) ;
#303 = MECHANICAL_DESIGN_GEOMETRIC_PRESENTATION_REPRESENTATION (  '', ( #124 ), #47 ) ;
#304 = MECHANICAL_DESIGN_GEOMETRIC_PRESENTATION_REPRESENTATION (  '', ( #188 ), #246 ) ;
#305 = CARTESIAN_POINT ( 'NONE',  ( 1.530808498934190893E-17, 0.000000000000000000, 0.1249999999999999445 ) ) ;
#306 = DIRECTION ( 'NONE',  ( 0.000000000000000000, 1.000000000000000000, 0.000000000000000000 ) ) ;
#307 = LENGTH_MEASURE_WITH_UNIT ( LENGTH_MEASURE( 0.02539999999999999897 ), #214 );
#308 = CARTESIAN_POINT ( 'NONE',  ( 0.000000000000000000, 0.7500000000000001110, 0.000000000000000000 ) ) ;
#309 = DIRECTION ( 'NONE',  ( 1.000000000000000000, 0.000000000000000000, -1.224646799147353207E-16 ) ) ;
#310 = ORIENTED_EDGE ( 'NONE', *, *, #335, .T. ) ;
#311 = FILL_AREA_STYLE ('',( #57 ) ) ;
#312 = FACE_OUTER_BOUND ( 'NONE', #56, .T. ) ;
#313 = SURFACE_STYLE_FILL_AREA ( #86 ) ;
#314 = DIRECTION ( 'NONE',  ( 0.000000000000000000, 0.000000000000000000, -1.000000000000000000 ) ) ;
#315 = ORIENTED_EDGE ( 'NONE', *, *, #94, .T. ) ;
#316 =( GEOMETRIC_REPRESENTATION_CONTEXT ( 3 ) GLOBAL_UNCERTAINTY_ASSIGNED_CONTEXT ( ( #60 ) ) GLOBAL_UNIT_ASSIGNED_CONTEXT ( ( #345, #163, #178 ) ) REPRESENTATION_CONTEXT ( 'NONE', 'WORKASPACE' ) );
#317 = SURFACE_SIDE_STYLE ('',( #292 ) ) ;
#318 = CARTESIAN_POINT ( 'NONE',  ( -6.123233995736766036E-17, 2.500000000000000000, 0.000000000000000000 ) ) ;
#319 = DIRECTION ( 'NONE',  ( -0.000000000000000000, -1.000000000000000000, -0.000000000000000000 ) ) ;
#320 = DIRECTION ( 'NONE',  ( -1.000000000000000000, -1.224646799147352961E-16, 0.000000000000000000 ) ) ;
#321 = FACE_OUTER_BOUND ( 'NONE', #204, .T. ) ;
#322 = EDGE_LOOP ( 'NONE', ( #107, #13 ) ) ;
#323 = AXIS2_PLACEMENT_3D ( 'NONE', #134, #73, #263 ) ;
#324 = EDGE_CURVE ( 'NONE', #63, #175, #357, .T. ) ;
#325 = PRESENTATION_LAYER_ASSIGNMENT (  '', '', ( #76 ) ) ;
#326 = MECHANICAL_DESIGN_GEOMETRIC_PRESENTATION_REPRESENTATION (  '', ( #281 ), #230 ) ;
#327 = MANIFOLD_SOLID_BREP ( 'Revolve - Tool Body (Straight Shanked)', #142 ) ;
#328 = FILL_AREA_STYLE ('',( #209 ) ) ;
#329 = MANIFOLD_SOLID_BREP ( 'Revolve - Cutting Edge', #298 ) ;
#330 =( NAMED_UNIT ( * ) SI_UNIT ( $, .STERADIAN. ) SOLID_ANGLE_UNIT ( ) );
#331 = CIRCLE ( 'NONE', #97, 0.1249999999999999584 ) ;
#332 = SURFACE_STYLE_FILL_AREA ( #101 ) ;
#333 =( NAMED_UNIT ( * ) SI_UNIT ( $, .STERADIAN. ) SOLID_ANGLE_UNIT ( ) );
#334 = FILL_AREA_STYLE_COLOUR ( '', #276 ) ;
#335 = EDGE_CURVE ( 'NONE', #369, #189, #240, .T. ) ;
#336 = ORIENTED_EDGE ( 'NONE', *, *, #42, .T. ) ;
#337 = STYLED_ITEM ( 'NONE', ( #153 ), #23 ) ;
#338 = PRESENTATION_LAYER_ASSIGNMENT (  '', '', ( #188 ) ) ;
#339 = CIRCLE ( 'NONE', #239, 0.1250000000000000000 ) ;
#340 = CARTESIAN_POINT ( 'NONE',  ( 0.000000000000000000, 0.000000000000000000, 0.000000000000000000 ) ) ;
#341 = ORIENTED_EDGE ( 'NONE', *, *, #42, .F. ) ;
#342 = FACE_OUTER_BOUND ( 'NONE', #362, .T. ) ;
#343 = UNCERTAINTY_MEASURE_WITH_UNIT (LENGTH_MEASURE( 1.000000000000000082E-05 ), #158, 'distance_accuracy_value', 'NONE');
#344 = ORIENTED_EDGE ( 'NONE', *, *, #10, .T. ) ;
#345 =( CONVERSION_BASED_UNIT ( 'INCH', #36 ) LENGTH_UNIT ( ) NAMED_UNIT ( #29 ) );
#346 = CARTESIAN_POINT ( 'NONE',  ( 0.1249999999999999029, 0.7499999999999998890, 1.530808498934190585E-17 ) ) ;
#347 = DIRECTION ( 'NONE',  ( 0.000000000000000000, 0.000000000000000000, -1.000000000000000000 ) ) ;
#348 = CIRCLE ( 'NONE', #7, 0.1249999999999997363 ) ;
#349 = CARTESIAN_POINT ( 'NONE',  ( 0.000000000000000000, 0.1250000000000000278, 0.000000000000000000 ) ) ;
#350 =( GEOMETRIC_REPRESENTATION_CONTEXT ( 3 ) GLOBAL_UNCERTAINTY_ASSIGNED_CONTEXT ( ( #288 ) ) GLOBAL_UNIT_ASSIGNED_CONTEXT ( ( #171, #59, #182 ) ) REPRESENTATION_CONTEXT ( 'NONE', 'WORKASPACE' ) );
#351 = CARTESIAN_POINT ( 'NONE',  ( 0.1249999999999999029, 2.500000000000000000, 1.530808498934190585E-17 ) ) ;
#352 = CARTESIAN_POINT ( 'NONE',  ( 0.000000000000000000, 0.1250000000000000278, 0.000000000000000000 ) ) ;
#353 = APPLICATION_CONTEXT ( 'automotive_design' ) ;
#354 = EDGE_LOOP ( 'NONE', ( #310, #315, #72, #172 ) ) ;
#355 = EDGE_CURVE ( 'NONE', #270, #238, #22, .T. ) ;
#356 = ORIENTED_EDGE ( 'NONE', *, *, #196, .T. ) ;
#357 = CIRCLE ( 'NONE', #9, 0.1249999999999999584 ) ;
#358 = PLANE ( 'NONE',  #302 ) ;
#359 = AXIS2_PLACEMENT_3D ( 'NONE', #197, #136, #233 ) ;
#360 = PLANE ( 'NONE',  #219 ) ;
#361 = PRESENTATION_STYLE_ASSIGNMENT (( #45 ) ) ;
#362 = EDGE_LOOP ( 'NONE', ( #50, #356, #26, #156 ) ) ;
#363 =( CONVERSION_BASED_UNIT ( 'INCH', #256 ) LENGTH_UNIT ( ) NAMED_UNIT ( #365 ) );
#364 = FILL_AREA_STYLE_COLOUR ( '', #91 ) ;
#365 = DIMENSIONAL_EXPONENTS ( 1.000000000000000000, 0.000000000000000000, 0.000000000000000000, 0.000000000000000000, 0.000000000000000000, 0.000000000000000000, 0.000000000000000000 ) ;
#366 = AXIS2_PLACEMENT_3D ( 'NONE', #38, #262, #300 ) ;
#367 = SURFACE_STYLE_USAGE ( .BOTH. , #186 ) ;
#368 = DIMENSIONAL_EXPONENTS ( 1.000000000000000000, 0.000000000000000000, 0.000000000000000000, 0.000000000000000000, 0.000000000000000000, 0.000000000000000000, 0.000000000000000000 ) ;
#369 = VERTEX_POINT ( 'NONE', #108 ) ;
#370 = CIRCLE ( 'NONE', #280, 0.1250000000000000000 ) ;
#371 = PRESENTATION_LAYER_ASSIGNMENT (  '', '', ( #144 ) ) ;
#372 = PRESENTATION_STYLE_ASSIGNMENT (( #127 ) ) ;
#373 =( NAMED_UNIT ( * ) SI_UNIT ( $, .STERADIAN. ) SOLID_ANGLE_UNIT ( ) );
ENDSEC;
END-ISO-10303-21;
