ISO-10303-21;
HEADER;
FILE_DESCRIPTION (( 'STEP AP214' ),
    '1' );
FILE_NAME ('Micro_SME-050-2.STEP',
    '2021-09-02T12:04:46',
    ( '' ),
    ( '' ),
    'SwSTEP 2.0',
    'SolidWorks 2020',
    '' );
FILE_SCHEMA (( 'AUTOMOTIVE_DESIGN' ));
ENDSEC;

DATA;
#1 = CARTESIAN_POINT ( 'NONE',  ( 0.02497500000000001455, 0.0000000000000000000, 0.07499999999999999722 ) ) ;
#2 =( NAMED_UNIT ( * ) SI_UNIT ( $, .STERADIAN. ) SOLID_ANGLE_UNIT ( ) );
#3 = CARTESIAN_POINT ( 'NONE',  ( 0.0000000000000000000, 0.0000000000000000000, 0.0000000000000000000 ) ) ;
#4 = ADVANCED_FACE ( 'NONE', ( #138 ), #45, .T. ) ;
#5 = CARTESIAN_POINT ( 'NONE',  ( -0.02497500000000000067, 0.0000000000000000000, 6.117110761741031440E-18 ) ) ;
#6 = CARTESIAN_POINT ( 'NONE',  ( 0.0000000000000000000, 0.0000000000000000000, 1.500000000000000222 ) ) ;
#7 = AXIS2_PLACEMENT_3D ( 'NONE', #98, #190, #280 ) ;
#8 = CARTESIAN_POINT ( 'NONE',  ( 0.0000000000000000000, 0.0000000000000000000, 1.485000000000000764 ) ) ;
#9 = AXIS2_PLACEMENT_3D ( 'NONE', #277, #113, #281 ) ;
#10 = CIRCLE ( 'NONE', #156, 0.06250000000000002776 ) ;
#11 = ORIENTED_EDGE ( 'NONE', *, *, #104, .F. ) ;
#12 = ORIENTED_EDGE ( 'NONE', *, *, #77, .F. ) ;
#13 = ORIENTED_EDGE ( 'NONE', *, *, #274, .F. ) ;
#14 = CONICAL_SURFACE ( 'NONE', #160, 0.02497500000000000414, 0.1745329251994339192 ) ;
#15 = ORIENTED_EDGE ( 'NONE', *, *, #286, .F. ) ;
#16 = FACE_OUTER_BOUND ( 'NONE', #130, .T. ) ;
#17 = EDGE_LOOP ( 'NONE', ( #124, #32, #11, #285 ) ) ;
#18 = EDGE_CURVE ( 'NONE', #248, #193, #226, .T. ) ;
#19 = DIRECTION ( 'NONE',  ( -1.224646799147353700E-16, -0.0000000000000000000, -1.000000000000000000 ) ) ;
#20 = FACE_OUTER_BOUND ( 'NONE', #82, .T. ) ;
#21 = CARTESIAN_POINT ( 'NONE',  ( 9.184850993605151827E-18, 0.0000000000000000000, 0.07499999999999999722 ) ) ;
#22 = VECTOR ( 'NONE', #19, 39.37007874015748143 ) ;
#23 = EDGE_CURVE ( 'NONE', #126, #178, #250, .T. ) ;
#24 = DIMENSIONAL_EXPONENTS ( 1.000000000000000000, 0.0000000000000000000, 0.0000000000000000000, 0.0000000000000000000, 0.0000000000000000000, 0.0000000000000000000, 0.0000000000000000000 ) ;
#25 = DIRECTION ( 'NONE',  ( -1.000000000000000000, 0.0000000000000000000, 1.224646799147353700E-16 ) ) ;
#26 = PRESENTATION_STYLE_ASSIGNMENT (( #68 ) ) ;
#27 = SURFACE_SIDE_STYLE ('',( #76 ) ) ;
#28 = CARTESIAN_POINT ( 'NONE',  ( -0.06250000000000002776, 0.0000000000000000000, 1.485000000000000764 ) ) ;
#29 = AXIS2_PLACEMENT_3D ( 'NONE', #97, #276, #86 ) ;
#30 = DIRECTION ( 'NONE',  ( 1.000000000000000000, 0.0000000000000000000, 0.0000000000000000000 ) ) ;
#31 = DIRECTION ( 'NONE',  ( -1.224646799147353700E-16, -0.0000000000000000000, -1.000000000000000000 ) ) ;
#32 = ORIENTED_EDGE ( 'NONE', *, *, #173, .T. ) ;
#33 = EDGE_CURVE ( 'NONE', #178, #79, #151, .T. ) ;
#34 = VECTOR ( 'NONE', #169, 39.37007874015748143 ) ;
#35 = AXIS2_PLACEMENT_3D ( 'NONE', #21, #254, #251 ) ;
#36 = DIRECTION ( 'NONE',  ( 0.0000000000000000000, 0.0000000000000000000, -1.000000000000000000 ) ) ;
#37 = ORIENTED_EDGE ( 'NONE', *, *, #258, .F. ) ;
#38 = VERTEX_POINT ( 'NONE', #5 ) ;
#39 = ORIENTED_EDGE ( 'NONE', *, *, #274, .T. ) ;
#40 = SURFACE_STYLE_FILL_AREA ( #120 ) ;
#41 = COLOUR_RGB ( '',0.7921568627450980005, 0.8196078431372548767, 0.9333333333333333481 ) ;
#42 = ORIENTED_EDGE ( 'NONE', *, *, #171, .T. ) ;
#43 = DIRECTION ( 'NONE',  ( 0.1736481776669314137, 0.0000000000000000000, 0.9848077530122077983 ) ) ;
#44 = CYLINDRICAL_SURFACE ( 'NONE', #284, 0.02497500000000000067 ) ;
#45 = PLANE ( 'NONE',  #205 ) ;
#46 = ADVANCED_FACE ( 'NONE', ( #20 ), #143, .T. ) ;
#47 = CIRCLE ( 'NONE', #213, 0.06250000000000002776 ) ;
#48 = CARTESIAN_POINT ( 'NONE',  ( -0.02497499999999999720, 3.058555380870515335E-18, 0.07499999999999999722 ) ) ;
#49 = CARTESIAN_POINT ( 'NONE',  ( 0.0000000000000000000, 0.0000000000000000000, 0.0000000000000000000 ) ) ;
#50 = CARTESIAN_POINT ( 'NONE',  ( 0.0000000000000000000, 0.0000000000000000000, 1.500000000000000222 ) ) ;
#51 = DIMENSIONAL_EXPONENTS ( 1.000000000000000000, 0.0000000000000000000, 0.0000000000000000000, 0.0000000000000000000, 0.0000000000000000000, 0.0000000000000000000, 0.0000000000000000000 ) ;
#52 = CIRCLE ( 'NONE', #140, 0.02497500000000000067 ) ;
#53 = VECTOR ( 'NONE', #65, 39.37007874015748854 ) ;
#54 = DIRECTION ( 'NONE',  ( -1.000000000000000000, 0.0000000000000000000, 1.224646799147353700E-16 ) ) ;
#55 = STYLED_ITEM ( 'NONE', ( #200 ), #115 ) ;
#56 = CARTESIAN_POINT ( 'NONE',  ( 0.02497500000000001455, 0.0000000000000000000, 0.07499999999999999722 ) ) ;
#57 = CYLINDRICAL_SURFACE ( 'NONE', #237, 0.06250000000000002776 ) ;
#58 = ADVANCED_FACE ( 'NONE', ( #186 ), #262, .T. ) ;
#59 = PRESENTATION_LAYER_ASSIGNMENT (  '', '', ( #291 ) ) ;
#60 = DIRECTION ( 'NONE',  ( -0.7071067811865462405, 0.0000000000000000000, -0.7071067811865486830 ) ) ;
#61 = VERTEX_POINT ( 'NONE', #271 ) ;
#62 = ORIENTED_EDGE ( 'NONE', *, *, #77, .T. ) ;
#63 = PRODUCT_DEFINITION ( 'UNKNOWN', '', #222, #157 ) ;
#64 = LINE ( 'NONE', #48, #257 ) ;
#65 = DIRECTION ( 'NONE',  ( 0.7071067811865462405, 8.659560562354916834E-17, -0.7071067811865486830 ) ) ;
#66 = CARTESIAN_POINT ( 'NONE',  ( 3.524715351438894183E-17, 0.0000000000000000000, 0.2878148502811534448 ) ) ;
#67 = CARTESIAN_POINT ( 'NONE',  ( 3.745650057197992530E-34, 0.0000000000000000000, 3.058555380870515720E-18 ) ) ;
#68 = SURFACE_STYLE_USAGE ( .BOTH. , #27 ) ;
#69 = DIRECTION ( 'NONE',  ( 0.0000000000000000000, 0.0000000000000000000, -1.000000000000000000 ) ) ;
#70 = AXIS2_PLACEMENT_3D ( 'NONE', #150, #31, #123 ) ;
#71 = LINE ( 'NONE', #74, #34 ) ;
#72 =( CONVERSION_BASED_UNIT ( 'INCH', #249 ) LENGTH_UNIT ( ) NAMED_UNIT ( #24 ) );
#73 = CARTESIAN_POINT ( 'NONE',  ( -0.04750000000000064587, 0.0000000000000000000, 1.500000000000000222 ) ) ;
#74 = CARTESIAN_POINT ( 'NONE',  ( 0.06250000000000002776, 7.654042494670959086E-18, 1.500000000000000222 ) ) ;
#75 = FILL_AREA_STYLE_COLOUR ( '', #252 ) ;
#76 = SURFACE_STYLE_FILL_AREA ( #297 ) ;
#77 = EDGE_CURVE ( 'NONE', #217, #79, #64, .T. ) ;
#78 = CARTESIAN_POINT ( 'NONE',  ( 0.06250000000000005551, 7.654042494670963708E-18, 0.2878148502811534448 ) ) ;
#79 = VERTEX_POINT ( 'NONE', #91 ) ;
#80 = CARTESIAN_POINT ( 'NONE',  ( -0.02497499999999999720, 5.356298937770737018E-18, 0.07499999999999999722 ) ) ;
#81 = EDGE_LOOP ( 'NONE', ( #243, #89, #107, #87 ) ) ;
#82 = EDGE_LOOP ( 'NONE', ( #174, #181, #264, #15 ) ) ;
#83 = ADVANCED_FACE ( 'NONE', ( #187 ), #236, .T. ) ;
#84 = SURFACE_SIDE_STYLE ('',( #40 ) ) ;
#85 = ORIENTED_EDGE ( 'NONE', *, *, #234, .F. ) ;
#86 = DIRECTION ( 'NONE',  ( 1.000000000000000000, 0.0000000000000000000, 0.0000000000000000000 ) ) ;
#87 = ORIENTED_EDGE ( 'NONE', *, *, #133, .F. ) ;
#88 = ADVANCED_FACE ( 'NONE', ( #170 ), #14, .T. ) ;
#89 = ORIENTED_EDGE ( 'NONE', *, *, #234, .T. ) ;
#90 = CARTESIAN_POINT ( 'NONE',  ( 0.0000000000000000000, 0.0000000000000000000, 1.500000000000000222 ) ) ;
#91 = CARTESIAN_POINT ( 'NONE',  ( -0.06249999999999999306, 0.0000000000000000000, 0.2878148502811534448 ) ) ;
#92 =( NAMED_UNIT ( * ) PLANE_ANGLE_UNIT ( ) SI_UNIT ( $, .RADIAN. ) );
#93 = VECTOR ( 'NONE', #211, 39.37007874015748143 ) ;
#94 = AXIS2_PLACEMENT_3D ( 'NONE', #3, #165, #117 ) ;
#95 = LENGTH_MEASURE_WITH_UNIT ( LENGTH_MEASURE( 0.02539999999999999897 ), #235 );
#96 = APPLICATION_PROTOCOL_DEFINITION ( 'draft international standard', 'automotive_design', 1998, #102 ) ;
#97 = CARTESIAN_POINT ( 'NONE',  ( 0.0000000000000000000, 0.0000000000000000000, 0.0000000000000000000 ) ) ;
#98 = CARTESIAN_POINT ( 'NONE',  ( 9.184850993605151827E-18, 0.0000000000000000000, 0.07499999999999999722 ) ) ;
#99 = CIRCLE ( 'NONE', #122, 0.06250000000000002776 ) ;
#100 = ADVANCED_BREP_SHAPE_REPRESENTATION ( 'Micro_SME-050-2', ( #115, #29 ), #166 ) ;
#101 = CARTESIAN_POINT ( 'NONE',  ( 9.184850993605151827E-18, 0.0000000000000000000, 0.07499999999999999722 ) ) ;
#102 = APPLICATION_CONTEXT ( 'automotive_design' ) ;
#103 = EDGE_LOOP ( 'NONE', ( #13, #195, #223, #125 ) ) ;
#104 = EDGE_CURVE ( 'NONE', #79, #193, #47, .T. ) ;
#105 = ORIENTED_EDGE ( 'NONE', *, *, #18, .T. ) ;
#106 = AXIS2_PLACEMENT_3D ( 'NONE', #90, #139, #275 ) ;
#107 = ORIENTED_EDGE ( 'NONE', *, *, #286, .T. ) ;
#108 = ORIENTED_EDGE ( 'NONE', *, *, #185, .T. ) ;
#109 =( NAMED_UNIT ( * ) SI_UNIT ( $, .STERADIAN. ) SOLID_ANGLE_UNIT ( ) );
#110 = DIRECTION ( 'NONE',  ( -1.224646799147353700E-16, -0.0000000000000000000, -1.000000000000000000 ) ) ;
#111 = DIRECTION ( 'NONE',  ( -1.224646799147353700E-16, -0.0000000000000000000, -1.000000000000000000 ) ) ;
#112 = CARTESIAN_POINT ( 'NONE',  ( 0.04750000000000064587, 6.735557395310483192E-18, 1.500000000000000222 ) ) ;
#113 = DIRECTION ( 'NONE',  ( -1.224646799147353700E-16, -0.0000000000000000000, -1.000000000000000000 ) ) ;
#114 = CIRCLE ( 'NONE', #192, 0.06250000000000002776 ) ;
#115 = MANIFOLD_SOLID_BREP ( 'Cut-Revolve1', #216 ) ;
#116 = CARTESIAN_POINT ( 'NONE',  ( -0.06250000000000002776, 0.0000000000000000000, 1.500000000000000222 ) ) ;
#117 = DIRECTION ( 'NONE',  ( 1.000000000000000000, 0.0000000000000000000, -0.0000000000000000000 ) ) ;
#118 = ORIENTED_EDGE ( 'NONE', *, *, #133, .T. ) ;
#119 = EDGE_CURVE ( 'NONE', #248, #61, #219, .T. ) ;
#120 = FILL_AREA_STYLE ('',( #75 ) ) ;
#121 = DIRECTION ( 'NONE',  ( 0.0000000000000000000, 0.0000000000000000000, -1.000000000000000000 ) ) ;
#122 = AXIS2_PLACEMENT_3D ( 'NONE', #8, #36, #147 ) ;
#123 = DIRECTION ( 'NONE',  ( -1.000000000000000000, 0.0000000000000000000, 0.0000000000000000000 ) ) ;
#124 = ORIENTED_EDGE ( 'NONE', *, *, #180, .T. ) ;
#125 = ORIENTED_EDGE ( 'NONE', *, *, #23, .F. ) ;
#126 = VERTEX_POINT ( 'NONE', #188 ) ;
#127 = VERTEX_POINT ( 'NONE', #233 ) ;
#128 = CIRCLE ( 'NONE', #9, 0.02497500000000000067 ) ;
#129 = PRODUCT_RELATED_PRODUCT_CATEGORY ( 'part', '', ( #203 ) ) ;
#130 = EDGE_LOOP ( 'NONE', ( #267, #118 ) ) ;
#131 = CIRCLE ( 'NONE', #106, 0.04750000000000064587 ) ;
#132 =( CONVERSION_BASED_UNIT ( 'INCH', #163 ) LENGTH_UNIT ( ) NAMED_UNIT ( #239 ) );
#133 = EDGE_CURVE ( 'NONE', #61, #38, #128, .T. ) ;
#134 = CARTESIAN_POINT ( 'NONE',  ( 0.04750000000000064587, 5.817072295950006528E-18, 1.500000000000000222 ) ) ;
#135 = EDGE_LOOP ( 'NONE', ( #42, #39 ) ) ;
#136 = DIRECTION ( 'NONE',  ( -1.000000000000000000, 0.0000000000000000000, 1.224646799147353700E-16 ) ) ;
#137 =( NAMED_UNIT ( * ) PLANE_ANGLE_UNIT ( ) SI_UNIT ( $, .RADIAN. ) );
#138 = FACE_OUTER_BOUND ( 'NONE', #135, .T. ) ;
#139 = DIRECTION ( 'NONE',  ( 0.0000000000000000000, 0.0000000000000000000, 1.000000000000000000 ) ) ;
#140 = AXIS2_PLACEMENT_3D ( 'NONE', #67, #255, #54 ) ;
#141 = ADVANCED_FACE ( 'NONE', ( #238 ), #210, .T. ) ;
#142 = CARTESIAN_POINT ( 'NONE',  ( 0.0000000000000000000, 0.0000000000000000000, 1.500000000000000222 ) ) ;
#143 = CYLINDRICAL_SURFACE ( 'NONE', #148, 0.02497500000000000067 ) ;
#144 = CARTESIAN_POINT ( 'NONE',  ( 0.0000000000000000000, 0.0000000000000000000, 1.485000000000000764 ) ) ;
#145 = CYLINDRICAL_SURFACE ( 'NONE', #183, 0.06250000000000002776 ) ;
#146 = ADVANCED_FACE ( 'NONE', ( #256 ), #145, .T. ) ;
#147 = DIRECTION ( 'NONE',  ( 1.000000000000000000, 0.0000000000000000000, 0.0000000000000000000 ) ) ;
#148 = AXIS2_PLACEMENT_3D ( 'NONE', #227, #111, #25 ) ;
#149 = CARTESIAN_POINT ( 'NONE',  ( 3.524715351438894183E-17, 0.0000000000000000000, 0.2878148502811534448 ) ) ;
#150 = CARTESIAN_POINT ( 'NONE',  ( 9.184850993605151827E-18, 0.0000000000000000000, 0.07499999999999999722 ) ) ;
#151 = LINE ( 'NONE', #116, #93 ) ;
#152 = ORIENTED_EDGE ( 'NONE', *, *, #171, .F. ) ;
#153 = DIRECTION ( 'NONE',  ( -0.0000000000000000000, -0.0000000000000000000, -1.000000000000000000 ) ) ;
#154 = ORIENTED_EDGE ( 'NONE', *, *, #18, .F. ) ;
#155 = VECTOR ( 'NONE', #60, 39.37007874015748854 ) ;
#156 = AXIS2_PLACEMENT_3D ( 'NONE', #144, #121, #214 ) ;
#157 = PRODUCT_DEFINITION_CONTEXT ( 'detailed design', #269, 'design' ) ;
#158 = CARTESIAN_POINT ( 'NONE',  ( 0.0000000000000000000, 0.0000000000000000000, 1.500000000000000222 ) ) ;
#159 = EDGE_CURVE ( 'NONE', #38, #61, #52, .T. ) ;
#160 = AXIS2_PLACEMENT_3D ( 'NONE', #101, #220, #30 ) ;
#161 = MECHANICAL_DESIGN_GEOMETRIC_PRESENTATION_REPRESENTATION (  '', ( #291 ), #242 ) ;
#162 = DIRECTION ( 'NONE',  ( -1.224646799147353700E-16, -0.0000000000000000000, -1.000000000000000000 ) ) ;
#163 = LENGTH_MEASURE_WITH_UNIT ( LENGTH_MEASURE( 0.02539999999999999897 ), #228 );
#164 = DIRECTION ( 'NONE',  ( 1.000000000000000000, 0.0000000000000000000, 0.0000000000000000000 ) ) ;
#165 = DIRECTION ( 'NONE',  ( 0.0000000000000000000, 0.0000000000000000000, 1.000000000000000000 ) ) ;
#166 =( GEOMETRIC_REPRESENTATION_CONTEXT ( 3 ) GLOBAL_UNCERTAINTY_ASSIGNED_CONTEXT ( ( #224 ) ) GLOBAL_UNIT_ASSIGNED_CONTEXT ( ( #132, #92, #2 ) ) REPRESENTATION_CONTEXT ( 'NONE', 'WORKASPACE' ) );
#167 = DIRECTION ( 'NONE',  ( -1.000000000000000000, 0.0000000000000000000, 0.0000000000000000000 ) ) ;
#168 = CIRCLE ( 'NONE', #35, 0.02497500000000000414 ) ;
#169 = DIRECTION ( 'NONE',  ( -0.0000000000000000000, -0.0000000000000000000, -1.000000000000000000 ) ) ;
#170 = FACE_OUTER_BOUND ( 'NONE', #177, .T. ) ;
#171 = EDGE_CURVE ( 'NONE', #126, #294, #253, .T. ) ;
#172 =( GEOMETRIC_REPRESENTATION_CONTEXT ( 3 ) GLOBAL_UNCERTAINTY_ASSIGNED_CONTEXT ( ( #273 ) ) GLOBAL_UNIT_ASSIGNED_CONTEXT ( ( #72, #287, #197 ) ) REPRESENTATION_CONTEXT ( 'NONE', 'WORKASPACE' ) );
#173 = EDGE_CURVE ( 'NONE', #127, #193, #71, .T. ) ;
#174 = ORIENTED_EDGE ( 'NONE', *, *, #221, .T. ) ;
#175 = AXIS2_PLACEMENT_3D ( 'NONE', #204, #282, #292 ) ;
#176 = EDGE_LOOP ( 'NONE', ( #37, #152, #240, #245 ) ) ;
#177 = EDGE_LOOP ( 'NONE', ( #265, #62, #212, #154 ) ) ;
#178 = VERTEX_POINT ( 'NONE', #28 ) ;
#179 =( LENGTH_UNIT ( ) NAMED_UNIT ( * ) SI_UNIT ( $, .METRE. ) );
#180 = EDGE_CURVE ( 'NONE', #178, #127, #10, .T. ) ;
#181 = ORIENTED_EDGE ( 'NONE', *, *, #119, .T. ) ;
#182 =( CONVERSION_BASED_UNIT ( 'INCH', #95 ) LENGTH_UNIT ( ) NAMED_UNIT ( #51 ) );
#183 = AXIS2_PLACEMENT_3D ( 'NONE', #50, #283, #209 ) ;
#184 = VECTOR ( 'NONE', #110, 39.37007874015748143 ) ;
#185 = EDGE_CURVE ( 'NONE', #127, #178, #99, .T. ) ;
#186 = FACE_OUTER_BOUND ( 'NONE', #196, .T. ) ;
#187 = FACE_OUTER_BOUND ( 'NONE', #103, .T. ) ;
#188 = CARTESIAN_POINT ( 'NONE',  ( -0.04750000000000064587, 0.0000000000000000000, 1.500000000000000222 ) ) ;
#189 = PRODUCT_CONTEXT ( 'NONE', #102, 'mechanical' ) ;
#190 = DIRECTION ( 'NONE',  ( 1.224646799147353700E-16, 0.0000000000000000000, 1.000000000000000000 ) ) ;
#191 = DIRECTION ( 'NONE',  ( 0.0000000000000000000, 0.0000000000000000000, 1.000000000000000000 ) ) ;
#192 = AXIS2_PLACEMENT_3D ( 'NONE', #66, #298, #272 ) ;
#193 = VERTEX_POINT ( 'NONE', #78 ) ;
#194 = DIRECTION ( 'NONE',  ( -1.000000000000000000, 0.0000000000000000000, 0.0000000000000000000 ) ) ;
#195 = ORIENTED_EDGE ( 'NONE', *, *, #258, .T. ) ;
#196 = EDGE_LOOP ( 'NONE', ( #12, #85, #105, #288 ) ) ;
#197 =( NAMED_UNIT ( * ) SI_UNIT ( $, .STERADIAN. ) SOLID_ANGLE_UNIT ( ) );
#198 = PRESENTATION_LAYER_ASSIGNMENT (  '', '', ( #55 ) ) ;
#199 = EDGE_LOOP ( 'NONE', ( #268, #108, #241, #261 ) ) ;
#200 = PRESENTATION_STYLE_ASSIGNMENT (( #263 ) ) ;
#201 = PLANE ( 'NONE',  #94 ) ;
#202 = UNCERTAINTY_MEASURE_WITH_UNIT (LENGTH_MEASURE( 1.000000000000000082E-05 ), #182, 'distance_accuracy_value', 'NONE');
#203 = PRODUCT ( 'Micro_SME-050-2', 'Micro_SME-050-2', '', ( #189 ) ) ;
#204 = CARTESIAN_POINT ( 'NONE',  ( 0.0000000000000000000, 0.0000000000000000000, 1.500000000000000222 ) ) ;
#205 = AXIS2_PLACEMENT_3D ( 'NONE', #158, #260, #244 ) ;
#206 = FILL_AREA_STYLE_COLOUR ( '', #41 ) ;
#207 = DIRECTION ( 'NONE',  ( -0.1736481776669312194, 2.126576849575783625E-17, 0.9848077530122080203 ) ) ;
#208 = LINE ( 'NONE', #134, #53 ) ;
#209 = DIRECTION ( 'NONE',  ( -1.000000000000000000, 0.0000000000000000000, 0.0000000000000000000 ) ) ;
#210 = CONICAL_SURFACE ( 'NONE', #247, 0.04750000000000064587, 0.7853981633974466137 ) ;
#211 = DIRECTION ( 'NONE',  ( -0.0000000000000000000, -0.0000000000000000000, -1.000000000000000000 ) ) ;
#212 = ORIENTED_EDGE ( 'NONE', *, *, #104, .T. ) ;
#213 = AXIS2_PLACEMENT_3D ( 'NONE', #149, #293, #290 ) ;
#214 = DIRECTION ( 'NONE',  ( 1.000000000000000000, 0.0000000000000000000, 0.0000000000000000000 ) ) ;
#215 = ADVANCED_FACE ( 'NONE', ( #259 ), #57, .T. ) ;
#216 = CLOSED_SHELL ( 'NONE', ( #46, #88, #83, #215, #146, #4, #141, #58, #299, #229 ) ) ;
#217 = VERTEX_POINT ( 'NONE', #80 ) ;
#218 = CARTESIAN_POINT ( 'NONE',  ( 0.0000000000000000000, 0.0000000000000000000, 1.500000000000000222 ) ) ;
#219 = LINE ( 'NONE', #246, #22 ) ;
#220 = DIRECTION ( 'NONE',  ( 1.224646799147353700E-16, 0.0000000000000000000, 1.000000000000000000 ) ) ;
#221 = EDGE_CURVE ( 'NONE', #217, #248, #296, .T. ) ;
#222 = PRODUCT_DEFINITION_FORMATION_WITH_SPECIFIED_SOURCE ( 'ANY', '', #203, .NOT_KNOWN. ) ;
#223 = ORIENTED_EDGE ( 'NONE', *, *, #180, .F. ) ;
#224 = UNCERTAINTY_MEASURE_WITH_UNIT (LENGTH_MEASURE( 1.000000000000000082E-05 ), #132, 'distance_accuracy_value', 'NONE');
#225 = VECTOR ( 'NONE', #43, 39.37007874015748143 ) ;
#226 = LINE ( 'NONE', #56, #225 ) ;
#227 = CARTESIAN_POINT ( 'NONE',  ( 0.0000000000000000000, 0.0000000000000000000, 0.0000000000000000000 ) ) ;
#228 =( LENGTH_UNIT ( ) NAMED_UNIT ( * ) SI_UNIT ( $, .METRE. ) );
#229 = ADVANCED_FACE ( 'NONE', ( #16 ), #201, .F. ) ;
#230 = SHAPE_DEFINITION_REPRESENTATION ( #289, #100 ) ;
#231 = MECHANICAL_DESIGN_GEOMETRIC_PRESENTATION_REPRESENTATION (  '', ( #55 ), #172 ) ;
#232 = FACE_OUTER_BOUND ( 'NONE', #81, .T. ) ;
#233 = CARTESIAN_POINT ( 'NONE',  ( 0.06250000000000002776, 7.654042494670959086E-18, 1.485000000000000764 ) ) ;
#234 = EDGE_CURVE ( 'NONE', #248, #217, #168, .T. ) ;
#235 =( LENGTH_UNIT ( ) NAMED_UNIT ( * ) SI_UNIT ( $, .METRE. ) );
#236 = CONICAL_SURFACE ( 'NONE', #175, 0.04750000000000064587, 0.7853981633974466137 ) ;
#237 = AXIS2_PLACEMENT_3D ( 'NONE', #218, #153, #194 ) ;
#238 = FACE_OUTER_BOUND ( 'NONE', #176, .T. ) ;
#239 = DIMENSIONAL_EXPONENTS ( 1.000000000000000000, 0.0000000000000000000, 0.0000000000000000000, 0.0000000000000000000, 0.0000000000000000000, 0.0000000000000000000, 0.0000000000000000000 ) ;
#240 = ORIENTED_EDGE ( 'NONE', *, *, #23, .T. ) ;
#241 = ORIENTED_EDGE ( 'NONE', *, *, #33, .T. ) ;
#242 =( GEOMETRIC_REPRESENTATION_CONTEXT ( 3 ) GLOBAL_UNCERTAINTY_ASSIGNED_CONTEXT ( ( #202 ) ) GLOBAL_UNIT_ASSIGNED_CONTEXT ( ( #182, #137, #109 ) ) REPRESENTATION_CONTEXT ( 'NONE', 'WORKASPACE' ) );
#243 = ORIENTED_EDGE ( 'NONE', *, *, #119, .F. ) ;
#244 = DIRECTION ( 'NONE',  ( 1.000000000000000000, 0.0000000000000000000, -0.0000000000000000000 ) ) ;
#245 = ORIENTED_EDGE ( 'NONE', *, *, #185, .F. ) ;
#246 = CARTESIAN_POINT ( 'NONE',  ( 0.02497500000000000067, 3.058555380870514950E-18, -3.058555380870515720E-18 ) ) ;
#247 = AXIS2_PLACEMENT_3D ( 'NONE', #6, #69, #167 ) ;
#248 = VERTEX_POINT ( 'NONE', #1 ) ;
#249 = LENGTH_MEASURE_WITH_UNIT ( LENGTH_MEASURE( 0.02539999999999999897 ), #179 );
#250 = LINE ( 'NONE', #73, #155 ) ;
#251 = DIRECTION ( 'NONE',  ( -1.000000000000000000, 0.0000000000000000000, 0.0000000000000000000 ) ) ;
#252 = COLOUR_RGB ( '',0.7921568627450980005, 0.8196078431372548767, 0.9333333333333333481 ) ;
#253 = CIRCLE ( 'NONE', #279, 0.04750000000000064587 ) ;
#254 = DIRECTION ( 'NONE',  ( -1.224646799147353700E-16, -0.0000000000000000000, -1.000000000000000000 ) ) ;
#255 = DIRECTION ( 'NONE',  ( -1.224646799147353700E-16, -0.0000000000000000000, -1.000000000000000000 ) ) ;
#256 = FACE_OUTER_BOUND ( 'NONE', #199, .T. ) ;
#257 = VECTOR ( 'NONE', #207, 39.37007874015747433 ) ;
#258 = EDGE_CURVE ( 'NONE', #294, #127, #208, .T. ) ;
#259 = FACE_OUTER_BOUND ( 'NONE', #17, .T. ) ;
#260 = DIRECTION ( 'NONE',  ( 0.0000000000000000000, 0.0000000000000000000, 1.000000000000000000 ) ) ;
#261 = ORIENTED_EDGE ( 'NONE', *, *, #278, .F. ) ;
#262 = CONICAL_SURFACE ( 'NONE', #7, 0.02497500000000000414, 0.1745329251994339192 ) ;
#263 = SURFACE_STYLE_USAGE ( .BOTH. , #84 ) ;
#264 = ORIENTED_EDGE ( 'NONE', *, *, #159, .F. ) ;
#265 = ORIENTED_EDGE ( 'NONE', *, *, #221, .F. ) ;
#266 = APPLICATION_PROTOCOL_DEFINITION ( 'draft international standard', 'automotive_design', 1998, #269 ) ;
#267 = ORIENTED_EDGE ( 'NONE', *, *, #159, .T. ) ;
#268 = ORIENTED_EDGE ( 'NONE', *, *, #173, .F. ) ;
#269 = APPLICATION_CONTEXT ( 'automotive_design' ) ;
#270 = LINE ( 'NONE', #295, #184 ) ;
#271 = CARTESIAN_POINT ( 'NONE',  ( 0.02497500000000000067, 3.058555380870514950E-18, 0.0000000000000000000 ) ) ;
#272 = DIRECTION ( 'NONE',  ( 1.000000000000000000, 0.0000000000000000000, 0.0000000000000000000 ) ) ;
#273 = UNCERTAINTY_MEASURE_WITH_UNIT (LENGTH_MEASURE( 1.000000000000000082E-05 ), #72, 'distance_accuracy_value', 'NONE');
#274 = EDGE_CURVE ( 'NONE', #294, #126, #131, .T. ) ;
#275 = DIRECTION ( 'NONE',  ( 1.000000000000000000, 0.0000000000000000000, 0.0000000000000000000 ) ) ;
#276 = DIRECTION ( 'NONE',  ( 0.0000000000000000000, 0.0000000000000000000, 1.000000000000000000 ) ) ;
#277 = CARTESIAN_POINT ( 'NONE',  ( 3.745650057197992530E-34, 0.0000000000000000000, 3.058555380870515720E-18 ) ) ;
#278 = EDGE_CURVE ( 'NONE', #193, #79, #114, .T. ) ;
#279 = AXIS2_PLACEMENT_3D ( 'NONE', #142, #191, #164 ) ;
#280 = DIRECTION ( 'NONE',  ( 1.000000000000000000, 0.0000000000000000000, 0.0000000000000000000 ) ) ;
#281 = DIRECTION ( 'NONE',  ( -1.000000000000000000, 0.0000000000000000000, 1.224646799147353700E-16 ) ) ;
#282 = DIRECTION ( 'NONE',  ( 0.0000000000000000000, 0.0000000000000000000, -1.000000000000000000 ) ) ;
#283 = DIRECTION ( 'NONE',  ( -0.0000000000000000000, -0.0000000000000000000, -1.000000000000000000 ) ) ;
#284 = AXIS2_PLACEMENT_3D ( 'NONE', #49, #162, #136 ) ;
#285 = ORIENTED_EDGE ( 'NONE', *, *, #33, .F. ) ;
#286 = EDGE_CURVE ( 'NONE', #217, #38, #270, .T. ) ;
#287 =( NAMED_UNIT ( * ) PLANE_ANGLE_UNIT ( ) SI_UNIT ( $, .RADIAN. ) );
#288 = ORIENTED_EDGE ( 'NONE', *, *, #278, .T. ) ;
#289 = PRODUCT_DEFINITION_SHAPE ( 'NONE', 'NONE',  #63 ) ;
#290 = DIRECTION ( 'NONE',  ( 1.000000000000000000, 0.0000000000000000000, 0.0000000000000000000 ) ) ;
#291 = STYLED_ITEM ( 'NONE', ( #26 ), #100 ) ;
#292 = DIRECTION ( 'NONE',  ( -1.000000000000000000, 0.0000000000000000000, 0.0000000000000000000 ) ) ;
#293 = DIRECTION ( 'NONE',  ( -1.224646799147353700E-16, -0.0000000000000000000, -1.000000000000000000 ) ) ;
#294 = VERTEX_POINT ( 'NONE', #112 ) ;
#295 = CARTESIAN_POINT ( 'NONE',  ( -0.02497500000000000067, 0.0000000000000000000, 3.058555380870515720E-18 ) ) ;
#296 = CIRCLE ( 'NONE', #70, 0.02497500000000000414 ) ;
#297 = FILL_AREA_STYLE ('',( #206 ) ) ;
#298 = DIRECTION ( 'NONE',  ( -1.224646799147353700E-16, -0.0000000000000000000, -1.000000000000000000 ) ) ;
#299 = ADVANCED_FACE ( 'NONE', ( #232 ), #44, .T. ) ;
ENDSEC;
END-ISO-10303-21;
