ISO-10303-21;
HEADER;
FILE_DESCRIPTION (( 'STEP AP214' ),
    '1' );
FILE_NAME ('83858.STEP',
    '2023-07-05T16:21:32',
    ( '' ),
    ( '' ),
    'SwSTEP 2.0',
    'SolidWorks 2023',
    '' );
FILE_SCHEMA (( 'AUTOMOTIVE_DESIGN' ));
ENDSEC;

DATA;
#1 = DIRECTION ( 'NONE',  ( 2.908074250809926389E-17, 1.000000000000000000, 0.000000000000000000 ) ) ;
#2 = SURFACE_SIDE_STYLE ('',( #183 ) ) ;
#3 = UNCERTAINTY_MEASURE_WITH_UNIT (LENGTH_MEASURE( 1.000000000000000082E-05 ), #95, 'distance_accuracy_value', 'NONE');
#4 = SURFACE_STYLE_USAGE ( .BOTH. , #128 ) ;
#5 = ORIENTED_EDGE ( 'NONE', *, *, #57, .T. ) ;
#6 = CARTESIAN_POINT ( 'NONE',  ( 1.574041360807988916E-18, 0.05412658773652712779, 0.000000000000000000 ) ) ;
#7 = CIRCLE ( 'NONE', #62, 0.09374999999999981959 ) ;
#8 = COLOUR_RGB ( '',0.7921568627450980005, 0.8196078431372548767, 0.9333333333333333481 ) ;
#9 = DIRECTION ( 'NONE',  ( -1.000000000000000000, -9.106159978880894651E-17, 0.000000000000000000 ) ) ;
#10 = CARTESIAN_POINT ( 'NONE',  ( 0.000000000000000000, 0.000000000000000000, 0.000000000000000000 ) ) ;
#11 = EDGE_CURVE ( 'NONE', #144, #244, #142, .T. ) ;
#12 = DIRECTION ( 'NONE',  ( -1.214063312457127427E-16, 1.000000000000000000, -0.000000000000000000 ) ) ;
#13 = PRESENTATION_LAYER_ASSIGNMENT (  '', '', ( #256 ) ) ;
#14 = FILL_AREA_STYLE_COLOUR ( '', #8 ) ;
#15 = UNCERTAINTY_MEASURE_WITH_UNIT (LENGTH_MEASURE( 1.000000000000000082E-05 ), #37, 'distance_accuracy_value', 'NONE');
#16 = CARTESIAN_POINT ( 'NONE',  ( 0.000000000000000000, 0.000000000000000000, 0.000000000000000000 ) ) ;
#17 = APPLICATION_CONTEXT ( 'automotive_design' ) ;
#18 = AXIS2_PLACEMENT_3D ( 'NONE', #110, #231, #9 ) ;
#19 = DIRECTION ( 'NONE',  ( -1.214063312457127427E-16, 1.000000000000000000, -0.000000000000000000 ) ) ;
#20 = AXIS2_PLACEMENT_3D ( 'NONE', #108, #86, #123 ) ;
#21 = FILL_AREA_STYLE_COLOUR ( '', #229 ) ;
#22 =( CONVERSION_BASED_UNIT ( 'INCH', #127 ) LENGTH_UNIT ( ) NAMED_UNIT ( #259 ) );
#23 = ORIENTED_EDGE ( 'NONE', *, *, #111, .T. ) ;
#24 = COLOUR_RGB ( '',1.000000000000000000, 0.000000000000000000, 0.000000000000000000 ) ;
#25 = EDGE_LOOP ( 'NONE', ( #163, #5, #84 ) ) ;
#26 = SURFACE_STYLE_FILL_AREA ( #92 ) ;
#27 = PRODUCT_DEFINITION ( 'UNKNOWN', '', #172, #67 ) ;
#28 = FACE_OUTER_BOUND ( 'NONE', #249, .T. ) ;
#29 = PLANE ( 'NONE',  #133 ) ;
#30 = LENGTH_MEASURE_WITH_UNIT ( LENGTH_MEASURE( 0.02539999999999999897 ), #51 );
#31 = SURFACE_STYLE_USAGE ( .BOTH. , #160 ) ;
#32 = AXIS2_PLACEMENT_3D ( 'NONE', #6, #70, #254 ) ;
#33 =( GEOMETRIC_REPRESENTATION_CONTEXT ( 3 ) GLOBAL_UNCERTAINTY_ASSIGNED_CONTEXT ( ( #61 ) ) GLOBAL_UNIT_ASSIGNED_CONTEXT ( ( #187, #247, #204 ) ) REPRESENTATION_CONTEXT ( 'NONE', 'WORKASPACE' ) );
#34 = FILL_AREA_STYLE_COLOUR ( '', #238 ) ;
#35 = DIMENSIONAL_EXPONENTS ( 1.000000000000000000, 0.000000000000000000, 0.000000000000000000, 0.000000000000000000, 0.000000000000000000, 0.000000000000000000, 0.000000000000000000 ) ;
#36 = CARTESIAN_POINT ( 'NONE',  ( 1.750090120941168532E-16, 0.05412658773652711391, 0.000000000000000000 ) ) ;
#37 =( CONVERSION_BASED_UNIT ( 'INCH', #216 ) LENGTH_UNIT ( ) NAMED_UNIT ( #118 ) );
#38 = STYLED_ITEM ( 'NONE', ( #137 ), #219 ) ;
#39 = SURFACE_SIDE_STYLE ('',( #156 ) ) ;
#40 = LENGTH_MEASURE_WITH_UNIT ( LENGTH_MEASURE( 0.02539999999999999897 ), #167 );
#41 = VERTEX_POINT ( 'NONE', #44 ) ;
#42 = CIRCLE ( 'NONE', #102, 0.09375000000000005551 ) ;
#43 = VECTOR ( 'NONE', #261, 39.37007874015748854 ) ;
#44 = CARTESIAN_POINT ( 'NONE',  ( 0.09374999999999998612, 2.000000000000000000, 1.148106374200643555E-17 ) ) ;
#45 = EDGE_CURVE ( 'NONE', #106, #41, #42, .T. ) ;
#46 = CARTESIAN_POINT ( 'NONE',  ( -0.09375000000000012490, 2.000000000000000000, 0.000000000000000000 ) ) ;
#47 = SURFACE_STYLE_USAGE ( .BOTH. , #112 ) ;
#48 = LENGTH_MEASURE_WITH_UNIT ( LENGTH_MEASURE( 0.02539999999999999897 ), #232 );
#49 = MECHANICAL_DESIGN_GEOMETRIC_PRESENTATION_REPRESENTATION (  '', ( #38 ), #81 ) ;
#50 = ADVANCED_FACE ( 'NONE', ( #143 ), #222, .T. ) ;
#51 =( LENGTH_UNIT ( ) NAMED_UNIT ( * ) SI_UNIT ( $, .METRE. ) );
#52 = DIRECTION ( 'NONE',  ( -1.214063312457127427E-16, 1.000000000000000000, -0.000000000000000000 ) ) ;
#53 = AXIS2_PLACEMENT_3D ( 'NONE', #171, #250, #64 ) ;
#54 = UNCERTAINTY_MEASURE_WITH_UNIT (LENGTH_MEASURE( 1.000000000000000082E-05 ), #22, 'distance_accuracy_value', 'NONE');
#55 = DIRECTION ( 'NONE',  ( -1.214063312457127427E-16, 1.000000000000000000, -0.000000000000000000 ) ) ;
#56 = DIMENSIONAL_EXPONENTS ( 1.000000000000000000, 0.000000000000000000, 0.000000000000000000, 0.000000000000000000, 0.000000000000000000, 0.000000000000000000, 0.000000000000000000 ) ;
#57 = EDGE_CURVE ( 'NONE', #129, #244, #252, .T. ) ;
#58 = LINE ( 'NONE', #237, #260 ) ;
#59 =( LENGTH_UNIT ( ) NAMED_UNIT ( * ) SI_UNIT ( $, .METRE. ) );
#60 = ORIENTED_EDGE ( 'NONE', *, *, #11, .T. ) ;
#61 = UNCERTAINTY_MEASURE_WITH_UNIT (LENGTH_MEASURE( 1.000000000000000082E-05 ), #187, 'distance_accuracy_value', 'NONE');
#62 = AXIS2_PLACEMENT_3D ( 'NONE', #212, #230, #115 ) ;
#63 = DIRECTION ( 'NONE',  ( 2.908074250809926389E-17, 1.000000000000000000, 0.000000000000000000 ) ) ;
#64 = DIRECTION ( 'NONE',  ( 1.000000000000000000, 0.000000000000000000, 0.000000000000000000 ) ) ;
#65 = CIRCLE ( 'NONE', #198, 0.09375000000000005551 ) ;
#66 = DIRECTION ( 'NONE',  ( 0.8660254037844397068, 0.4999999999999979461, 1.060575238724908024E-16 ) ) ;
#67 = PRODUCT_DEFINITION_CONTEXT ( 'detailed design', #17, 'design' ) ;
#68 = ADVANCED_FACE ( 'NONE', ( #28 ), #93, .T. ) ;
#69 = SURFACE_STYLE_USAGE ( .BOTH. , #2 ) ;
#70 = DIRECTION ( 'NONE',  ( 2.908074250809926389E-17, 1.000000000000000000, 0.000000000000000000 ) ) ;
#71 = STYLED_ITEM ( 'NONE', ( #223 ), #257 ) ;
#72 = DIMENSIONAL_EXPONENTS ( 1.000000000000000000, 0.000000000000000000, 0.000000000000000000, 0.000000000000000000, 0.000000000000000000, 0.000000000000000000, 0.000000000000000000 ) ;
#73 = PRESENTATION_STYLE_ASSIGNMENT (( #139 ) ) ;
#74 = FILL_AREA_STYLE ('',( #34 ) ) ;
#75 = PRESENTATION_LAYER_ASSIGNMENT (  '', '', ( #174 ) ) ;
#76 = CONICAL_SURFACE ( 'NONE', #233, 68.19097667594041923, 1.047197551196600074 ) ;
#77 = EDGE_LOOP ( 'NONE', ( #265, #205, #60 ) ) ;
#78 = CARTESIAN_POINT ( 'NONE',  ( 0.09375000000000001388, 0.05412658773652713473, 1.148106374200643863E-17 ) ) ;
#79 = ORIENTED_EDGE ( 'NONE', *, *, #45, .F. ) ;
#80 = ORIENTED_EDGE ( 'NONE', *, *, #186, .F. ) ;
#81 =( GEOMETRIC_REPRESENTATION_CONTEXT ( 3 ) GLOBAL_UNCERTAINTY_ASSIGNED_CONTEXT ( ( #166 ) ) GLOBAL_UNIT_ASSIGNED_CONTEXT ( ( #258, #162, #164 ) ) REPRESENTATION_CONTEXT ( 'NONE', 'WORKASPACE' ) );
#82 = STYLED_ITEM ( 'NONE', ( #73 ), #217 ) ;
#83 =( NAMED_UNIT ( * ) PLANE_ANGLE_UNIT ( ) SI_UNIT ( $, .RADIAN. ) );
#84 = ORIENTED_EDGE ( 'NONE', *, *, #96, .T. ) ;
#85 = ADVANCED_FACE ( 'NONE', ( #253 ), #29, .F. ) ;
#86 = DIRECTION ( 'NONE',  ( 0.000000000000000000, 0.000000000000000000, 1.000000000000000000 ) ) ;
#87 = ORIENTED_EDGE ( 'NONE', *, *, #207, .F. ) ;
#88 = APPLICATION_PROTOCOL_DEFINITION ( 'draft international standard', 'automotive_design', 1998, #17 ) ;
#89 = FACE_OUTER_BOUND ( 'NONE', #248, .T. ) ;
#90 = MECHANICAL_DESIGN_GEOMETRIC_PRESENTATION_REPRESENTATION (  '', ( #82 ), #122 ) ;
#91 = DIRECTION ( 'NONE',  ( -1.000000000000000000, 0.000000000000000000, 0.000000000000000000 ) ) ;
#92 = FILL_AREA_STYLE ('',( #208 ) ) ;
#93 = CYLINDRICAL_SURFACE ( 'NONE', #251, 0.09374999999999994449 ) ;
#94 =( GEOMETRIC_REPRESENTATION_CONTEXT ( 3 ) GLOBAL_UNCERTAINTY_ASSIGNED_CONTEXT ( ( #3 ) ) GLOBAL_UNIT_ASSIGNED_CONTEXT ( ( #95, #196, #239 ) ) REPRESENTATION_CONTEXT ( 'NONE', 'WORKASPACE' ) );
#95 =( CONVERSION_BASED_UNIT ( 'INCH', #30 ) LENGTH_UNIT ( ) NAMED_UNIT ( #56 ) );
#96 = EDGE_CURVE ( 'NONE', #244, #144, #181, .T. ) ;
#97 = APPLICATION_CONTEXT ( 'automotive_design' ) ;
#98 = CARTESIAN_POINT ( 'NONE',  ( -0.09375000000000001388, 0.05412658773652713473, 0.000000000000000000 ) ) ;
#99 = DIRECTION ( 'NONE',  ( -1.214063312457127427E-16, 1.000000000000000000, -0.000000000000000000 ) ) ;
#100 = EDGE_CURVE ( 'NONE', #225, #228, #7, .T. ) ;
#101 = DIRECTION ( 'NONE',  ( -1.000000000000000000, 0.000000000000000000, 0.000000000000000000 ) ) ;
#102 = AXIS2_PLACEMENT_3D ( 'NONE', #130, #19, #101 ) ;
#103 = AXIS2_PLACEMENT_3D ( 'NONE', #243, #63, #146 ) ;
#104 = ORIENTED_EDGE ( 'NONE', *, *, #96, .F. ) ;
#105 = SURFACE_STYLE_FILL_AREA ( #170 ) ;
#106 = VERTEX_POINT ( 'NONE', #46 ) ;
#107 = ORIENTED_EDGE ( 'NONE', *, *, #161, .T. ) ;
#108 = CARTESIAN_POINT ( 'NONE',  ( 0.000000000000000000, 0.000000000000000000, 0.000000000000000000 ) ) ;
#109 = EDGE_LOOP ( 'NONE', ( #169, #227 ) ) ;
#110 = CARTESIAN_POINT ( 'NONE',  ( 1.750090120941169025E-16, 0.05412658773652723881, 0.000000000000000000 ) ) ;
#111 = EDGE_CURVE ( 'NONE', #228, #225, #224, .T. ) ;
#112 = SURFACE_SIDE_STYLE ('',( #26 ) ) ;
#113 = PRODUCT_RELATED_PRODUCT_CATEGORY ( 'part', '', ( #209 ) ) ;
#114 = CARTESIAN_POINT ( 'NONE',  ( -6.123233995736763571E-17, 2.000000000000000000, 0.000000000000000000 ) ) ;
#115 = DIRECTION ( 'NONE',  ( -1.000000000000000000, -9.106159978880894651E-17, 0.000000000000000000 ) ) ;
#116 = DIRECTION ( 'NONE',  ( -2.908074250809926389E-17, -1.000000000000000000, -0.000000000000000000 ) ) ;
#117 = ADVANCED_FACE ( 'NONE', ( #89 ), #193, .T. ) ;
#118 = DIMENSIONAL_EXPONENTS ( 1.000000000000000000, 0.000000000000000000, 0.000000000000000000, 0.000000000000000000, 0.000000000000000000, 0.000000000000000000, 0.000000000000000000 ) ;
#119 = FILL_AREA_STYLE ('',( #14 ) ) ;
#120 = CARTESIAN_POINT ( 'NONE',  ( -6.123233995736763571E-17, 2.000000000000000000, 0.000000000000000000 ) ) ;
#121 = PLANE ( 'NONE',  #211 ) ;
#122 =( GEOMETRIC_REPRESENTATION_CONTEXT ( 3 ) GLOBAL_UNCERTAINTY_ASSIGNED_CONTEXT ( ( #15 ) ) GLOBAL_UNIT_ASSIGNED_CONTEXT ( ( #37, #199, #140 ) ) REPRESENTATION_CONTEXT ( 'NONE', 'WORKASPACE' ) );
#123 = DIRECTION ( 'NONE',  ( 1.000000000000000000, 0.000000000000000000, 0.000000000000000000 ) ) ;
#124 = FILL_AREA_STYLE_COLOUR ( '', #24 ) ;
#125 = CLOSED_SHELL ( 'NONE', ( #219, #50, #257 ) ) ;
#126 = PRESENTATION_LAYER_ASSIGNMENT (  '', '', ( #38 ) ) ;
#127 = LENGTH_MEASURE_WITH_UNIT ( LENGTH_MEASURE( 0.02539999999999999897 ), #59 );
#128 = SURFACE_SIDE_STYLE ('',( #105 ) ) ;
#129 = VERTEX_POINT ( 'NONE', #10 ) ;
#130 = CARTESIAN_POINT ( 'NONE',  ( -6.123233995736763571E-17, 2.000000000000000000, 0.000000000000000000 ) ) ;
#131 = LINE ( 'NONE', #16, #43 ) ;
#132 =( CONVERSION_BASED_UNIT ( 'INCH', #48 ) LENGTH_UNIT ( ) NAMED_UNIT ( #72 ) );
#133 = AXIS2_PLACEMENT_3D ( 'NONE', #192, #151, #150 ) ;
#134 = PRODUCT_DEFINITION_SHAPE ( 'NONE', 'NONE',  #27 ) ;
#135 =( NAMED_UNIT ( * ) PLANE_ANGLE_UNIT ( ) SI_UNIT ( $, .RADIAN. ) );
#136 = MANIFOLD_SOLID_BREP ( 'Revolve - Tool Body (Pointed)', #255 ) ;
#137 = PRESENTATION_STYLE_ASSIGNMENT (( #31 ) ) ;
#138 = AXIS2_PLACEMENT_3D ( 'NONE', #153, #116, #235 ) ;
#139 = SURFACE_STYLE_USAGE ( .BOTH. , #39 ) ;
#140 =( NAMED_UNIT ( * ) SI_UNIT ( $, .STERADIAN. ) SOLID_ANGLE_UNIT ( ) );
#141 = LINE ( 'NONE', #154, #263 ) ;
#142 = CIRCLE ( 'NONE', #53, 0.09375000000000001388 ) ;
#143 = FACE_OUTER_BOUND ( 'NONE', #188, .T. ) ;
#144 = VERTEX_POINT ( 'NONE', #98 ) ;
#145 = VECTOR ( 'NONE', #66, 39.37007874015748854 ) ;
#146 = DIRECTION ( 'NONE',  ( -1.000000000000000000, 0.000000000000000000, 0.000000000000000000 ) ) ;
#147 = ORIENTED_EDGE ( 'NONE', *, *, #100, .T. ) ;
#148 = MECHANICAL_DESIGN_GEOMETRIC_PRESENTATION_REPRESENTATION (  '', ( #174 ), #155 ) ;
#149 = MECHANICAL_DESIGN_GEOMETRIC_PRESENTATION_REPRESENTATION (  '', ( #71 ), #33 ) ;
#150 = DIRECTION ( 'NONE',  ( 1.000000000000000000, 1.214063312457127427E-16, 0.000000000000000000 ) ) ;
#151 = DIRECTION ( 'NONE',  ( 1.214063312457127427E-16, -1.000000000000000000, 0.000000000000000000 ) ) ;
#152 = CONICAL_SURFACE ( 'NONE', #103, 68.19097667594041923, 1.047197551196600074 ) ;
#153 = CARTESIAN_POINT ( 'NONE',  ( 1.574041360807988916E-18, 0.05412658773652713473, 0.000000000000000000 ) ) ;
#154 = CARTESIAN_POINT ( 'NONE',  ( -0.09375000000000001388, 2.000000000000000000, 0.000000000000000000 ) ) ;
#155 =( GEOMETRIC_REPRESENTATION_CONTEXT ( 3 ) GLOBAL_UNCERTAINTY_ASSIGNED_CONTEXT ( ( #177 ) ) GLOBAL_UNIT_ASSIGNED_CONTEXT ( ( #132, #135, #236 ) ) REPRESENTATION_CONTEXT ( 'NONE', 'WORKASPACE' ) );
#156 = SURFACE_STYLE_FILL_AREA ( #119 ) ;
#157 = EDGE_CURVE ( 'NONE', #129, #144, #131, .T. ) ;
#158 = DIMENSIONAL_EXPONENTS ( 1.000000000000000000, 0.000000000000000000, 0.000000000000000000, 0.000000000000000000, 0.000000000000000000, 0.000000000000000000, 0.000000000000000000 ) ;
#159 = FACE_OUTER_BOUND ( 'NONE', #109, .T. ) ;
#160 = SURFACE_SIDE_STYLE ('',( #242 ) ) ;
#161 = EDGE_CURVE ( 'NONE', #225, #106, #141, .T. ) ;
#162 =( NAMED_UNIT ( * ) PLANE_ANGLE_UNIT ( ) SI_UNIT ( $, .RADIAN. ) );
#163 = ORIENTED_EDGE ( 'NONE', *, *, #157, .F. ) ;
#164 =( NAMED_UNIT ( * ) SI_UNIT ( $, .STERADIAN. ) SOLID_ANGLE_UNIT ( ) );
#165 = ORIENTED_EDGE ( 'NONE', *, *, #207, .T. ) ;
#166 = UNCERTAINTY_MEASURE_WITH_UNIT (LENGTH_MEASURE( 1.000000000000000082E-05 ), #258, 'distance_accuracy_value', 'NONE');
#167 =( LENGTH_UNIT ( ) NAMED_UNIT ( * ) SI_UNIT ( $, .METRE. ) );
#168 = AXIS2_PLACEMENT_3D ( 'NONE', #194, #12, #190 ) ;
#169 = ORIENTED_EDGE ( 'NONE', *, *, #100, .F. ) ;
#170 = FILL_AREA_STYLE ('',( #21 ) ) ;
#171 = CARTESIAN_POINT ( 'NONE',  ( 1.574041360807988916E-18, 0.05412658773652713473, 0.000000000000000000 ) ) ;
#172 = PRODUCT_DEFINITION_FORMATION_WITH_SPECIFIED_SOURCE ( 'ANY', '', #209, .NOT_KNOWN. ) ;
#173 = CARTESIAN_POINT ( 'NONE',  ( 0.000000000000000000, 0.000000000000000000, 0.000000000000000000 ) ) ;
#174 = STYLED_ITEM ( 'NONE', ( #176 ), #50 ) ;
#175 =( GEOMETRIC_REPRESENTATION_CONTEXT ( 3 ) GLOBAL_UNCERTAINTY_ASSIGNED_CONTEXT ( ( #54 ) ) GLOBAL_UNIT_ASSIGNED_CONTEXT ( ( #22, #83, #182 ) ) REPRESENTATION_CONTEXT ( 'NONE', 'WORKASPACE' ) );
#176 = PRESENTATION_STYLE_ASSIGNMENT (( #69 ) ) ;
#177 = UNCERTAINTY_MEASURE_WITH_UNIT (LENGTH_MEASURE( 1.000000000000000082E-05 ), #132, 'distance_accuracy_value', 'NONE');
#178 = ADVANCED_FACE ( 'NONE', ( #159 ), #121, .F. ) ;
#179 = LENGTH_MEASURE_WITH_UNIT ( LENGTH_MEASURE( 0.02539999999999999897 ), #213 );
#180 = ADVANCED_BREP_SHAPE_REPRESENTATION ( '83858', ( #217, #136, #20 ), #175 ) ;
#181 = CIRCLE ( 'NONE', #138, 0.09375000000000001388 ) ;
#182 =( NAMED_UNIT ( * ) SI_UNIT ( $, .STERADIAN. ) SOLID_ANGLE_UNIT ( ) );
#183 = SURFACE_STYLE_FILL_AREA ( #202 ) ;
#184 = DIRECTION ( 'NONE',  ( -1.000000000000000000, 0.000000000000000000, 0.000000000000000000 ) ) ;
#185 = ORIENTED_EDGE ( 'NONE', *, *, #161, .F. ) ;
#186 = EDGE_CURVE ( 'NONE', #41, #106, #65, .T. ) ;
#187 =( CONVERSION_BASED_UNIT ( 'INCH', #40 ) LENGTH_UNIT ( ) NAMED_UNIT ( #158 ) );
#188 = EDGE_LOOP ( 'NONE', ( #226, #104 ) ) ;
#189 = EDGE_LOOP ( 'NONE', ( #246, #203 ) ) ;
#190 = DIRECTION ( 'NONE',  ( -1.000000000000000000, 0.000000000000000000, 0.000000000000000000 ) ) ;
#191 = MECHANICAL_DESIGN_GEOMETRIC_PRESENTATION_REPRESENTATION (  '', ( #256 ), #94 ) ;
#192 = CARTESIAN_POINT ( 'NONE',  ( 0.09374999999999998612, 2.000000000000000000, 0.000000000000000000 ) ) ;
#193 = CYLINDRICAL_SURFACE ( 'NONE', #168, 0.09374999999999994449 ) ;
#194 = CARTESIAN_POINT ( 'NONE',  ( -6.123233995736763571E-17, 2.000000000000000000, 0.000000000000000000 ) ) ;
#195 = PRESENTATION_LAYER_ASSIGNMENT (  '', '', ( #82 ) ) ;
#196 =( NAMED_UNIT ( * ) PLANE_ANGLE_UNIT ( ) SI_UNIT ( $, .RADIAN. ) );
#197 =( LENGTH_UNIT ( ) NAMED_UNIT ( * ) SI_UNIT ( $, .METRE. ) );
#198 = AXIS2_PLACEMENT_3D ( 'NONE', #120, #214, #241 ) ;
#199 =( NAMED_UNIT ( * ) PLANE_ANGLE_UNIT ( ) SI_UNIT ( $, .RADIAN. ) );
#200 = PRODUCT_CONTEXT ( 'NONE', #97, 'mechanical' ) ;
#201 = COLOUR_RGB ( '',0.7921568627450980005, 0.8196078431372548767, 0.9333333333333333481 ) ;
#202 = FILL_AREA_STYLE ('',( #124 ) ) ;
#203 = ORIENTED_EDGE ( 'NONE', *, *, #186, .T. ) ;
#204 =( NAMED_UNIT ( * ) SI_UNIT ( $, .STERADIAN. ) SOLID_ANGLE_UNIT ( ) );
#205 = ORIENTED_EDGE ( 'NONE', *, *, #157, .T. ) ;
#206 = PRESENTATION_LAYER_ASSIGNMENT (  '', '', ( #71 ) ) ;
#207 = EDGE_CURVE ( 'NONE', #228, #41, #58, .T. ) ;
#208 = FILL_AREA_STYLE_COLOUR ( '', #201 ) ;
#209 = PRODUCT ( '83858', '83858', '', ( #200 ) ) ;
#210 = PRESENTATION_STYLE_ASSIGNMENT (( #47 ) ) ;
#211 = AXIS2_PLACEMENT_3D ( 'NONE', #36, #218, #240 ) ;
#212 = CARTESIAN_POINT ( 'NONE',  ( 1.750090120941169025E-16, 0.05412658773652723881, 0.000000000000000000 ) ) ;
#213 =( LENGTH_UNIT ( ) NAMED_UNIT ( * ) SI_UNIT ( $, .METRE. ) );
#214 = DIRECTION ( 'NONE',  ( -1.214063312457127427E-16, 1.000000000000000000, -0.000000000000000000 ) ) ;
#215 = CARTESIAN_POINT ( 'NONE',  ( 1.144911122366112847E-15, 39.37007874015748143, 0.000000000000000000 ) ) ;
#216 = LENGTH_MEASURE_WITH_UNIT ( LENGTH_MEASURE( 0.02539999999999999897 ), #197 );
#217 = MANIFOLD_SOLID_BREP ( 'Revolve - Cutting Edge', #125 ) ;
#218 = DIRECTION ( 'NONE',  ( -1.214063312457127427E-16, 1.000000000000000000, 0.000000000000000000 ) ) ;
#219 = ADVANCED_FACE ( 'NONE', ( #262 ), #76, .T. ) ;
#220 = CARTESIAN_POINT ( 'NONE',  ( -0.09374999999999965306, 0.05412658773652723188, 0.000000000000000000 ) ) ;
#221 = APPLICATION_PROTOCOL_DEFINITION ( 'draft international standard', 'automotive_design', 1998, #97 ) ;
#222 = PLANE ( 'NONE',  #32 ) ;
#223 = PRESENTATION_STYLE_ASSIGNMENT (( #4 ) ) ;
#224 = CIRCLE ( 'NONE', #18, 0.09374999999999981959 ) ;
#225 = VERTEX_POINT ( 'NONE', #220 ) ;
#226 = ORIENTED_EDGE ( 'NONE', *, *, #11, .F. ) ;
#227 = ORIENTED_EDGE ( 'NONE', *, *, #111, .F. ) ;
#228 = VERTEX_POINT ( 'NONE', #264 ) ;
#229 = COLOUR_RGB ( '',1.000000000000000000, 0.000000000000000000, 0.000000000000000000 ) ;
#230 = DIRECTION ( 'NONE',  ( -1.214063312457127427E-16, 1.000000000000000000, -0.000000000000000000 ) ) ;
#231 = DIRECTION ( 'NONE',  ( -1.214063312457127427E-16, 1.000000000000000000, -0.000000000000000000 ) ) ;
#232 =( LENGTH_UNIT ( ) NAMED_UNIT ( * ) SI_UNIT ( $, .METRE. ) );
#233 = AXIS2_PLACEMENT_3D ( 'NONE', #215, #1, #184 ) ;
#234 = SHAPE_DEFINITION_REPRESENTATION ( #134, #180 ) ;
#235 = DIRECTION ( 'NONE',  ( 1.000000000000000000, 0.000000000000000000, 0.000000000000000000 ) ) ;
#236 =( NAMED_UNIT ( * ) SI_UNIT ( $, .STERADIAN. ) SOLID_ANGLE_UNIT ( ) );
#237 = CARTESIAN_POINT ( 'NONE',  ( 0.09374999999999987510, 2.000000000000000000, 1.148106374200642938E-17 ) ) ;
#238 = COLOUR_RGB ( '',1.000000000000000000, 0.000000000000000000, 0.000000000000000000 ) ;
#239 =( NAMED_UNIT ( * ) SI_UNIT ( $, .STERADIAN. ) SOLID_ANGLE_UNIT ( ) );
#240 = DIRECTION ( 'NONE',  ( -1.000000000000000000, -1.214063312457127427E-16, 0.000000000000000000 ) ) ;
#241 = DIRECTION ( 'NONE',  ( -1.000000000000000000, 0.000000000000000000, 0.000000000000000000 ) ) ;
#242 = SURFACE_STYLE_FILL_AREA ( #74 ) ;
#243 = CARTESIAN_POINT ( 'NONE',  ( 1.144911122366112847E-15, 39.37007874015748143, 0.000000000000000000 ) ) ;
#244 = VERTEX_POINT ( 'NONE', #78 ) ;
#245 = FACE_OUTER_BOUND ( 'NONE', #77, .T. ) ;
#246 = ORIENTED_EDGE ( 'NONE', *, *, #45, .T. ) ;
#247 =( NAMED_UNIT ( * ) PLANE_ANGLE_UNIT ( ) SI_UNIT ( $, .RADIAN. ) );
#248 = EDGE_LOOP ( 'NONE', ( #87, #23, #107, #80 ) ) ;
#249 = EDGE_LOOP ( 'NONE', ( #147, #165, #79, #185 ) ) ;
#250 = DIRECTION ( 'NONE',  ( -2.908074250809926389E-17, -1.000000000000000000, -0.000000000000000000 ) ) ;
#251 = AXIS2_PLACEMENT_3D ( 'NONE', #114, #52, #91 ) ;
#252 = LINE ( 'NONE', #173, #145 ) ;
#253 = FACE_OUTER_BOUND ( 'NONE', #189, .T. ) ;
#254 = DIRECTION ( 'NONE',  ( -1.000000000000000000, 2.908074250809926389E-17, 0.000000000000000000 ) ) ;
#255 = CLOSED_SHELL ( 'NONE', ( #68, #178, #117, #85 ) ) ;
#256 = STYLED_ITEM ( 'NONE', ( #210 ), #136 ) ;
#257 = ADVANCED_FACE ( 'NONE', ( #245 ), #152, .T. ) ;
#258 =( CONVERSION_BASED_UNIT ( 'INCH', #179 ) LENGTH_UNIT ( ) NAMED_UNIT ( #35 ) );
#259 = DIMENSIONAL_EXPONENTS ( 1.000000000000000000, 0.000000000000000000, 0.000000000000000000, 0.000000000000000000, 0.000000000000000000, 0.000000000000000000, 0.000000000000000000 ) ;
#260 = VECTOR ( 'NONE', #99, 39.37007874015748143 ) ;
#261 = DIRECTION ( 'NONE',  ( -0.8660254037844397068, 0.4999999999999979461, 0.000000000000000000 ) ) ;
#262 = FACE_OUTER_BOUND ( 'NONE', #25, .T. ) ;
#263 = VECTOR ( 'NONE', #55, 39.37007874015748143 ) ;
#264 = CARTESIAN_POINT ( 'NONE',  ( 0.09374999999999998612, 0.05412658773652724575, 1.148106374200643555E-17 ) ) ;
#265 = ORIENTED_EDGE ( 'NONE', *, *, #57, .F. ) ;
ENDSEC;
END-ISO-10303-21;
