ISO-10303-21;
HEADER;
FILE_DESCRIPTION (( 'STEP AP214' ),
    '1' );
FILE_NAME ('Micro_SEM-140-02X.STEP',
    '2021-09-02T01:37:24',
    ( '' ),
    ( '' ),
    'SwSTEP 2.0',
    'SolidWorks 2020',
    '' );
FILE_SCHEMA (( 'AUTOMOTIVE_DESIGN' ));
ENDSEC;

DATA;
#1 = ORIENTED_EDGE ( 'NONE', *, *, #288, .T. ) ;
#2 = AXIS2_PLACEMENT_3D ( 'NONE', #52, #284, #188 ) ;
#3 = AXIS2_PLACEMENT_3D ( 'NONE', #117, #111, #200 ) ;
#4 = MECHANICAL_DESIGN_GEOMETRIC_PRESENTATION_REPRESENTATION (  '', ( #217 ), #208 ) ;
#5 = VERTEX_POINT ( 'NONE', #232 ) ;
#6 = PRODUCT_CONTEXT ( 'NONE', #57, 'mechanical' ) ;
#7 = VERTEX_POINT ( 'NONE', #211 ) ;
#8 =( LENGTH_UNIT ( ) NAMED_UNIT ( * ) SI_UNIT ( $, .METRE. ) );
#9 = DIRECTION ( 'NONE',  ( -1.224646799147353454E-16, -0.0000000000000000000, -1.000000000000000000 ) ) ;
#10 = LINE ( 'NONE', #185, #186 ) ;
#11 = FACE_OUTER_BOUND ( 'NONE', #21, .T. ) ;
#12 = VECTOR ( 'NONE', #37, 39.37007874015748143 ) ;
#13 = PRODUCT ( 'Micro_SEM-140-02X', 'Micro_SEM-140-02X', '', ( #6 ) ) ;
#14 = EDGE_CURVE ( 'NONE', #299, #160, #144, .T. ) ;
#15 = AXIS2_PLACEMENT_3D ( 'NONE', #256, #289, #153 ) ;
#16 = ORIENTED_EDGE ( 'NONE', *, *, #140, .F. ) ;
#17 = FACE_OUTER_BOUND ( 'NONE', #42, .T. ) ;
#18 = ORIENTED_EDGE ( 'NONE', *, *, #14, .T. ) ;
#19 = ORIENTED_EDGE ( 'NONE', *, *, #243, .F. ) ;
#20 = AXIS2_PLACEMENT_3D ( 'NONE', #84, #194, #277 ) ;
#21 = EDGE_LOOP ( 'NONE', ( #39, #26, #255, #201 ) ) ;
#22 = CARTESIAN_POINT ( 'NONE',  ( 0.0000000000000000000, 0.0000000000000000000, 1.500000000000000222 ) ) ;
#23 = DIRECTION ( 'NONE',  ( -1.000000000000000000, 0.0000000000000000000, 0.0000000000000000000 ) ) ;
#24 = EDGE_LOOP ( 'NONE', ( #164, #197, #155, #205 ) ) ;
#25 = ADVANCED_FACE ( 'NONE', ( #120 ), #124, .T. ) ;
#26 = ORIENTED_EDGE ( 'NONE', *, *, #104, .F. ) ;
#27 = DIRECTION ( 'NONE',  ( 0.0000000000000000000, 0.0000000000000000000, -1.000000000000000000 ) ) ;
#28 = CARTESIAN_POINT ( 'NONE',  ( 0.0000000000000000000, 0.0000000000000000000, 1.485000000000000986 ) ) ;
#29 = AXIS2_PLACEMENT_3D ( 'NONE', #268, #183, #296 ) ;
#30 = CARTESIAN_POINT ( 'NONE',  ( 0.0000000000000000000, 0.0000000000000000000, 1.500000000000000222 ) ) ;
#31 = CARTESIAN_POINT ( 'NONE',  ( 3.061616997868383634E-17, 0.0000000000000000000, 0.2500000000000000000 ) ) ;
#32 = LENGTH_MEASURE_WITH_UNIT ( LENGTH_MEASURE( 0.02539999999999999897 ), #154 );
#33 = AXIS2_PLACEMENT_3D ( 'NONE', #22, #248, #165 ) ;
#34 = DIRECTION ( 'NONE',  ( 1.000000000000000000, 0.0000000000000000000, -0.0000000000000000000 ) ) ;
#35 = PRODUCT_RELATED_PRODUCT_CATEGORY ( 'part', '', ( #13 ) ) ;
#36 = VERTEX_POINT ( 'NONE', #145 ) ;
#37 = DIRECTION ( 'NONE',  ( -0.0000000000000000000, -0.0000000000000000000, -1.000000000000000000 ) ) ;
#38 = AXIS2_PLACEMENT_3D ( 'NONE', #187, #9, #261 ) ;
#39 = ORIENTED_EDGE ( 'NONE', *, *, #169, .F. ) ;
#40 = ORIENTED_EDGE ( 'NONE', *, *, #243, .T. ) ;
#41 = CYLINDRICAL_SURFACE ( 'NONE', #227, 0.09375000000000001388 ) ;
#42 = EDGE_LOOP ( 'NONE', ( #265, #133, #209, #16 ) ) ;
#43 = EDGE_CURVE ( 'NONE', #46, #299, #175, .T. ) ;
#44 = DIRECTION ( 'NONE',  ( -1.000000000000000000, 0.0000000000000000000, 0.0000000000000000000 ) ) ;
#45 = AXIS2_PLACEMENT_3D ( 'NONE', #28, #171, #73 ) ;
#46 = VERTEX_POINT ( 'NONE', #207 ) ;
#47 = CIRCLE ( 'NONE', #137, 0.07875000000000061118 ) ;
#48 = PRODUCT_DEFINITION_CONTEXT ( 'detailed design', #212, 'design' ) ;
#49 = EDGE_LOOP ( 'NONE', ( #61, #18, #294, #135 ) ) ;
#50 = ORIENTED_EDGE ( 'NONE', *, *, #67, .F. ) ;
#51 = DIRECTION ( 'NONE',  ( 0.1736481776669314414, 0.0000000000000000000, 0.9848077530122077983 ) ) ;
#52 = CARTESIAN_POINT ( 'NONE',  ( 3.061616997868383634E-17, 0.0000000000000000000, 0.2500000000000000000 ) ) ;
#53 = UNCERTAINTY_MEASURE_WITH_UNIT (LENGTH_MEASURE( 1.000000000000000082E-05 ), #258, 'distance_accuracy_value', 'NONE');
#54 = ADVANCED_FACE ( 'NONE', ( #282 ), #72, .T. ) ;
#55 =( CONVERSION_BASED_UNIT ( 'INCH', #146 ) LENGTH_UNIT ( ) NAMED_UNIT ( #58 ) );
#56 = CIRCLE ( 'NONE', #33, 0.07875000000000061118 ) ;
#57 = APPLICATION_CONTEXT ( 'automotive_design' ) ;
#58 = DIMENSIONAL_EXPONENTS ( 1.000000000000000000, 0.0000000000000000000, 0.0000000000000000000, 0.0000000000000000000, 0.0000000000000000000, 0.0000000000000000000, 0.0000000000000000000 ) ;
#59 = DIRECTION ( 'NONE',  ( -1.224646799147353454E-16, -0.0000000000000000000, -1.000000000000000000 ) ) ;
#60 = DIMENSIONAL_EXPONENTS ( 1.000000000000000000, 0.0000000000000000000, 0.0000000000000000000, 0.0000000000000000000, 0.0000000000000000000, 0.0000000000000000000, 0.0000000000000000000 ) ;
#61 = ORIENTED_EDGE ( 'NONE', *, *, #43, .T. ) ;
#62 = DIRECTION ( 'NONE',  ( 1.000000000000000000, 0.0000000000000000000, -0.0000000000000000000 ) ) ;
#63 = CYLINDRICAL_SURFACE ( 'NONE', #257, 0.07022970000000001989 ) ;
#64 = AXIS2_PLACEMENT_3D ( 'NONE', #68, #230, #62 ) ;
#65 = DIRECTION ( 'NONE',  ( 1.224646799147353454E-16, 0.0000000000000000000, 1.000000000000000000 ) ) ;
#66 = ORIENTED_EDGE ( 'NONE', *, *, #140, .T. ) ;
#67 = EDGE_CURVE ( 'NONE', #7, #36, #77, .T. ) ;
#68 = CARTESIAN_POINT ( 'NONE',  ( 0.0000000000000000000, 0.0000000000000000000, 0.0000000000000000000 ) ) ;
#69 = SURFACE_STYLE_FILL_AREA ( #214 ) ;
#70 = DIRECTION ( 'NONE',  ( -1.000000000000000000, 0.0000000000000000000, 1.224646799147353454E-16 ) ) ;
#71 = FACE_OUTER_BOUND ( 'NONE', #24, .T. ) ;
#72 = CYLINDRICAL_SURFACE ( 'NONE', #38, 0.07022970000000001989 ) ;
#73 = DIRECTION ( 'NONE',  ( 1.000000000000000000, 0.0000000000000000000, 0.0000000000000000000 ) ) ;
#74 = AXIS2_PLACEMENT_3D ( 'NONE', #196, #220, #271 ) ;
#75 = SURFACE_STYLE_USAGE ( .BOTH. , #260 ) ;
#76 = DIRECTION ( 'NONE',  ( 0.0000000000000000000, 0.0000000000000000000, 1.000000000000000000 ) ) ;
#77 = CIRCLE ( 'NONE', #216, 0.07022970000000001989 ) ;
#78 = CYLINDRICAL_SURFACE ( 'NONE', #203, 0.09375000000000001388 ) ;
#79 = DIRECTION ( 'NONE',  ( -0.7071067811865531239, 0.0000000000000000000, -0.7071067811865419106 ) ) ;
#80 = PLANE ( 'NONE',  #276 ) ;
#81 = CARTESIAN_POINT ( 'NONE',  ( -0.09374999999999995837, 0.0000000000000000000, 0.3833902497819536292 ) ) ;
#82 = PRESENTATION_LAYER_ASSIGNMENT (  '', '', ( #217 ) ) ;
#83 = EDGE_CURVE ( 'NONE', #224, #160, #281, .T. ) ;
#84 = CARTESIAN_POINT ( 'NONE',  ( 1.053276796084075227E-33, 0.0000000000000000000, 8.600657731007891194E-18 ) ) ;
#85 = ORIENTED_EDGE ( 'NONE', *, *, #202, .F. ) ;
#86 = DIMENSIONAL_EXPONENTS ( 1.000000000000000000, 0.0000000000000000000, 0.0000000000000000000, 0.0000000000000000000, 0.0000000000000000000, 0.0000000000000000000, 0.0000000000000000000 ) ;
#87 = LINE ( 'NONE', #198, #219 ) ;
#88 = AXIS2_PLACEMENT_3D ( 'NONE', #286, #76, #119 ) ;
#89 = ORIENTED_EDGE ( 'NONE', *, *, #83, .F. ) ;
#90 = CARTESIAN_POINT ( 'NONE',  ( 0.09375000000000004163, 1.148106374200644017E-17, 0.3833902497819536292 ) ) ;
#91 = ORIENTED_EDGE ( 'NONE', *, *, #104, .T. ) ;
#92 = CARTESIAN_POINT ( 'NONE',  ( 0.09375000000000001388, 1.148106374200643401E-17, 1.500000000000000222 ) ) ;
#93 = ADVANCED_FACE ( 'NONE', ( #71 ), #195, .T. ) ;
#94 = COLOUR_RGB ( '',0.7921568627450980005, 0.8196078431372548767, 0.9333333333333333481 ) ;
#95 = ORIENTED_EDGE ( 'NONE', *, *, #298, .T. ) ;
#96 = CLOSED_SHELL ( 'NONE', ( #54, #25, #93, #113, #163, #191, #225, #156, #151, #236 ) ) ;
#97 = DIRECTION ( 'NONE',  ( -0.0000000000000000000, -0.0000000000000000000, -1.000000000000000000 ) ) ;
#98 = FILL_AREA_STYLE ('',( #266 ) ) ;
#99 = SURFACE_SIDE_STYLE ('',( #69 ) ) ;
#100 = AXIS2_PLACEMENT_3D ( 'NONE', #31, #65, #159 ) ;
#101 = MANIFOLD_SOLID_BREP ( 'Cut-Revolve1', #96 ) ;
#102 = DIRECTION ( 'NONE',  ( 0.7071067811865531239, 8.659560562355003116E-17, -0.7071067811865419106 ) ) ;
#103 = FACE_OUTER_BOUND ( 'NONE', #274, .T. ) ;
#104 = EDGE_CURVE ( 'NONE', #224, #5, #178, .T. ) ;
#105 = DIRECTION ( 'NONE',  ( -1.224646799147353454E-16, -0.0000000000000000000, -1.000000000000000000 ) ) ;
#106 = CIRCLE ( 'NONE', #29, 0.09375000000000001388 ) ;
#107 = VERTEX_POINT ( 'NONE', #136 ) ;
#108 = DIRECTION ( 'NONE',  ( -1.000000000000000000, 0.0000000000000000000, 0.0000000000000000000 ) ) ;
#109 = PRODUCT_DEFINITION ( 'UNKNOWN', '', #264, #48 ) ;
#110 = ORIENTED_EDGE ( 'NONE', *, *, #193, .T. ) ;
#111 = DIRECTION ( 'NONE',  ( -1.224646799147353454E-16, -0.0000000000000000000, -1.000000000000000000 ) ) ;
#112 = ORIENTED_EDGE ( 'NONE', *, *, #263, .T. ) ;
#113 = ADVANCED_FACE ( 'NONE', ( #226 ), #41, .T. ) ;
#114 = FACE_OUTER_BOUND ( 'NONE', #138, .T. ) ;
#115 = ORIENTED_EDGE ( 'NONE', *, *, #169, .T. ) ;
#116 = CARTESIAN_POINT ( 'NONE',  ( -0.07875000000000061118, 0.0000000000000000000, 1.500000000000000222 ) ) ;
#117 = CARTESIAN_POINT ( 'NONE',  ( 4.695176422197739051E-17, 0.0000000000000000000, 0.3833902497819536292 ) ) ;
#118 = DIRECTION ( 'NONE',  ( -1.224646799147353454E-16, -0.0000000000000000000, -1.000000000000000000 ) ) ;
#119 = DIRECTION ( 'NONE',  ( 1.000000000000000000, 0.0000000000000000000, 0.0000000000000000000 ) ) ;
#120 = FACE_OUTER_BOUND ( 'NONE', #247, .T. ) ;
#121 = DIRECTION ( 'NONE',  ( -1.000000000000000000, 0.0000000000000000000, 0.0000000000000000000 ) ) ;
#122 = LINE ( 'NONE', #213, #152 ) ;
#123 = CARTESIAN_POINT ( 'NONE',  ( 3.061616997868383634E-17, 0.0000000000000000000, 0.2500000000000000000 ) ) ;
#124 = CONICAL_SURFACE ( 'NONE', #2, 0.07022970000000000601, 0.1745329251994339470 ) ;
#125 = MECHANICAL_DESIGN_GEOMETRIC_PRESENTATION_REPRESENTATION (  '', ( #128 ), #234 ) ;
#126 = FACE_OUTER_BOUND ( 'NONE', #199, .T. ) ;
#127 = EDGE_CURVE ( 'NONE', #160, #250, #295, .T. ) ;
#128 = STYLED_ITEM ( 'NONE', ( #142 ), #101 ) ;
#129 = ORIENTED_EDGE ( 'NONE', *, *, #263, .F. ) ;
#130 = PRESENTATION_LAYER_ASSIGNMENT (  '', '', ( #128 ) ) ;
#131 = CARTESIAN_POINT ( 'NONE',  ( 0.09375000000000001388, 1.148106374200643401E-17, 1.485000000000000986 ) ) ;
#132 = AXIS2_PLACEMENT_3D ( 'NONE', #179, #59, #108 ) ;
#133 = ORIENTED_EDGE ( 'NONE', *, *, #254, .F. ) ;
#134 = ORIENTED_EDGE ( 'NONE', *, *, #67, .T. ) ;
#135 = ORIENTED_EDGE ( 'NONE', *, *, #298, .F. ) ;
#136 = CARTESIAN_POINT ( 'NONE',  ( 0.07875000000000061118, 1.056257864264595965E-17, 1.500000000000000222 ) ) ;
#137 = AXIS2_PLACEMENT_3D ( 'NONE', #180, #157, #273 ) ;
#138 = EDGE_LOOP ( 'NONE', ( #182, #66, #95, #158 ) ) ;
#139 = DIRECTION ( 'NONE',  ( -1.224646799147353454E-16, -0.0000000000000000000, -1.000000000000000000 ) ) ;
#140 = EDGE_CURVE ( 'NONE', #299, #46, #106, .T. ) ;
#141 = SURFACE_STYLE_USAGE ( .BOTH. , #99 ) ;
#142 = PRESENTATION_STYLE_ASSIGNMENT (( #141 ) ) ;
#143 = CIRCLE ( 'NONE', #132, 0.07022970000000000601 ) ;
#144 = LINE ( 'NONE', #92, #161 ) ;
#145 = CARTESIAN_POINT ( 'NONE',  ( -0.07022970000000001989, 0.0000000000000000000, 1.720131546201578239E-17 ) ) ;
#146 = LENGTH_MEASURE_WITH_UNIT ( LENGTH_MEASURE( 0.02539999999999999897 ), #8 );
#147 = APPLICATION_PROTOCOL_DEFINITION ( 'draft international standard', 'automotive_design', 1998, #212 ) ;
#148 = CONICAL_SURFACE ( 'NONE', #100, 0.07022970000000000601, 0.1745329251994339470 ) ;
#149 = EDGE_CURVE ( 'NONE', #107, #299, #122, .T. ) ;
#150 =( NAMED_UNIT ( * ) PLANE_ANGLE_UNIT ( ) SI_UNIT ( $, .RADIAN. ) );
#151 = ADVANCED_FACE ( 'NONE', ( #267 ), #63, .T. ) ;
#152 = VECTOR ( 'NONE', #102, 39.37007874015748143 ) ;
#153 = DIRECTION ( 'NONE',  ( 1.000000000000000000, 0.0000000000000000000, 0.0000000000000000000 ) ) ;
#154 =( LENGTH_UNIT ( ) NAMED_UNIT ( * ) SI_UNIT ( $, .METRE. ) );
#155 = ORIENTED_EDGE ( 'NONE', *, *, #43, .F. ) ;
#156 = ADVANCED_FACE ( 'NONE', ( #11 ), #148, .T. ) ;
#157 = DIRECTION ( 'NONE',  ( 0.0000000000000000000, 0.0000000000000000000, 1.000000000000000000 ) ) ;
#158 = ORIENTED_EDGE ( 'NONE', *, *, #127, .F. ) ;
#159 = DIRECTION ( 'NONE',  ( 1.000000000000000000, 0.0000000000000000000, 0.0000000000000000000 ) ) ;
#160 = VERTEX_POINT ( 'NONE', #90 ) ;
#161 = VECTOR ( 'NONE', #97, 39.37007874015748143 ) ;
#162 = EDGE_LOOP ( 'NONE', ( #112, #110, #19, #85 ) ) ;
#163 = ADVANCED_FACE ( 'NONE', ( #114 ), #78, .T. ) ;
#164 = ORIENTED_EDGE ( 'NONE', *, *, #288, .F. ) ;
#165 = DIRECTION ( 'NONE',  ( 1.000000000000000000, 0.0000000000000000000, 0.0000000000000000000 ) ) ;
#166 =( LENGTH_UNIT ( ) NAMED_UNIT ( * ) SI_UNIT ( $, .METRE. ) );
#167 = PRESENTATION_STYLE_ASSIGNMENT (( #75 ) ) ;
#168 = CARTESIAN_POINT ( 'NONE',  ( 0.0000000000000000000, 0.0000000000000000000, 1.500000000000000222 ) ) ;
#169 = EDGE_CURVE ( 'NONE', #5, #250, #189, .T. ) ;
#170 = DIRECTION ( 'NONE',  ( -0.0000000000000000000, -0.0000000000000000000, -1.000000000000000000 ) ) ;
#171 = DIRECTION ( 'NONE',  ( 0.0000000000000000000, 0.0000000000000000000, -1.000000000000000000 ) ) ;
#172 = CIRCLE ( 'NONE', #20, 0.07022970000000001989 ) ;
#173 = EDGE_LOOP ( 'NONE', ( #222, #91, #292, #50 ) ) ;
#174 = APPLICATION_PROTOCOL_DEFINITION ( 'draft international standard', 'automotive_design', 1998, #57 ) ;
#175 = CIRCLE ( 'NONE', #45, 0.09375000000000001388 ) ;
#176 = LINE ( 'NONE', #293, #12 ) ;
#177 = CARTESIAN_POINT ( 'NONE',  ( -0.07022970000000001989, 0.0000000000000000000, 8.600657731007891194E-18 ) ) ;
#178 = CIRCLE ( 'NONE', #181, 0.07022970000000000601 ) ;
#179 = CARTESIAN_POINT ( 'NONE',  ( 3.061616997868383634E-17, 0.0000000000000000000, 0.2500000000000000000 ) ) ;
#180 = CARTESIAN_POINT ( 'NONE',  ( 0.0000000000000000000, 0.0000000000000000000, 1.500000000000000222 ) ) ;
#181 = AXIS2_PLACEMENT_3D ( 'NONE', #123, #253, #44 ) ;
#182 = ORIENTED_EDGE ( 'NONE', *, *, #14, .F. ) ;
#183 = DIRECTION ( 'NONE',  ( 0.0000000000000000000, 0.0000000000000000000, -1.000000000000000000 ) ) ;
#184 = CARTESIAN_POINT ( 'NONE',  ( 0.0000000000000000000, 0.0000000000000000000, 1.500000000000000222 ) ) ;
#185 = CARTESIAN_POINT ( 'NONE',  ( 0.07022970000000001989, 8.600657731007889654E-18, -8.600657731007891194E-18 ) ) ;
#186 = VECTOR ( 'NONE', #105, 39.37007874015748143 ) ;
#187 = CARTESIAN_POINT ( 'NONE',  ( 0.0000000000000000000, 0.0000000000000000000, 0.0000000000000000000 ) ) ;
#188 = DIRECTION ( 'NONE',  ( 1.000000000000000000, 0.0000000000000000000, 0.0000000000000000000 ) ) ;
#189 = LINE ( 'NONE', #218, #251 ) ;
#190 = DIRECTION ( 'NONE',  ( -1.000000000000000000, 0.0000000000000000000, 1.224646799147353454E-16 ) ) ;
#191 = ADVANCED_FACE ( 'NONE', ( #126 ), #80, .T. ) ;
#192 = CARTESIAN_POINT ( 'NONE',  ( 0.07022970000000004764, 0.0000000000000000000, 0.2500000000000000000 ) ) ;
#193 = EDGE_CURVE ( 'NONE', #224, #7, #10, .T. ) ;
#194 = DIRECTION ( 'NONE',  ( -1.224646799147353454E-16, -0.0000000000000000000, -1.000000000000000000 ) ) ;
#195 = CONICAL_SURFACE ( 'NONE', #241, 0.07875000000000061118, 0.7853981633974562726 ) ;
#196 = CARTESIAN_POINT ( 'NONE',  ( 0.0000000000000000000, 0.0000000000000000000, 1.500000000000000222 ) ) ;
#197 = ORIENTED_EDGE ( 'NONE', *, *, #149, .T. ) ;
#198 = CARTESIAN_POINT ( 'NONE',  ( -0.07875000000000061118, 0.0000000000000000000, 1.500000000000000222 ) ) ;
#199 = EDGE_LOOP ( 'NONE', ( #229, #1 ) ) ;
#200 = DIRECTION ( 'NONE',  ( 1.000000000000000000, 0.0000000000000000000, 0.0000000000000000000 ) ) ;
#201 = ORIENTED_EDGE ( 'NONE', *, *, #127, .T. ) ;
#202 = EDGE_CURVE ( 'NONE', #5, #36, #245, .T. ) ;
#203 = AXIS2_PLACEMENT_3D ( 'NONE', #184, #170, #210 ) ;
#204 = DIRECTION ( 'NONE',  ( -0.0000000000000000000, -0.0000000000000000000, -1.000000000000000000 ) ) ;
#205 = ORIENTED_EDGE ( 'NONE', *, *, #215, .F. ) ;
#206 =( CONVERSION_BASED_UNIT ( 'INCH', #32 ) LENGTH_UNIT ( ) NAMED_UNIT ( #86 ) );
#207 = CARTESIAN_POINT ( 'NONE',  ( -0.09375000000000001388, 0.0000000000000000000, 1.485000000000000986 ) ) ;
#208 =( GEOMETRIC_REPRESENTATION_CONTEXT ( 3 ) GLOBAL_UNCERTAINTY_ASSIGNED_CONTEXT ( ( #278 ) ) GLOBAL_UNIT_ASSIGNED_CONTEXT ( ( #55, #262, #238 ) ) REPRESENTATION_CONTEXT ( 'NONE', 'WORKASPACE' ) );
#209 = ORIENTED_EDGE ( 'NONE', *, *, #215, .T. ) ;
#210 = DIRECTION ( 'NONE',  ( -1.000000000000000000, 0.0000000000000000000, 0.0000000000000000000 ) ) ;
#211 = CARTESIAN_POINT ( 'NONE',  ( 0.07022970000000001989, 8.600657731007889654E-18, 0.0000000000000000000 ) ) ;
#212 = APPLICATION_CONTEXT ( 'automotive_design' ) ;
#213 = CARTESIAN_POINT ( 'NONE',  ( 0.07875000000000061118, 9.644093543285480678E-18, 1.500000000000000222 ) ) ;
#214 = FILL_AREA_STYLE ('',( #259 ) ) ;
#215 = EDGE_CURVE ( 'NONE', #252, #46, #87, .T. ) ;
#216 = AXIS2_PLACEMENT_3D ( 'NONE', #235, #118, #190 ) ;
#217 = STYLED_ITEM ( 'NONE', ( #167 ), #283 ) ;
#218 = CARTESIAN_POINT ( 'NONE',  ( -0.07022969999999997825, 8.600657731007888113E-18, 0.2500000000000000000 ) ) ;
#219 = VECTOR ( 'NONE', #79, 39.37007874015748143 ) ;
#220 = DIRECTION ( 'NONE',  ( 0.0000000000000000000, 0.0000000000000000000, -1.000000000000000000 ) ) ;
#221 = ORIENTED_EDGE ( 'NONE', *, *, #297, .T. ) ;
#222 = ORIENTED_EDGE ( 'NONE', *, *, #193, .F. ) ;
#223 = CARTESIAN_POINT ( 'NONE',  ( 0.0000000000000000000, 0.0000000000000000000, 0.0000000000000000000 ) ) ;
#224 = VERTEX_POINT ( 'NONE', #192 ) ;
#225 = ADVANCED_FACE ( 'NONE', ( #17 ), #270, .T. ) ;
#226 = FACE_OUTER_BOUND ( 'NONE', #49, .T. ) ;
#227 = AXIS2_PLACEMENT_3D ( 'NONE', #228, #204, #23 ) ;
#228 = CARTESIAN_POINT ( 'NONE',  ( 0.0000000000000000000, 0.0000000000000000000, 1.500000000000000222 ) ) ;
#229 = ORIENTED_EDGE ( 'NONE', *, *, #254, .T. ) ;
#230 = DIRECTION ( 'NONE',  ( 0.0000000000000000000, 0.0000000000000000000, 1.000000000000000000 ) ) ;
#231 =( NAMED_UNIT ( * ) PLANE_ANGLE_UNIT ( ) SI_UNIT ( $, .RADIAN. ) );
#232 = CARTESIAN_POINT ( 'NONE',  ( -0.07022969999999997825, 1.004086073650716337E-17, 0.2500000000000000000 ) ) ;
#233 = COLOUR_RGB ( '',0.7921568627450980005, 0.8196078431372548767, 0.9333333333333333481 ) ;
#234 =( GEOMETRIC_REPRESENTATION_CONTEXT ( 3 ) GLOBAL_UNCERTAINTY_ASSIGNED_CONTEXT ( ( #53 ) ) GLOBAL_UNIT_ASSIGNED_CONTEXT ( ( #258, #231, #275 ) ) REPRESENTATION_CONTEXT ( 'NONE', 'WORKASPACE' ) );
#235 = CARTESIAN_POINT ( 'NONE',  ( 1.053276796084075227E-33, 0.0000000000000000000, 8.600657731007891194E-18 ) ) ;
#236 = ADVANCED_FACE ( 'NONE', ( #103 ), #291, .F. ) ;
#237 = CARTESIAN_POINT ( 'NONE',  ( 0.07022970000000004764, 0.0000000000000000000, 0.2500000000000000000 ) ) ;
#238 =( NAMED_UNIT ( * ) SI_UNIT ( $, .STERADIAN. ) SOLID_ANGLE_UNIT ( ) );
#239 = UNCERTAINTY_MEASURE_WITH_UNIT (LENGTH_MEASURE( 1.000000000000000082E-05 ), #206, 'distance_accuracy_value', 'NONE');
#240 = SHAPE_DEFINITION_REPRESENTATION ( #242, #283 ) ;
#241 = AXIS2_PLACEMENT_3D ( 'NONE', #168, #27, #121 ) ;
#242 = PRODUCT_DEFINITION_SHAPE ( 'NONE', 'NONE',  #109 ) ;
#243 = EDGE_CURVE ( 'NONE', #36, #7, #172, .T. ) ;
#244 = DIRECTION ( 'NONE',  ( -0.1736481776669312194, 2.126576849575783625E-17, 0.9848077530122077983 ) ) ;
#245 = LINE ( 'NONE', #177, #290 ) ;
#246 =( NAMED_UNIT ( * ) SI_UNIT ( $, .STERADIAN. ) SOLID_ANGLE_UNIT ( ) );
#247 = EDGE_LOOP ( 'NONE', ( #129, #115, #221, #89 ) ) ;
#248 = DIRECTION ( 'NONE',  ( 0.0000000000000000000, 0.0000000000000000000, 1.000000000000000000 ) ) ;
#249 = VECTOR ( 'NONE', #51, 39.37007874015748143 ) ;
#250 = VERTEX_POINT ( 'NONE', #81 ) ;
#251 = VECTOR ( 'NONE', #244, 39.37007874015748143 ) ;
#252 = VERTEX_POINT ( 'NONE', #116 ) ;
#253 = DIRECTION ( 'NONE',  ( -1.224646799147353454E-16, -0.0000000000000000000, -1.000000000000000000 ) ) ;
#254 = EDGE_CURVE ( 'NONE', #252, #107, #47, .T. ) ;
#255 = ORIENTED_EDGE ( 'NONE', *, *, #83, .T. ) ;
#256 = CARTESIAN_POINT ( 'NONE',  ( 4.695176422197739051E-17, 0.0000000000000000000, 0.3833902497819536292 ) ) ;
#257 = AXIS2_PLACEMENT_3D ( 'NONE', #223, #280, #70 ) ;
#258 =( CONVERSION_BASED_UNIT ( 'INCH', #279 ) LENGTH_UNIT ( ) NAMED_UNIT ( #60 ) );
#259 = FILL_AREA_STYLE_COLOUR ( '', #233 ) ;
#260 = SURFACE_SIDE_STYLE ('',( #285 ) ) ;
#261 = DIRECTION ( 'NONE',  ( -1.000000000000000000, 0.0000000000000000000, 1.224646799147353454E-16 ) ) ;
#262 =( NAMED_UNIT ( * ) PLANE_ANGLE_UNIT ( ) SI_UNIT ( $, .RADIAN. ) );
#263 = EDGE_CURVE ( 'NONE', #5, #224, #143, .T. ) ;
#264 = PRODUCT_DEFINITION_FORMATION_WITH_SPECIFIED_SOURCE ( 'ANY', '', #13, .NOT_KNOWN. ) ;
#265 = ORIENTED_EDGE ( 'NONE', *, *, #149, .F. ) ;
#266 = FILL_AREA_STYLE_COLOUR ( '', #94 ) ;
#267 = FACE_OUTER_BOUND ( 'NONE', #173, .T. ) ;
#268 = CARTESIAN_POINT ( 'NONE',  ( 0.0000000000000000000, 0.0000000000000000000, 1.485000000000000986 ) ) ;
#269 = DIRECTION ( 'NONE',  ( 0.0000000000000000000, 0.0000000000000000000, 1.000000000000000000 ) ) ;
#270 = CONICAL_SURFACE ( 'NONE', #74, 0.07875000000000061118, 0.7853981633974562726 ) ;
#271 = DIRECTION ( 'NONE',  ( -1.000000000000000000, 0.0000000000000000000, 0.0000000000000000000 ) ) ;
#272 = CIRCLE ( 'NONE', #15, 0.09375000000000001388 ) ;
#273 = DIRECTION ( 'NONE',  ( 1.000000000000000000, 0.0000000000000000000, 0.0000000000000000000 ) ) ;
#274 = EDGE_LOOP ( 'NONE', ( #40, #134 ) ) ;
#275 =( NAMED_UNIT ( * ) SI_UNIT ( $, .STERADIAN. ) SOLID_ANGLE_UNIT ( ) );
#276 = AXIS2_PLACEMENT_3D ( 'NONE', #30, #269, #34 ) ;
#277 = DIRECTION ( 'NONE',  ( -1.000000000000000000, 0.0000000000000000000, 1.224646799147353454E-16 ) ) ;
#278 = UNCERTAINTY_MEASURE_WITH_UNIT (LENGTH_MEASURE( 1.000000000000000082E-05 ), #55, 'distance_accuracy_value', 'NONE');
#279 = LENGTH_MEASURE_WITH_UNIT ( LENGTH_MEASURE( 0.02539999999999999897 ), #166 );
#280 = DIRECTION ( 'NONE',  ( -1.224646799147353454E-16, -0.0000000000000000000, -1.000000000000000000 ) ) ;
#281 = LINE ( 'NONE', #237, #249 ) ;
#282 = FACE_OUTER_BOUND ( 'NONE', #162, .T. ) ;
#283 = ADVANCED_BREP_SHAPE_REPRESENTATION ( 'Micro_SEM-140-02X', ( #101, #88 ), #287 ) ;
#284 = DIRECTION ( 'NONE',  ( 1.224646799147353454E-16, 0.0000000000000000000, 1.000000000000000000 ) ) ;
#285 = SURFACE_STYLE_FILL_AREA ( #98 ) ;
#286 = CARTESIAN_POINT ( 'NONE',  ( 0.0000000000000000000, 0.0000000000000000000, 0.0000000000000000000 ) ) ;
#287 =( GEOMETRIC_REPRESENTATION_CONTEXT ( 3 ) GLOBAL_UNCERTAINTY_ASSIGNED_CONTEXT ( ( #239 ) ) GLOBAL_UNIT_ASSIGNED_CONTEXT ( ( #206, #150, #246 ) ) REPRESENTATION_CONTEXT ( 'NONE', 'WORKASPACE' ) );
#288 = EDGE_CURVE ( 'NONE', #107, #252, #56, .T. ) ;
#289 = DIRECTION ( 'NONE',  ( -1.224646799147353454E-16, -0.0000000000000000000, -1.000000000000000000 ) ) ;
#290 = VECTOR ( 'NONE', #139, 39.37007874015748143 ) ;
#291 = PLANE ( 'NONE',  #64 ) ;
#292 = ORIENTED_EDGE ( 'NONE', *, *, #202, .T. ) ;
#293 = CARTESIAN_POINT ( 'NONE',  ( -0.09375000000000001388, 0.0000000000000000000, 1.500000000000000222 ) ) ;
#294 = ORIENTED_EDGE ( 'NONE', *, *, #297, .F. ) ;
#295 = CIRCLE ( 'NONE', #3, 0.09375000000000001388 ) ;
#296 = DIRECTION ( 'NONE',  ( 1.000000000000000000, 0.0000000000000000000, 0.0000000000000000000 ) ) ;
#297 = EDGE_CURVE ( 'NONE', #250, #160, #272, .T. ) ;
#298 = EDGE_CURVE ( 'NONE', #46, #250, #176, .T. ) ;
#299 = VERTEX_POINT ( 'NONE', #131 ) ;
ENDSEC;
END-ISO-10303-21;
