ISO-10303-21;
HEADER;
FILE_DESCRIPTION (( 'STEP AP214' ),
    '1' );
FILE_NAME ('00287.STEP',
    '2023-06-22T14:05:39',
    ( '' ),
    ( '' ),
    'SwSTEP 2.0',
    'SolidWorks 2023',
    '' );
FILE_SCHEMA (( 'AUTOMOTIVE_DESIGN' ));
ENDSEC;

DATA;
#1 =( NAMED_UNIT ( * ) SI_UNIT ( $, .STERADIAN. ) SOLID_ANGLE_UNIT ( ) );
#2 = ADVANCED_BREP_SHAPE_REPRESENTATION ( '00287', ( #239, #131, #52 ), #111 ) ;
#3 = ADVANCED_FACE ( 'NONE', ( #37 ), #306, .F. ) ;
#4 = DIRECTION ( 'NONE',  ( 0.000000000000000000, 0.000000000000000000, 1.000000000000000000 ) ) ;
#5 = CIRCLE ( 'NONE', #51, 0.1562500000000000000 ) ;
#6 = VECTOR ( 'NONE', #225, 39.37007874015748143 ) ;
#7 = ORIENTED_EDGE ( 'NONE', *, *, #95, .F. ) ;
#8 = AXIS2_PLACEMENT_3D ( 'NONE', #19, #245, #266 ) ;
#9 = COLOUR_RGB ( '',1.000000000000000000, 0.000000000000000000, 0.000000000000000000 ) ;
#10 = ORIENTED_EDGE ( 'NONE', *, *, #129, .T. ) ;
#11 = FILL_AREA_STYLE_COLOUR ( '', #149 ) ;
#12 = DIRECTION ( 'NONE',  ( -1.000000000000000000, 0.000000000000000000, 0.000000000000000000 ) ) ;
#13 = CIRCLE ( 'NONE', #218, 0.1562500000000000000 ) ;
#14 = CARTESIAN_POINT ( 'NONE',  ( 0.1562500000000000000, 3.000000000000000444, 0.000000000000000000 ) ) ;
#15 = DIRECTION ( 'NONE',  ( 0.000000000000000000, 0.000000000000000000, -1.000000000000000000 ) ) ;
#16 =( NAMED_UNIT ( * ) PLANE_ANGLE_UNIT ( ) SI_UNIT ( $, .RADIAN. ) );
#17 = SURFACE_SIDE_STYLE ('',( #233 ) ) ;
#18 = SURFACE_STYLE_FILL_AREA ( #21 ) ;
#19 = CARTESIAN_POINT ( 'NONE',  ( -6.123233995736772199E-17, 3.000000000000000444, 0.000000000000000000 ) ) ;
#20 = CARTESIAN_POINT ( 'NONE',  ( 0.000000000000000000, 0.000000000000000000, 0.000000000000000000 ) ) ;
#21 = FILL_AREA_STYLE ('',( #34 ) ) ;
#22 = AXIS2_PLACEMENT_3D ( 'NONE', #112, #227, #182 ) ;
#23 = DIRECTION ( 'NONE',  ( -0.000000000000000000, -1.000000000000000000, -0.000000000000000000 ) ) ;
#24 = SURFACE_SIDE_STYLE ('',( #191 ) ) ;
#25 = VECTOR ( 'NONE', #259, 39.37007874015748143 ) ;
#26 = CARTESIAN_POINT ( 'NONE',  ( 0.000000000000000000, 0.000000000000000000, 0.000000000000000000 ) ) ;
#27 = UNCERTAINTY_MEASURE_WITH_UNIT (LENGTH_MEASURE( 1.000000000000000082E-05 ), #214, 'distance_accuracy_value', 'NONE');
#28 = PRESENTATION_LAYER_ASSIGNMENT (  '', '', ( #223 ) ) ;
#29 = EDGE_CURVE ( 'NONE', #79, #275, #5, .T. ) ;
#30 = ORIENTED_EDGE ( 'NONE', *, *, #117, .F. ) ;
#31 = EDGE_CURVE ( 'NONE', #156, #127, #193, .T. ) ;
#32 = EDGE_LOOP ( 'NONE', ( #174, #78 ) ) ;
#33 = DIRECTION ( 'NONE',  ( -1.000000000000000000, 0.000000000000000000, 0.000000000000000000 ) ) ;
#34 = FILL_AREA_STYLE_COLOUR ( '', #167 ) ;
#35 = COLOUR_RGB ( '',0.7921568627450980005, 0.8196078431372548767, 0.9333333333333333481 ) ;
#36 =( GEOMETRIC_REPRESENTATION_CONTEXT ( 3 ) GLOBAL_UNCERTAINTY_ASSIGNED_CONTEXT ( ( #172 ) ) GLOBAL_UNIT_ASSIGNED_CONTEXT ( ( #294, #16, #92 ) ) REPRESENTATION_CONTEXT ( 'NONE', 'WORKASPACE' ) );
#37 = FACE_OUTER_BOUND ( 'NONE', #179, .T. ) ;
#38 =( NAMED_UNIT ( * ) SI_UNIT ( $, .STERADIAN. ) SOLID_ANGLE_UNIT ( ) );
#39 =( LENGTH_UNIT ( ) NAMED_UNIT ( * ) SI_UNIT ( $, .METRE. ) );
#40 = CARTESIAN_POINT ( 'NONE',  ( -0.1562500000000000000, 1.250000000000000000, 0.000000000000000000 ) ) ;
#41 = CARTESIAN_POINT ( 'NONE',  ( 0.1562500000000000000, 1.250000000000000000, 1.913510623667739771E-17 ) ) ;
#42 =( LENGTH_UNIT ( ) NAMED_UNIT ( * ) SI_UNIT ( $, .METRE. ) );
#43 = MECHANICAL_DESIGN_GEOMETRIC_PRESENTATION_REPRESENTATION (  '', ( #120 ), #101 ) ;
#44 = AXIS2_PLACEMENT_3D ( 'NONE', #20, #285, #50 ) ;
#45 = PLANE ( 'NONE',  #22 ) ;
#46 =( NAMED_UNIT ( * ) SI_UNIT ( $, .STERADIAN. ) SOLID_ANGLE_UNIT ( ) );
#47 = LENGTH_MEASURE_WITH_UNIT ( LENGTH_MEASURE( 0.02539999999999999897 ), #123 );
#48 =( CONVERSION_BASED_UNIT ( 'INCH', #236 ) LENGTH_UNIT ( ) NAMED_UNIT ( #217 ) );
#49 = MECHANICAL_DESIGN_GEOMETRIC_PRESENTATION_REPRESENTATION (  '', ( #177 ), #153 ) ;
#50 = DIRECTION ( 'NONE',  ( 0.000000000000000000, 0.000000000000000000, -1.000000000000000000 ) ) ;
#51 = AXIS2_PLACEMENT_3D ( 'NONE', #189, #284, #209 ) ;
#52 = AXIS2_PLACEMENT_3D ( 'NONE', #26, #4, #72 ) ;
#53 = ORIENTED_EDGE ( 'NONE', *, *, #147, .F. ) ;
#54 = ORIENTED_EDGE ( 'NONE', *, *, #168, .T. ) ;
#55 = PRODUCT_DEFINITION ( 'UNKNOWN', '', #138, #273 ) ;
#56 = DIMENSIONAL_EXPONENTS ( 1.000000000000000000, 0.000000000000000000, 0.000000000000000000, 0.000000000000000000, 0.000000000000000000, 0.000000000000000000, 0.000000000000000000 ) ;
#57 = ADVANCED_FACE ( 'NONE', ( #144 ), #206, .F. ) ;
#58 = SURFACE_SIDE_STYLE ('',( #274 ) ) ;
#59 = ORIENTED_EDGE ( 'NONE', *, *, #129, .F. ) ;
#60 = SURFACE_SIDE_STYLE ('',( #18 ) ) ;
#61 = DIRECTION ( 'NONE',  ( -0.000000000000000000, -1.000000000000000000, -0.000000000000000000 ) ) ;
#62 = PRESENTATION_STYLE_ASSIGNMENT (( #96 ) ) ;
#63 =( GEOMETRIC_REPRESENTATION_CONTEXT ( 3 ) GLOBAL_UNCERTAINTY_ASSIGNED_CONTEXT ( ( #192 ) ) GLOBAL_UNIT_ASSIGNED_CONTEXT ( ( #85, #199, #38 ) ) REPRESENTATION_CONTEXT ( 'NONE', 'WORKASPACE' ) );
#64 = DIRECTION ( 'NONE',  ( -1.000000000000000000, 0.000000000000000000, 0.000000000000000000 ) ) ;
#65 = DIRECTION ( 'NONE',  ( -0.000000000000000000, -1.000000000000000000, -0.000000000000000000 ) ) ;
#66 = CARTESIAN_POINT ( 'NONE',  ( 0.000000000000000000, 1.250000000000000000, 0.000000000000000000 ) ) ;
#67 = CYLINDRICAL_SURFACE ( 'NONE', #289, 0.1562500000000000278 ) ;
#68 = APPLICATION_CONTEXT ( 'automotive_design' ) ;
#69 = DIRECTION ( 'NONE',  ( -1.000000000000000000, 0.000000000000000000, 0.000000000000000000 ) ) ;
#70 = SURFACE_SIDE_STYLE ('',( #94 ) ) ;
#71 = SURFACE_STYLE_USAGE ( .BOTH. , #24 ) ;
#72 = DIRECTION ( 'NONE',  ( 1.000000000000000000, 0.000000000000000000, 0.000000000000000000 ) ) ;
#73 = ADVANCED_FACE ( 'NONE', ( #121 ), #300, .T. ) ;
#74 = MECHANICAL_DESIGN_GEOMETRIC_PRESENTATION_REPRESENTATION (  '', ( #279 ), #63 ) ;
#75 = APPLICATION_CONTEXT ( 'automotive_design' ) ;
#76 = AXIS2_PLACEMENT_3D ( 'NONE', #136, #115, #33 ) ;
#77 = DIMENSIONAL_EXPONENTS ( 1.000000000000000000, 0.000000000000000000, 0.000000000000000000, 0.000000000000000000, 0.000000000000000000, 0.000000000000000000, 0.000000000000000000 ) ;
#78 = ORIENTED_EDGE ( 'NONE', *, *, #29, .F. ) ;
#79 = VERTEX_POINT ( 'NONE', #278 ) ;
#80 = UNCERTAINTY_MEASURE_WITH_UNIT (LENGTH_MEASURE( 1.000000000000000082E-05 ), #184, 'distance_accuracy_value', 'NONE');
#81 = FILL_AREA_STYLE ('',( #11 ) ) ;
#82 = MECHANICAL_DESIGN_GEOMETRIC_PRESENTATION_REPRESENTATION (  '', ( #223 ), #36 ) ;
#83 = FACE_OUTER_BOUND ( 'NONE', #224, .T. ) ;
#84 = ORIENTED_EDGE ( 'NONE', *, *, #95, .T. ) ;
#85 =( CONVERSION_BASED_UNIT ( 'INCH', #181 ) LENGTH_UNIT ( ) NAMED_UNIT ( #77 ) );
#86 = EDGE_CURVE ( 'NONE', #275, #79, #237, .T. ) ;
#87 =( LENGTH_UNIT ( ) NAMED_UNIT ( * ) SI_UNIT ( $, .METRE. ) );
#88 = CARTESIAN_POINT ( 'NONE',  ( 9.564794532282272738E-35, 1.250000000000000000, 0.000000000000000000 ) ) ;
#89 = FACE_OUTER_BOUND ( 'NONE', #220, .T. ) ;
#90 = EDGE_CURVE ( 'NONE', #249, #104, #124, .T. ) ;
#91 = DIRECTION ( 'NONE',  ( -3.498990854706726443E-17, 1.000000000000000000, -0.000000000000000000 ) ) ;
#92 =( NAMED_UNIT ( * ) SI_UNIT ( $, .STERADIAN. ) SOLID_ANGLE_UNIT ( ) );
#93 = LENGTH_MEASURE_WITH_UNIT ( LENGTH_MEASURE( 0.02539999999999999897 ), #39 );
#94 = SURFACE_STYLE_FILL_AREA ( #122 ) ;
#95 = EDGE_CURVE ( 'NONE', #171, #109, #163, .T. ) ;
#96 = SURFACE_STYLE_USAGE ( .BOTH. , #60 ) ;
#97 = CARTESIAN_POINT ( 'NONE',  ( -6.123233995736772199E-17, 3.000000000000000444, 0.000000000000000000 ) ) ;
#98 = PRODUCT_CONTEXT ( 'NONE', #75, 'mechanical' ) ;
#99 = LINE ( 'NONE', #145, #251 ) ;
#100 = CARTESIAN_POINT ( 'NONE',  ( 1.913510623667739463E-17, 0.000000000000000000, 0.1562500000000000000 ) ) ;
#101 =( GEOMETRIC_REPRESENTATION_CONTEXT ( 3 ) GLOBAL_UNCERTAINTY_ASSIGNED_CONTEXT ( ( #103 ) ) GLOBAL_UNIT_ASSIGNED_CONTEXT ( ( #48, #148, #1 ) ) REPRESENTATION_CONTEXT ( 'NONE', 'WORKASPACE' ) );
#102 = ADVANCED_FACE ( 'NONE', ( #308 ), #67, .T. ) ;
#103 = UNCERTAINTY_MEASURE_WITH_UNIT (LENGTH_MEASURE( 1.000000000000000082E-05 ), #48, 'distance_accuracy_value', 'NONE');
#104 = VERTEX_POINT ( 'NONE', #187 ) ;
#105 = ORIENTED_EDGE ( 'NONE', *, *, #244, .T. ) ;
#106 = AXIS2_PLACEMENT_3D ( 'NONE', #14, #183, #211 ) ;
#107 =( LENGTH_UNIT ( ) NAMED_UNIT ( * ) SI_UNIT ( $, .METRE. ) );
#108 =( NAMED_UNIT ( * ) SI_UNIT ( $, .STERADIAN. ) SOLID_ANGLE_UNIT ( ) );
#109 = VERTEX_POINT ( 'NONE', #40 ) ;
#110 = PRESENTATION_STYLE_ASSIGNMENT (( #255 ) ) ;
#111 =( GEOMETRIC_REPRESENTATION_CONTEXT ( 3 ) GLOBAL_UNCERTAINTY_ASSIGNED_CONTEXT ( ( #27 ) ) GLOBAL_UNIT_ASSIGNED_CONTEXT ( ( #214, #188, #46 ) ) REPRESENTATION_CONTEXT ( 'NONE', 'WORKASPACE' ) );
#112 = CARTESIAN_POINT ( 'NONE',  ( 0.000000000000000000, 1.250000000000000000, 0.000000000000000000 ) ) ;
#113 = DIRECTION ( 'NONE',  ( -1.000000000000000000, -3.498990854706726443E-17, 0.000000000000000000 ) ) ;
#114 =( CONVERSION_BASED_UNIT ( 'INCH', #305 ) LENGTH_UNIT ( ) NAMED_UNIT ( #271 ) );
#115 = DIRECTION ( 'NONE',  ( -3.498990854706726443E-17, 1.000000000000000000, -0.000000000000000000 ) ) ;
#116 = EDGE_CURVE ( 'NONE', #127, #156, #292, .T. ) ;
#117 = EDGE_CURVE ( 'NONE', #171, #104, #162, .T. ) ;
#118 = SURFACE_STYLE_USAGE ( .BOTH. , #70 ) ;
#119 = CARTESIAN_POINT ( 'NONE',  ( 0.000000000000000000, 1.250000000000000000, -0.1562500000000000000 ) ) ;
#120 = STYLED_ITEM ( 'NONE', ( #281 ), #131 ) ;
#121 = FACE_OUTER_BOUND ( 'NONE', #256, .T. ) ;
#122 = FILL_AREA_STYLE ('',( #185 ) ) ;
#123 =( LENGTH_UNIT ( ) NAMED_UNIT ( * ) SI_UNIT ( $, .METRE. ) );
#124 = CIRCLE ( 'NONE', #76, 0.1562500000000000833 ) ;
#125 = DIRECTION ( 'NONE',  ( -3.498990854706726443E-17, 1.000000000000000000, -0.000000000000000000 ) ) ;
#126 = PRODUCT_RELATED_PRODUCT_CATEGORY ( 'part', '', ( #288 ) ) ;
#127 = VERTEX_POINT ( 'NONE', #213 ) ;
#128 = ORIENTED_EDGE ( 'NONE', *, *, #86, .T. ) ;
#129 = EDGE_CURVE ( 'NONE', #79, #127, #141, .T. ) ;
#130 = COLOUR_RGB ( '',1.000000000000000000, 0.000000000000000000, 0.000000000000000000 ) ;
#131 = MANIFOLD_SOLID_BREP ( 'Revolve - Tool Body (Straight Shanked)', #286 ) ;
#132 = DIMENSIONAL_EXPONENTS ( 1.000000000000000000, 0.000000000000000000, 0.000000000000000000, 0.000000000000000000, 0.000000000000000000, 0.000000000000000000, 0.000000000000000000 ) ;
#133 =( NAMED_UNIT ( * ) SI_UNIT ( $, .STERADIAN. ) SOLID_ANGLE_UNIT ( ) );
#134 = ORIENTED_EDGE ( 'NONE', *, *, #117, .T. ) ;
#135 = FILL_AREA_STYLE_COLOUR ( '', #9 ) ;
#136 = CARTESIAN_POINT ( 'NONE',  ( -6.123233995736772199E-17, 3.000000000000000444, 0.000000000000000000 ) ) ;
#137 = MECHANICAL_DESIGN_GEOMETRIC_PRESENTATION_REPRESENTATION (  '', ( #270 ), #170 ) ;
#138 = PRODUCT_DEFINITION_FORMATION_WITH_SPECIFIED_SOURCE ( 'ANY', '', #288, .NOT_KNOWN. ) ;
#139 = ORIENTED_EDGE ( 'NONE', *, *, #90, .F. ) ;
#140 = DIRECTION ( 'NONE',  ( -0.000000000000000000, -1.000000000000000000, -0.000000000000000000 ) ) ;
#141 = LINE ( 'NONE', #100, #176 ) ;
#142 = CARTESIAN_POINT ( 'NONE',  ( 0.000000000000000000, 0.000000000000000000, -0.1562500000000000000 ) ) ;
#143 = AXIS2_PLACEMENT_3D ( 'NONE', #240, #61, #15 ) ;
#144 = FACE_OUTER_BOUND ( 'NONE', #222, .T. ) ;
#145 = CARTESIAN_POINT ( 'NONE',  ( -0.1562500000000001110, 3.000000000000000444, 0.000000000000000000 ) ) ;
#146 = PRESENTATION_STYLE_ASSIGNMENT (( #71 ) ) ;
#147 = EDGE_CURVE ( 'NONE', #104, #249, #269, .T. ) ;
#148 =( NAMED_UNIT ( * ) PLANE_ANGLE_UNIT ( ) SI_UNIT ( $, .RADIAN. ) );
#149 = COLOUR_RGB ( '',0.7921568627450980005, 0.8196078431372548767, 0.9333333333333333481 ) ;
#150 = PRESENTATION_LAYER_ASSIGNMENT (  '', '', ( #279 ) ) ;
#151 = ADVANCED_FACE ( 'NONE', ( #216 ), #45, .T. ) ;
#152 = ORIENTED_EDGE ( 'NONE', *, *, #147, .T. ) ;
#153 =( GEOMETRIC_REPRESENTATION_CONTEXT ( 3 ) GLOBAL_UNCERTAINTY_ASSIGNED_CONTEXT ( ( #80 ) ) GLOBAL_UNIT_ASSIGNED_CONTEXT ( ( #184, #253, #133 ) ) REPRESENTATION_CONTEXT ( 'NONE', 'WORKASPACE' ) );
#154 = EDGE_LOOP ( 'NONE', ( #105, #134, #139, #198 ) ) ;
#155 = SURFACE_SIDE_STYLE ('',( #232 ) ) ;
#156 = VERTEX_POINT ( 'NONE', #280 ) ;
#157 =( NAMED_UNIT ( * ) SI_UNIT ( $, .STERADIAN. ) SOLID_ANGLE_UNIT ( ) );
#158 = CARTESIAN_POINT ( 'NONE',  ( 0.1562499999999999722, 3.000000000000000444, 1.913510623667739771E-17 ) ) ;
#159 = DIRECTION ( 'NONE',  ( -3.498990854706726443E-17, 1.000000000000000000, -0.000000000000000000 ) ) ;
#160 = CARTESIAN_POINT ( 'NONE',  ( 0.000000000000000000, 0.000000000000000000, 0.000000000000000000 ) ) ;
#161 = CARTESIAN_POINT ( 'NONE',  ( 0.000000000000000000, 1.250000000000000000, 0.000000000000000000 ) ) ;
#162 = LINE ( 'NONE', #158, #25 ) ;
#163 = CIRCLE ( 'NONE', #221, 0.1562500000000000000 ) ;
#164 = COLOUR_RGB ( '',1.000000000000000000, 0.000000000000000000, 0.000000000000000000 ) ;
#165 = CARTESIAN_POINT ( 'NONE',  ( 0.000000000000000000, 0.000000000000000000, 0.000000000000000000 ) ) ;
#166 = LENGTH_MEASURE_WITH_UNIT ( LENGTH_MEASURE( 0.02539999999999999897 ), #107 );
#167 = COLOUR_RGB ( '',1.000000000000000000, 0.000000000000000000, 0.000000000000000000 ) ;
#168 = EDGE_CURVE ( 'NONE', #275, #156, #203, .T. ) ;
#169 = DIMENSIONAL_EXPONENTS ( 1.000000000000000000, 0.000000000000000000, 0.000000000000000000, 0.000000000000000000, 0.000000000000000000, 0.000000000000000000, 0.000000000000000000 ) ;
#170 =( GEOMETRIC_REPRESENTATION_CONTEXT ( 3 ) GLOBAL_UNCERTAINTY_ASSIGNED_CONTEXT ( ( #291 ) ) GLOBAL_UNIT_ASSIGNED_CONTEXT ( ( #242, #267, #108 ) ) REPRESENTATION_CONTEXT ( 'NONE', 'WORKASPACE' ) );
#171 = VERTEX_POINT ( 'NONE', #41 ) ;
#172 = UNCERTAINTY_MEASURE_WITH_UNIT (LENGTH_MEASURE( 1.000000000000000082E-05 ), #294, 'distance_accuracy_value', 'NONE');
#173 = ORIENTED_EDGE ( 'NONE', *, *, #168, .F. ) ;
#174 = ORIENTED_EDGE ( 'NONE', *, *, #86, .F. ) ;
#175 = ORIENTED_EDGE ( 'NONE', *, *, #116, .F. ) ;
#176 = VECTOR ( 'NONE', #23, 39.37007874015748143 ) ;
#177 = STYLED_ITEM ( 'NONE', ( #230 ), #212 ) ;
#178 = FILL_AREA_STYLE ('',( #299 ) ) ;
#179 = EDGE_LOOP ( 'NONE', ( #293, #7 ) ) ;
#180 = DIRECTION ( 'NONE',  ( -3.498990854706726443E-17, 1.000000000000000000, -0.000000000000000000 ) ) ;
#181 = LENGTH_MEASURE_WITH_UNIT ( LENGTH_MEASURE( 0.02539999999999999897 ), #276 );
#182 = DIRECTION ( 'NONE',  ( 0.000000000000000000, -0.000000000000000000, 1.000000000000000000 ) ) ;
#183 = DIRECTION ( 'NONE',  ( 3.498990854706726443E-17, -1.000000000000000000, 0.000000000000000000 ) ) ;
#184 =( CONVERSION_BASED_UNIT ( 'INCH', #93 ) LENGTH_UNIT ( ) NAMED_UNIT ( #169 ) );
#185 = FILL_AREA_STYLE_COLOUR ( '', #35 ) ;
#186 =( NAMED_UNIT ( * ) PLANE_ANGLE_UNIT ( ) SI_UNIT ( $, .RADIAN. ) );
#187 = CARTESIAN_POINT ( 'NONE',  ( 0.1562500000000000000, 3.000000000000000444, 1.913510623667739771E-17 ) ) ;
#188 =( NAMED_UNIT ( * ) PLANE_ANGLE_UNIT ( ) SI_UNIT ( $, .RADIAN. ) );
#189 = CARTESIAN_POINT ( 'NONE',  ( 0.000000000000000000, 1.250000000000000000, 0.000000000000000000 ) ) ;
#190 = AXIS2_PLACEMENT_3D ( 'NONE', #303, #180, #69 ) ;
#191 = SURFACE_STYLE_FILL_AREA ( #265 ) ;
#192 = UNCERTAINTY_MEASURE_WITH_UNIT (LENGTH_MEASURE( 1.000000000000000082E-05 ), #85, 'distance_accuracy_value', 'NONE');
#193 = CIRCLE ( 'NONE', #250, 0.1562500000000000000 ) ;
#194 = AXIS2_PLACEMENT_3D ( 'NONE', #160, #65, #263 ) ;
#195 = EDGE_LOOP ( 'NONE', ( #59, #248, #54, #175 ) ) ;
#196 = ADVANCED_FACE ( 'NONE', ( #205 ), #235, .T. ) ;
#197 = PRESENTATION_LAYER_ASSIGNMENT (  '', '', ( #120 ) ) ;
#198 = ORIENTED_EDGE ( 'NONE', *, *, #215, .F. ) ;
#199 =( NAMED_UNIT ( * ) PLANE_ANGLE_UNIT ( ) SI_UNIT ( $, .RADIAN. ) );
#200 = DIRECTION ( 'NONE',  ( -3.498990854706726443E-17, 1.000000000000000000, -0.000000000000000000 ) ) ;
#201 = CLOSED_SHELL ( 'NONE', ( #268, #151, #196, #212 ) ) ;
#202 = PRESENTATION_LAYER_ASSIGNMENT (  '', '', ( #177 ) ) ;
#203 = LINE ( 'NONE', #142, #6 ) ;
#204 = DIRECTION ( 'NONE',  ( 0.000000000000000000, 0.000000000000000000, -1.000000000000000000 ) ) ;
#205 = FACE_OUTER_BOUND ( 'NONE', #195, .T. ) ;
#206 = PLANE ( 'NONE',  #106 ) ;
#207 = CYLINDRICAL_SURFACE ( 'NONE', #194, 0.1562500000000000000 ) ;
#208 = SURFACE_STYLE_USAGE ( .BOTH. , #17 ) ;
#209 = DIRECTION ( 'NONE',  ( 0.000000000000000000, 0.000000000000000000, -1.000000000000000000 ) ) ;
#210 = SURFACE_STYLE_USAGE ( .BOTH. , #58 ) ;
#211 = DIRECTION ( 'NONE',  ( 1.000000000000000000, 3.498990854706726443E-17, 0.000000000000000000 ) ) ;
#212 = ADVANCED_FACE ( 'NONE', ( #83 ), #283, .T. ) ;
#213 = CARTESIAN_POINT ( 'NONE',  ( 1.913510623667739463E-17, 0.000000000000000000, 0.1562500000000000000 ) ) ;
#214 =( CONVERSION_BASED_UNIT ( 'INCH', #166 ) LENGTH_UNIT ( ) NAMED_UNIT ( #226 ) );
#215 = EDGE_CURVE ( 'NONE', #109, #249, #99, .T. ) ;
#216 = FACE_OUTER_BOUND ( 'NONE', #32, .T. ) ;
#217 = DIMENSIONAL_EXPONENTS ( 1.000000000000000000, 0.000000000000000000, 0.000000000000000000, 0.000000000000000000, 0.000000000000000000, 0.000000000000000000, 0.000000000000000000 ) ;
#218 = AXIS2_PLACEMENT_3D ( 'NONE', #66, #200, #12 ) ;
#219 = ORIENTED_EDGE ( 'NONE', *, *, #90, .T. ) ;
#220 = EDGE_LOOP ( 'NONE', ( #128, #10, #296, #173 ) ) ;
#221 = AXIS2_PLACEMENT_3D ( 'NONE', #161, #159, #277 ) ;
#222 = EDGE_LOOP ( 'NONE', ( #219, #152 ) ) ;
#223 = STYLED_ITEM ( 'NONE', ( #110 ), #268 ) ;
#224 = EDGE_LOOP ( 'NONE', ( #254, #252 ) ) ;
#225 = DIRECTION ( 'NONE',  ( -0.000000000000000000, -1.000000000000000000, -0.000000000000000000 ) ) ;
#226 = DIMENSIONAL_EXPONENTS ( 1.000000000000000000, 0.000000000000000000, 0.000000000000000000, 0.000000000000000000, 0.000000000000000000, 0.000000000000000000, 0.000000000000000000 ) ;
#227 = DIRECTION ( 'NONE',  ( 0.000000000000000000, 1.000000000000000000, 0.000000000000000000 ) ) ;
#228 = CARTESIAN_POINT ( 'NONE',  ( 0.000000000000000000, 0.000000000000000000, 0.000000000000000000 ) ) ;
#229 = AXIS2_PLACEMENT_3D ( 'NONE', #261, #140, #258 ) ;
#230 = PRESENTATION_STYLE_ASSIGNMENT (( #210 ) ) ;
#231 = DIRECTION ( 'NONE',  ( -3.498990854706726443E-17, 1.000000000000000000, 0.000000000000000000 ) ) ;
#232 = SURFACE_STYLE_FILL_AREA ( #257 ) ;
#233 = SURFACE_STYLE_FILL_AREA ( #81 ) ;
#234 = DIRECTION ( 'NONE',  ( -0.000000000000000000, -1.000000000000000000, -0.000000000000000000 ) ) ;
#235 = CYLINDRICAL_SURFACE ( 'NONE', #229, 0.1562500000000000000 ) ;
#236 = LENGTH_MEASURE_WITH_UNIT ( LENGTH_MEASURE( 0.02539999999999999897 ), #42 );
#237 = CIRCLE ( 'NONE', #143, 0.1562500000000000000 ) ;
#238 = STYLED_ITEM ( 'NONE', ( #62 ), #196 ) ;
#239 = MANIFOLD_SOLID_BREP ( 'Revolve - Cutting Edge', #201 ) ;
#240 = CARTESIAN_POINT ( 'NONE',  ( 0.000000000000000000, 1.250000000000000000, 0.000000000000000000 ) ) ;
#241 = APPLICATION_PROTOCOL_DEFINITION ( 'draft international standard', 'automotive_design', 1998, #68 ) ;
#242 =( CONVERSION_BASED_UNIT ( 'INCH', #47 ) LENGTH_UNIT ( ) NAMED_UNIT ( #132 ) );
#243 = SHAPE_DEFINITION_REPRESENTATION ( #246, #2 ) ;
#244 = EDGE_CURVE ( 'NONE', #109, #171, #13, .T. ) ;
#245 = DIRECTION ( 'NONE',  ( -3.498990854706726443E-17, 1.000000000000000000, -0.000000000000000000 ) ) ;
#246 = PRODUCT_DEFINITION_SHAPE ( 'NONE', 'NONE',  #55 ) ;
#247 =( GEOMETRIC_REPRESENTATION_CONTEXT ( 3 ) GLOBAL_UNCERTAINTY_ASSIGNED_CONTEXT ( ( #287 ) ) GLOBAL_UNIT_ASSIGNED_CONTEXT ( ( #114, #186, #157 ) ) REPRESENTATION_CONTEXT ( 'NONE', 'WORKASPACE' ) );
#248 = ORIENTED_EDGE ( 'NONE', *, *, #29, .T. ) ;
#249 = VERTEX_POINT ( 'NONE', #298 ) ;
#250 = AXIS2_PLACEMENT_3D ( 'NONE', #165, #234, #264 ) ;
#251 = VECTOR ( 'NONE', #125, 39.37007874015748143 ) ;
#252 = ORIENTED_EDGE ( 'NONE', *, *, #116, .T. ) ;
#253 =( NAMED_UNIT ( * ) PLANE_ANGLE_UNIT ( ) SI_UNIT ( $, .RADIAN. ) );
#254 = ORIENTED_EDGE ( 'NONE', *, *, #31, .T. ) ;
#255 = SURFACE_STYLE_USAGE ( .BOTH. , #155 ) ;
#256 = EDGE_LOOP ( 'NONE', ( #30, #84, #297, #53 ) ) ;
#257 = FILL_AREA_STYLE ('',( #135 ) ) ;
#258 = DIRECTION ( 'NONE',  ( 0.000000000000000000, 0.000000000000000000, -1.000000000000000000 ) ) ;
#259 = DIRECTION ( 'NONE',  ( -3.498990854706726443E-17, 1.000000000000000000, -0.000000000000000000 ) ) ;
#260 = AXIS2_PLACEMENT_3D ( 'NONE', #228, #262, #204 ) ;
#261 = CARTESIAN_POINT ( 'NONE',  ( 0.000000000000000000, 0.000000000000000000, 0.000000000000000000 ) ) ;
#262 = DIRECTION ( 'NONE',  ( -0.000000000000000000, -1.000000000000000000, -0.000000000000000000 ) ) ;
#263 = DIRECTION ( 'NONE',  ( 0.000000000000000000, 0.000000000000000000, -1.000000000000000000 ) ) ;
#264 = DIRECTION ( 'NONE',  ( 0.000000000000000000, 0.000000000000000000, -1.000000000000000000 ) ) ;
#265 = FILL_AREA_STYLE ('',( #309 ) ) ;
#266 = DIRECTION ( 'NONE',  ( -1.000000000000000000, 0.000000000000000000, 0.000000000000000000 ) ) ;
#267 =( NAMED_UNIT ( * ) PLANE_ANGLE_UNIT ( ) SI_UNIT ( $, .RADIAN. ) );
#268 = ADVANCED_FACE ( 'NONE', ( #89 ), #207, .T. ) ;
#269 = CIRCLE ( 'NONE', #8, 0.1562500000000000833 ) ;
#270 = STYLED_ITEM ( 'NONE', ( #146 ), #151 ) ;
#271 = DIMENSIONAL_EXPONENTS ( 1.000000000000000000, 0.000000000000000000, 0.000000000000000000, 0.000000000000000000, 0.000000000000000000, 0.000000000000000000, 0.000000000000000000 ) ;
#272 = AXIS2_PLACEMENT_3D ( 'NONE', #88, #231, #113 ) ;
#273 = PRODUCT_DEFINITION_CONTEXT ( 'detailed design', #68, 'design' ) ;
#274 = SURFACE_STYLE_FILL_AREA ( #178 ) ;
#275 = VERTEX_POINT ( 'NONE', #119 ) ;
#276 =( LENGTH_UNIT ( ) NAMED_UNIT ( * ) SI_UNIT ( $, .METRE. ) );
#277 = DIRECTION ( 'NONE',  ( -1.000000000000000000, 0.000000000000000000, 0.000000000000000000 ) ) ;
#278 = CARTESIAN_POINT ( 'NONE',  ( 1.913510623667739463E-17, 1.250000000000000000, 0.1562500000000000000 ) ) ;
#279 = STYLED_ITEM ( 'NONE', ( #302 ), #239 ) ;
#280 = CARTESIAN_POINT ( 'NONE',  ( 0.000000000000000000, 0.000000000000000000, -0.1562500000000000000 ) ) ;
#281 = PRESENTATION_STYLE_ASSIGNMENT (( #118 ) ) ;
#282 = LENGTH_MEASURE_WITH_UNIT ( LENGTH_MEASURE( 0.02539999999999999897 ), #301 );
#283 = PLANE ( 'NONE',  #44 ) ;
#284 = DIRECTION ( 'NONE',  ( -0.000000000000000000, -1.000000000000000000, -0.000000000000000000 ) ) ;
#285 = DIRECTION ( 'NONE',  ( 0.000000000000000000, -1.000000000000000000, -0.000000000000000000 ) ) ;
#286 = CLOSED_SHELL ( 'NONE', ( #102, #3, #73, #57 ) ) ;
#287 = UNCERTAINTY_MEASURE_WITH_UNIT (LENGTH_MEASURE( 1.000000000000000082E-05 ), #114, 'distance_accuracy_value', 'NONE');
#288 = PRODUCT ( '00287', '00287', '', ( #98 ) ) ;
#289 = AXIS2_PLACEMENT_3D ( 'NONE', #97, #91, #64 ) ;
#290 = MECHANICAL_DESIGN_GEOMETRIC_PRESENTATION_REPRESENTATION (  '', ( #238 ), #247 ) ;
#291 = UNCERTAINTY_MEASURE_WITH_UNIT (LENGTH_MEASURE( 1.000000000000000082E-05 ), #242, 'distance_accuracy_value', 'NONE');
#292 = CIRCLE ( 'NONE', #260, 0.1562500000000000000 ) ;
#293 = ORIENTED_EDGE ( 'NONE', *, *, #244, .F. ) ;
#294 =( CONVERSION_BASED_UNIT ( 'INCH', #282 ) LENGTH_UNIT ( ) NAMED_UNIT ( #56 ) );
#295 = PRESENTATION_LAYER_ASSIGNMENT (  '', '', ( #238 ) ) ;
#296 = ORIENTED_EDGE ( 'NONE', *, *, #31, .F. ) ;
#297 = ORIENTED_EDGE ( 'NONE', *, *, #215, .T. ) ;
#298 = CARTESIAN_POINT ( 'NONE',  ( -0.1562500000000001388, 3.000000000000000444, 0.000000000000000000 ) ) ;
#299 = FILL_AREA_STYLE_COLOUR ( '', #164 ) ;
#300 = CYLINDRICAL_SURFACE ( 'NONE', #190, 0.1562500000000000278 ) ;
#301 =( LENGTH_UNIT ( ) NAMED_UNIT ( * ) SI_UNIT ( $, .METRE. ) );
#302 = PRESENTATION_STYLE_ASSIGNMENT (( #208 ) ) ;
#303 = CARTESIAN_POINT ( 'NONE',  ( -6.123233995736772199E-17, 3.000000000000000444, 0.000000000000000000 ) ) ;
#304 = PRESENTATION_LAYER_ASSIGNMENT (  '', '', ( #270 ) ) ;
#305 = LENGTH_MEASURE_WITH_UNIT ( LENGTH_MEASURE( 0.02539999999999999897 ), #87 );
#306 = PLANE ( 'NONE',  #272 ) ;
#307 = APPLICATION_PROTOCOL_DEFINITION ( 'draft international standard', 'automotive_design', 1998, #75 ) ;
#308 = FACE_OUTER_BOUND ( 'NONE', #154, .T. ) ;
#309 = FILL_AREA_STYLE_COLOUR ( '', #130 ) ;
ENDSEC;
END-ISO-10303-21;
