ISO-10303-21;
HEADER;
FILE_DESCRIPTION (( 'STEP AP214' ),
    '1' );
FILE_NAME ('82565.STEP',
    '2023-06-23T06:19:41',
    ( '' ),
    ( '' ),
    'SwSTEP 2.0',
    'SolidWorks 2023',
    '' );
FILE_SCHEMA (( 'AUTOMOTIVE_DESIGN' ));
ENDSEC;

DATA;
#1 = DIRECTION ( 'NONE',  ( -4.082155997157848133E-17, 1.000000000000000000, 0.000000000000000000 ) ) ;
#2 = PRESENTATION_STYLE_ASSIGNMENT (( #189 ) ) ;
#3 = CYLINDRICAL_SURFACE ( 'NONE', #273, 0.1250000000000000278 ) ;
#4 = PRESENTATION_LAYER_ASSIGNMENT (  '', '', ( #115 ) ) ;
#5 = AXIS2_PLACEMENT_3D ( 'NONE', #269, #241, #29 ) ;
#6 = ADVANCED_FACE ( 'NONE', ( #279 ), #211, .T. ) ;
#7 = MANIFOLD_SOLID_BREP ( 'Revolve - Tool Body (Straight Shanked)', #290 ) ;
#8 = DIRECTION ( 'NONE',  ( 0.000000000000000000, -1.000000000000000000, -0.000000000000000000 ) ) ;
#9 = CARTESIAN_POINT ( 'NONE',  ( 0.000000000000000000, 0.000000000000000000, -0.1250000000000000000 ) ) ;
#10 = EDGE_LOOP ( 'NONE', ( #158, #127 ) ) ;
#11 = COLOUR_RGB ( '',0.7921568627450980005, 0.8196078431372548767, 0.9333333333333333481 ) ;
#12 =( NAMED_UNIT ( * ) SI_UNIT ( $, .STERADIAN. ) SOLID_ANGLE_UNIT ( ) );
#13 = DIRECTION ( 'NONE',  ( -0.000000000000000000, -1.000000000000000000, -0.000000000000000000 ) ) ;
#14 = FACE_OUTER_BOUND ( 'NONE', #104, .T. ) ;
#15 = FACE_OUTER_BOUND ( 'NONE', #10, .T. ) ;
#16 = SURFACE_SIDE_STYLE ('',( #50 ) ) ;
#17 = CARTESIAN_POINT ( 'NONE',  ( -6.123233995736772199E-17, 3.000000000000000444, 0.000000000000000000 ) ) ;
#18 = ORIENTED_EDGE ( 'NONE', *, *, #119, .T. ) ;
#19 = SURFACE_STYLE_USAGE ( .BOTH. , #281 ) ;
#20 = DIRECTION ( 'NONE',  ( 0.000000000000000000, 0.000000000000000000, -1.000000000000000000 ) ) ;
#21 = EDGE_LOOP ( 'NONE', ( #177, #198, #283, #250 ) ) ;
#22 = PRODUCT_RELATED_PRODUCT_CATEGORY ( 'part', '', ( #230 ) ) ;
#23 = AXIS2_PLACEMENT_3D ( 'NONE', #190, #126, #227 ) ;
#24 = DIRECTION ( 'NONE',  ( 1.000000000000000000, 0.000000000000000000, 0.000000000000000000 ) ) ;
#25 = CARTESIAN_POINT ( 'NONE',  ( 7.582401355855259480E-33, 1.500000000000000222, 0.000000000000000000 ) ) ;
#26 =( GEOMETRIC_REPRESENTATION_CONTEXT ( 3 ) GLOBAL_UNCERTAINTY_ASSIGNED_CONTEXT ( ( #167 ) ) GLOBAL_UNIT_ASSIGNED_CONTEXT ( ( #216, #31, #202 ) ) REPRESENTATION_CONTEXT ( 'NONE', 'WORKASPACE' ) );
#27 = AXIS2_PLACEMENT_3D ( 'NONE', #296, #102, #298 ) ;
#28 = CARTESIAN_POINT ( 'NONE',  ( -6.123233995736772199E-17, 3.000000000000000444, 0.000000000000000000 ) ) ;
#29 = DIRECTION ( 'NONE',  ( -1.000000000000000000, 0.000000000000000000, 0.000000000000000000 ) ) ;
#30 = APPLICATION_CONTEXT ( 'automotive_design' ) ;
#31 =( NAMED_UNIT ( * ) PLANE_ANGLE_UNIT ( ) SI_UNIT ( $, .RADIAN. ) );
#32 = VERTEX_POINT ( 'NONE', #116 ) ;
#33 = PLANE ( 'NONE',  #74 ) ;
#34 = ORIENTED_EDGE ( 'NONE', *, *, #307, .F. ) ;
#35 =( GEOMETRIC_REPRESENTATION_CONTEXT ( 3 ) GLOBAL_UNCERTAINTY_ASSIGNED_CONTEXT ( ( #308 ) ) GLOBAL_UNIT_ASSIGNED_CONTEXT ( ( #287, #151, #309 ) ) REPRESENTATION_CONTEXT ( 'NONE', 'WORKASPACE' ) );
#36 = CIRCLE ( 'NONE', #93, 0.1250000000000000833 ) ;
#37 = AXIS2_PLACEMENT_3D ( 'NONE', #282, #168, #223 ) ;
#38 = DIRECTION ( 'NONE',  ( 0.000000000000000000, 0.000000000000000000, -1.000000000000000000 ) ) ;
#39 = EDGE_LOOP ( 'NONE', ( #225, #306 ) ) ;
#40 = LENGTH_MEASURE_WITH_UNIT ( LENGTH_MEASURE( 0.02539999999999999897 ), #100 );
#41 = SURFACE_STYLE_FILL_AREA ( #165 ) ;
#42 = AXIS2_PLACEMENT_3D ( 'NONE', #195, #120, #20 ) ;
#43 = PRODUCT_CONTEXT ( 'NONE', #30, 'mechanical' ) ;
#44 = DIMENSIONAL_EXPONENTS ( 1.000000000000000000, 0.000000000000000000, 0.000000000000000000, 0.000000000000000000, 0.000000000000000000, 0.000000000000000000, 0.000000000000000000 ) ;
#45 = APPLICATION_PROTOCOL_DEFINITION ( 'draft international standard', 'automotive_design', 1998, #30 ) ;
#46 = AXIS2_PLACEMENT_3D ( 'NONE', #139, #285, #24 ) ;
#47 = CARTESIAN_POINT ( 'NONE',  ( 0.000000000000000000, 0.000000000000000000, 0.000000000000000000 ) ) ;
#48 = DIRECTION ( 'NONE',  ( -4.082155997157848133E-17, 1.000000000000000000, -0.000000000000000000 ) ) ;
#49 = CYLINDRICAL_SURFACE ( 'NONE', #23, 0.1250000000000000000 ) ;
#50 = SURFACE_STYLE_FILL_AREA ( #267 ) ;
#51 = EDGE_LOOP ( 'NONE', ( #288, #192, #260, #229 ) ) ;
#52 = DIRECTION ( 'NONE',  ( -4.082155997157848133E-17, 1.000000000000000000, -0.000000000000000000 ) ) ;
#53 = FILL_AREA_STYLE ('',( #174 ) ) ;
#54 = EDGE_LOOP ( 'NONE', ( #252, #79, #162, #268 ) ) ;
#55 = AXIS2_PLACEMENT_3D ( 'NONE', #262, #1, #147 ) ;
#56 = CARTESIAN_POINT ( 'NONE',  ( 1.530808498934191509E-17, 0.000000000000000000, 0.1250000000000000000 ) ) ;
#57 = ADVANCED_FACE ( 'NONE', ( #215 ), #49, .T. ) ;
#58 = SURFACE_STYLE_FILL_AREA ( #188 ) ;
#59 = SURFACE_STYLE_USAGE ( .BOTH. , #16 ) ;
#60 = STYLED_ITEM ( 'NONE', ( #2 ), #210 ) ;
#61 = PRESENTATION_STYLE_ASSIGNMENT (( #137 ) ) ;
#62 = DIMENSIONAL_EXPONENTS ( 1.000000000000000000, 0.000000000000000000, 0.000000000000000000, 0.000000000000000000, 0.000000000000000000, 0.000000000000000000, 0.000000000000000000 ) ;
#63 = SHAPE_DEFINITION_REPRESENTATION ( #224, #170 ) ;
#64 = DIMENSIONAL_EXPONENTS ( 1.000000000000000000, 0.000000000000000000, 0.000000000000000000, 0.000000000000000000, 0.000000000000000000, 0.000000000000000000, 0.000000000000000000 ) ;
#65 = SURFACE_STYLE_USAGE ( .BOTH. , #92 ) ;
#66 = DIRECTION ( 'NONE',  ( -1.000000000000000000, 0.000000000000000000, 0.000000000000000000 ) ) ;
#67 = FILL_AREA_STYLE ('',( #105 ) ) ;
#68 = FACE_OUTER_BOUND ( 'NONE', #276, .T. ) ;
#69 = SURFACE_STYLE_FILL_AREA ( #67 ) ;
#70 = ORIENTED_EDGE ( 'NONE', *, *, #245, .F. ) ;
#71 =( CONVERSION_BASED_UNIT ( 'INCH', #295 ) LENGTH_UNIT ( ) NAMED_UNIT ( #62 ) );
#72 = SURFACE_STYLE_USAGE ( .BOTH. , #122 ) ;
#73 = STYLED_ITEM ( 'NONE', ( #234 ), #57 ) ;
#74 = AXIS2_PLACEMENT_3D ( 'NONE', #163, #142, #208 ) ;
#75 = PLANE ( 'NONE',  #219 ) ;
#76 = DIRECTION ( 'NONE',  ( 0.000000000000000000, 0.000000000000000000, -1.000000000000000000 ) ) ;
#77 =( CONVERSION_BASED_UNIT ( 'INCH', #289 ) LENGTH_UNIT ( ) NAMED_UNIT ( #130 ) );
#78 = ORIENTED_EDGE ( 'NONE', *, *, #196, .T. ) ;
#79 = ORIENTED_EDGE ( 'NONE', *, *, #274, .T. ) ;
#80 = VECTOR ( 'NONE', #212, 39.37007874015748143 ) ;
#81 = VERTEX_POINT ( 'NONE', #56 ) ;
#82 = MECHANICAL_DESIGN_GEOMETRIC_PRESENTATION_REPRESENTATION (  '', ( #73 ), #240 ) ;
#83 = CIRCLE ( 'NONE', #5, 0.1250000000000000000 ) ;
#84 = ADVANCED_FACE ( 'NONE', ( #133 ), #160, .T. ) ;
#85 = CARTESIAN_POINT ( 'NONE',  ( 0.000000000000000000, 0.000000000000000000, 0.000000000000000000 ) ) ;
#86 = VERTEX_POINT ( 'NONE', #275 ) ;
#87 = DIMENSIONAL_EXPONENTS ( 1.000000000000000000, 0.000000000000000000, 0.000000000000000000, 0.000000000000000000, 0.000000000000000000, 0.000000000000000000, 0.000000000000000000 ) ;
#88 = DIRECTION ( 'NONE',  ( -0.000000000000000000, -1.000000000000000000, -0.000000000000000000 ) ) ;
#89 = CYLINDRICAL_SURFACE ( 'NONE', #204, 0.1250000000000000278 ) ;
#90 = MECHANICAL_DESIGN_GEOMETRIC_PRESENTATION_REPRESENTATION (  '', ( #193 ), #200 ) ;
#91 = PRESENTATION_LAYER_ASSIGNMENT (  '', '', ( #60 ) ) ;
#92 = SURFACE_SIDE_STYLE ('',( #132 ) ) ;
#93 = AXIS2_PLACEMENT_3D ( 'NONE', #214, #52, #125 ) ;
#94 =( LENGTH_UNIT ( ) NAMED_UNIT ( * ) SI_UNIT ( $, .METRE. ) );
#95 = ADVANCED_FACE ( 'NONE', ( #15 ), #75, .T. ) ;
#96 = COLOUR_RGB ( '',0.7921568627450980005, 0.8196078431372548767, 0.9333333333333333481 ) ;
#97 = CIRCLE ( 'NONE', #171, 0.1250000000000000000 ) ;
#98 = MECHANICAL_DESIGN_GEOMETRIC_PRESENTATION_REPRESENTATION (  '', ( #181 ), #148 ) ;
#99 = DIRECTION ( 'NONE',  ( -0.000000000000000000, -1.000000000000000000, -0.000000000000000000 ) ) ;
#100 =( LENGTH_UNIT ( ) NAMED_UNIT ( * ) SI_UNIT ( $, .METRE. ) );
#101 = PRESENTATION_LAYER_ASSIGNMENT (  '', '', ( #181 ) ) ;
#102 = DIRECTION ( 'NONE',  ( 0.000000000000000000, 1.000000000000000000, 0.000000000000000000 ) ) ;
#103 = EDGE_CURVE ( 'NONE', #86, #207, #154, .T. ) ;
#104 = EDGE_LOOP ( 'NONE', ( #18, #78 ) ) ;
#105 = FILL_AREA_STYLE_COLOUR ( '', #292 ) ;
#106 =( NAMED_UNIT ( * ) SI_UNIT ( $, .STERADIAN. ) SOLID_ANGLE_UNIT ( ) );
#107 = LENGTH_MEASURE_WITH_UNIT ( LENGTH_MEASURE( 0.02539999999999999897 ), #256 );
#108 = CARTESIAN_POINT ( 'NONE',  ( 0.000000000000000000, 1.500000000000000222, -0.1250000000000000000 ) ) ;
#109 = PRESENTATION_LAYER_ASSIGNMENT (  '', '', ( #73 ) ) ;
#110 = EDGE_CURVE ( 'NONE', #86, #169, #83, .T. ) ;
#111 =( CONVERSION_BASED_UNIT ( 'INCH', #107 ) LENGTH_UNIT ( ) NAMED_UNIT ( #44 ) );
#112 =( NAMED_UNIT ( * ) SI_UNIT ( $, .STERADIAN. ) SOLID_ANGLE_UNIT ( ) );
#113 = CARTESIAN_POINT ( 'NONE',  ( 0.1250000000000000278, 1.500000000000000222, 1.530808498934192125E-17 ) ) ;
#114 = UNCERTAINTY_MEASURE_WITH_UNIT (LENGTH_MEASURE( 1.000000000000000082E-05 ), #71, 'distance_accuracy_value', 'NONE');
#115 = STYLED_ITEM ( 'NONE', ( #178 ), #7 ) ;
#116 = CARTESIAN_POINT ( 'NONE',  ( 0.1250000000000000278, 3.000000000000000444, 1.530808498934192125E-17 ) ) ;
#117 = FILL_AREA_STYLE_COLOUR ( '', #205 ) ;
#118 = DIRECTION ( 'NONE',  ( -1.000000000000000000, 0.000000000000000000, 0.000000000000000000 ) ) ;
#119 = EDGE_CURVE ( 'NONE', #207, #32, #36, .T. ) ;
#120 = DIRECTION ( 'NONE',  ( -0.000000000000000000, -1.000000000000000000, -0.000000000000000000 ) ) ;
#121 =( LENGTH_UNIT ( ) NAMED_UNIT ( * ) SI_UNIT ( $, .METRE. ) );
#122 = SURFACE_SIDE_STYLE ('',( #248 ) ) ;
#123 = CIRCLE ( 'NONE', #134, 0.1250000000000000833 ) ;
#124 = ADVANCED_FACE ( 'NONE', ( #175 ), #3, .T. ) ;
#125 = DIRECTION ( 'NONE',  ( -1.000000000000000000, 0.000000000000000000, 0.000000000000000000 ) ) ;
#126 = DIRECTION ( 'NONE',  ( -0.000000000000000000, -1.000000000000000000, -0.000000000000000000 ) ) ;
#127 = ORIENTED_EDGE ( 'NONE', *, *, #294, .T. ) ;
#128 = PRESENTATION_STYLE_ASSIGNMENT (( #19 ) ) ;
#129 = PRODUCT_DEFINITION_CONTEXT ( 'detailed design', #156, 'design' ) ;
#130 = DIMENSIONAL_EXPONENTS ( 1.000000000000000000, 0.000000000000000000, 0.000000000000000000, 0.000000000000000000, 0.000000000000000000, 0.000000000000000000, 0.000000000000000000 ) ;
#131 = FILL_AREA_STYLE_COLOUR ( '', #278 ) ;
#132 = SURFACE_STYLE_FILL_AREA ( #280 ) ;
#133 = FACE_OUTER_BOUND ( 'NONE', #39, .T. ) ;
#134 = AXIS2_PLACEMENT_3D ( 'NONE', #150, #243, #157 ) ;
#135 = SURFACE_SIDE_STYLE ('',( #41 ) ) ;
#136 = EDGE_CURVE ( 'NONE', #246, #258, #272, .T. ) ;
#137 = SURFACE_STYLE_USAGE ( .BOTH. , #264 ) ;
#138 = EDGE_LOOP ( 'NONE', ( #70, #164, #297, #180 ) ) ;
#139 = CARTESIAN_POINT ( 'NONE',  ( 0.000000000000000000, 0.000000000000000000, 0.000000000000000000 ) ) ;
#140 = ADVANCED_FACE ( 'NONE', ( #68 ), #173, .F. ) ;
#141 = UNCERTAINTY_MEASURE_WITH_UNIT (LENGTH_MEASURE( 1.000000000000000082E-05 ), #253, 'distance_accuracy_value', 'NONE');
#142 = DIRECTION ( 'NONE',  ( 4.082155997157848133E-17, -1.000000000000000000, 0.000000000000000000 ) ) ;
#143 = STYLED_ITEM ( 'NONE', ( #128 ), #84 ) ;
#144 =( NAMED_UNIT ( * ) PLANE_ANGLE_UNIT ( ) SI_UNIT ( $, .RADIAN. ) );
#145 = CIRCLE ( 'NONE', #187, 0.1250000000000000000 ) ;
#146 = UNCERTAINTY_MEASURE_WITH_UNIT (LENGTH_MEASURE( 1.000000000000000082E-05 ), #77, 'distance_accuracy_value', 'NONE');
#147 = DIRECTION ( 'NONE',  ( -1.000000000000000000, -4.082155997157848133E-17, 0.000000000000000000 ) ) ;
#148 =( GEOMETRIC_REPRESENTATION_CONTEXT ( 3 ) GLOBAL_UNCERTAINTY_ASSIGNED_CONTEXT ( ( #235 ) ) GLOBAL_UNIT_ASSIGNED_CONTEXT ( ( #111, #304, #112 ) ) REPRESENTATION_CONTEXT ( 'NONE', 'WORKASPACE' ) );
#149 = FILL_AREA_STYLE_COLOUR ( '', #265 ) ;
#150 = CARTESIAN_POINT ( 'NONE',  ( -6.123233995736772199E-17, 3.000000000000000444, 0.000000000000000000 ) ) ;
#151 =( NAMED_UNIT ( * ) PLANE_ANGLE_UNIT ( ) SI_UNIT ( $, .RADIAN. ) );
#152 =( LENGTH_UNIT ( ) NAMED_UNIT ( * ) SI_UNIT ( $, .METRE. ) );
#153 = LINE ( 'NONE', #247, #291 ) ;
#154 = LINE ( 'NONE', #182, #201 ) ;
#155 = AXIS2_PLACEMENT_3D ( 'NONE', #159, #13, #38 ) ;
#156 = APPLICATION_CONTEXT ( 'automotive_design' ) ;
#157 = DIRECTION ( 'NONE',  ( -1.000000000000000000, 0.000000000000000000, 0.000000000000000000 ) ) ;
#158 = ORIENTED_EDGE ( 'NONE', *, *, #231, .T. ) ;
#159 = CARTESIAN_POINT ( 'NONE',  ( 0.000000000000000000, 1.500000000000000222, 0.000000000000000000 ) ) ;
#160 = PLANE ( 'NONE',  #27 ) ;
#161 = CIRCLE ( 'NONE', #155, 0.1250000000000000000 ) ;
#162 = ORIENTED_EDGE ( 'NONE', *, *, #136, .T. ) ;
#163 = CARTESIAN_POINT ( 'NONE',  ( 0.1250000000000000278, 3.000000000000000444, 0.000000000000000000 ) ) ;
#164 = ORIENTED_EDGE ( 'NONE', *, *, #307, .T. ) ;
#165 = FILL_AREA_STYLE ('',( #284 ) ) ;
#166 = FACE_OUTER_BOUND ( 'NONE', #51, .T. ) ;
#167 = UNCERTAINTY_MEASURE_WITH_UNIT (LENGTH_MEASURE( 1.000000000000000082E-05 ), #216, 'distance_accuracy_value', 'NONE');
#168 = DIRECTION ( 'NONE',  ( -0.000000000000000000, -1.000000000000000000, -0.000000000000000000 ) ) ;
#169 = VERTEX_POINT ( 'NONE', #113 ) ;
#170 = ADVANCED_BREP_SHAPE_REPRESENTATION ( '82565', ( #210, #7, #46 ), #251 ) ;
#171 = AXIS2_PLACEMENT_3D ( 'NONE', #47, #88, #263 ) ;
#172 = APPLICATION_PROTOCOL_DEFINITION ( 'draft international standard', 'automotive_design', 1998, #156 ) ;
#173 = PLANE ( 'NONE',  #55 ) ;
#174 = FILL_AREA_STYLE_COLOUR ( '', #96 ) ;
#175 = FACE_OUTER_BOUND ( 'NONE', #138, .T. ) ;
#176 = CARTESIAN_POINT ( 'NONE',  ( 0.000000000000000000, 0.000000000000000000, -0.1250000000000000000 ) ) ;
#177 = ORIENTED_EDGE ( 'NONE', *, *, #217, .T. ) ;
#178 = PRESENTATION_STYLE_ASSIGNMENT (( #72 ) ) ;
#179 = MECHANICAL_DESIGN_GEOMETRIC_PRESENTATION_REPRESENTATION (  '', ( #115 ), #35 ) ;
#180 = ORIENTED_EDGE ( 'NONE', *, *, #196, .F. ) ;
#181 = STYLED_ITEM ( 'NONE', ( #194 ), #95 ) ;
#182 = CARTESIAN_POINT ( 'NONE',  ( -0.1250000000000001110, 3.000000000000000444, 0.000000000000000000 ) ) ;
#183 = CIRCLE ( 'NONE', #42, 0.1250000000000000000 ) ;
#184 = DIRECTION ( 'NONE',  ( -4.082155997157848133E-17, 1.000000000000000000, -0.000000000000000000 ) ) ;
#185 = MECHANICAL_DESIGN_GEOMETRIC_PRESENTATION_REPRESENTATION (  '', ( #143 ), #301 ) ;
#186 = DIRECTION ( 'NONE',  ( -4.082155997157848133E-17, 1.000000000000000000, -0.000000000000000000 ) ) ;
#187 = AXIS2_PLACEMENT_3D ( 'NONE', #25, #48, #293 ) ;
#188 = FILL_AREA_STYLE ('',( #131 ) ) ;
#189 = SURFACE_STYLE_USAGE ( .BOTH. , #135 ) ;
#190 = CARTESIAN_POINT ( 'NONE',  ( 0.000000000000000000, 0.000000000000000000, 0.000000000000000000 ) ) ;
#191 = VECTOR ( 'NONE', #99, 39.37007874015748143 ) ;
#192 = ORIENTED_EDGE ( 'NONE', *, *, #245, .T. ) ;
#193 = STYLED_ITEM ( 'NONE', ( #61 ), #6 ) ;
#194 = PRESENTATION_STYLE_ASSIGNMENT (( #65 ) ) ;
#195 = CARTESIAN_POINT ( 'NONE',  ( 0.000000000000000000, 1.500000000000000222, 0.000000000000000000 ) ) ;
#196 = EDGE_CURVE ( 'NONE', #32, #207, #123, .T. ) ;
#197 = UNCERTAINTY_MEASURE_WITH_UNIT (LENGTH_MEASURE( 1.000000000000000082E-05 ), #232, 'distance_accuracy_value', 'NONE');
#198 = ORIENTED_EDGE ( 'NONE', *, *, #257, .T. ) ;
#199 = ADVANCED_FACE ( 'NONE', ( #14 ), #33, .F. ) ;
#200 =( GEOMETRIC_REPRESENTATION_CONTEXT ( 3 ) GLOBAL_UNCERTAINTY_ASSIGNED_CONTEXT ( ( #114 ) ) GLOBAL_UNIT_ASSIGNED_CONTEXT ( ( #71, #233, #106 ) ) REPRESENTATION_CONTEXT ( 'NONE', 'WORKASPACE' ) );
#201 = VECTOR ( 'NONE', #286, 39.37007874015748143 ) ;
#202 =( NAMED_UNIT ( * ) SI_UNIT ( $, .STERADIAN. ) SOLID_ANGLE_UNIT ( ) );
#203 = DIRECTION ( 'NONE',  ( 0.000000000000000000, 0.000000000000000000, -1.000000000000000000 ) ) ;
#204 = AXIS2_PLACEMENT_3D ( 'NONE', #17, #186, #66 ) ;
#205 = COLOUR_RGB ( '',1.000000000000000000, 0.000000000000000000, 0.000000000000000000 ) ;
#206 = PRODUCT_DEFINITION ( 'UNKNOWN', '', #259, #129 ) ;
#207 = VERTEX_POINT ( 'NONE', #303 ) ;
#208 = DIRECTION ( 'NONE',  ( 1.000000000000000000, 4.082155997157848133E-17, 0.000000000000000000 ) ) ;
#209 = ORIENTED_EDGE ( 'NONE', *, *, #110, .F. ) ;
#210 = MANIFOLD_SOLID_BREP ( 'Revolve - Cutting Edge', #218 ) ;
#211 = CYLINDRICAL_SURFACE ( 'NONE', #37, 0.1250000000000000000 ) ;
#212 = DIRECTION ( 'NONE',  ( -0.000000000000000000, -1.000000000000000000, -0.000000000000000000 ) ) ;
#213 = AXIS2_PLACEMENT_3D ( 'NONE', #85, #255, #203 ) ;
#214 = CARTESIAN_POINT ( 'NONE',  ( -6.123233995736772199E-17, 3.000000000000000444, 0.000000000000000000 ) ) ;
#215 = FACE_OUTER_BOUND ( 'NONE', #54, .T. ) ;
#216 =( CONVERSION_BASED_UNIT ( 'INCH', #266 ) LENGTH_UNIT ( ) NAMED_UNIT ( #64 ) );
#217 = EDGE_CURVE ( 'NONE', #246, #242, #183, .T. ) ;
#218 = CLOSED_SHELL ( 'NONE', ( #6, #84, #57, #95 ) ) ;
#219 = AXIS2_PLACEMENT_3D ( 'NONE', #239, #8, #76 ) ;
#220 =( LENGTH_UNIT ( ) NAMED_UNIT ( * ) SI_UNIT ( $, .METRE. ) );
#221 = LENGTH_MEASURE_WITH_UNIT ( LENGTH_MEASURE( 0.02539999999999999897 ), #152 );
#222 = DIRECTION ( 'NONE',  ( -4.082155997157848133E-17, 1.000000000000000000, -0.000000000000000000 ) ) ;
#223 = DIRECTION ( 'NONE',  ( 0.000000000000000000, 0.000000000000000000, -1.000000000000000000 ) ) ;
#224 = PRODUCT_DEFINITION_SHAPE ( 'NONE', 'NONE',  #206 ) ;
#225 = ORIENTED_EDGE ( 'NONE', *, *, #217, .F. ) ;
#226 = PRESENTATION_LAYER_ASSIGNMENT (  '', '', ( #193 ) ) ;
#227 = DIRECTION ( 'NONE',  ( 0.000000000000000000, 0.000000000000000000, -1.000000000000000000 ) ) ;
#228 = PRESENTATION_LAYER_ASSIGNMENT (  '', '', ( #143 ) ) ;
#229 = ORIENTED_EDGE ( 'NONE', *, *, #103, .F. ) ;
#230 = PRODUCT ( '82565', '82565', '', ( #43 ) ) ;
#231 = EDGE_CURVE ( 'NONE', #258, #81, #237, .T. ) ;
#232 =( CONVERSION_BASED_UNIT ( 'INCH', #40 ) LENGTH_UNIT ( ) NAMED_UNIT ( #236 ) );
#233 =( NAMED_UNIT ( * ) PLANE_ANGLE_UNIT ( ) SI_UNIT ( $, .RADIAN. ) );
#234 = PRESENTATION_STYLE_ASSIGNMENT (( #59 ) ) ;
#235 = UNCERTAINTY_MEASURE_WITH_UNIT (LENGTH_MEASURE( 1.000000000000000082E-05 ), #111, 'distance_accuracy_value', 'NONE');
#236 = DIMENSIONAL_EXPONENTS ( 1.000000000000000000, 0.000000000000000000, 0.000000000000000000, 0.000000000000000000, 0.000000000000000000, 0.000000000000000000, 0.000000000000000000 ) ;
#237 = CIRCLE ( 'NONE', #213, 0.1250000000000000000 ) ;
#238 = LINE ( 'NONE', #254, #80 ) ;
#239 = CARTESIAN_POINT ( 'NONE',  ( 0.000000000000000000, 0.000000000000000000, 0.000000000000000000 ) ) ;
#240 =( GEOMETRIC_REPRESENTATION_CONTEXT ( 3 ) GLOBAL_UNCERTAINTY_ASSIGNED_CONTEXT ( ( #146 ) ) GLOBAL_UNIT_ASSIGNED_CONTEXT ( ( #77, #270, #244 ) ) REPRESENTATION_CONTEXT ( 'NONE', 'WORKASPACE' ) );
#241 = DIRECTION ( 'NONE',  ( -4.082155997157848133E-17, 1.000000000000000000, -0.000000000000000000 ) ) ;
#242 = VERTEX_POINT ( 'NONE', #271 ) ;
#243 = DIRECTION ( 'NONE',  ( -4.082155997157848133E-17, 1.000000000000000000, -0.000000000000000000 ) ) ;
#244 =( NAMED_UNIT ( * ) SI_UNIT ( $, .STERADIAN. ) SOLID_ANGLE_UNIT ( ) );
#245 = EDGE_CURVE ( 'NONE', #169, #32, #153, .T. ) ;
#246 = VERTEX_POINT ( 'NONE', #108 ) ;
#247 = CARTESIAN_POINT ( 'NONE',  ( 0.1249999999999999584, 3.000000000000000444, 1.530808498934191817E-17 ) ) ;
#248 = SURFACE_STYLE_FILL_AREA ( #53 ) ;
#249 = ADVANCED_FACE ( 'NONE', ( #166 ), #89, .T. ) ;
#250 = ORIENTED_EDGE ( 'NONE', *, *, #136, .F. ) ;
#251 =( GEOMETRIC_REPRESENTATION_CONTEXT ( 3 ) GLOBAL_UNCERTAINTY_ASSIGNED_CONTEXT ( ( #141 ) ) GLOBAL_UNIT_ASSIGNED_CONTEXT ( ( #253, #144, #300 ) ) REPRESENTATION_CONTEXT ( 'NONE', 'WORKASPACE' ) );
#252 = ORIENTED_EDGE ( 'NONE', *, *, #257, .F. ) ;
#253 =( CONVERSION_BASED_UNIT ( 'INCH', #302 ) LENGTH_UNIT ( ) NAMED_UNIT ( #277 ) );
#254 = CARTESIAN_POINT ( 'NONE',  ( 1.530808498934191509E-17, 0.000000000000000000, 0.1250000000000000000 ) ) ;
#255 = DIRECTION ( 'NONE',  ( -0.000000000000000000, -1.000000000000000000, -0.000000000000000000 ) ) ;
#256 =( LENGTH_UNIT ( ) NAMED_UNIT ( * ) SI_UNIT ( $, .METRE. ) );
#257 = EDGE_CURVE ( 'NONE', #242, #81, #238, .T. ) ;
#258 = VERTEX_POINT ( 'NONE', #176 ) ;
#259 = PRODUCT_DEFINITION_FORMATION_WITH_SPECIFIED_SOURCE ( 'ANY', '', #230, .NOT_KNOWN. ) ;
#260 = ORIENTED_EDGE ( 'NONE', *, *, #119, .F. ) ;
#261 =( LENGTH_UNIT ( ) NAMED_UNIT ( * ) SI_UNIT ( $, .METRE. ) );
#262 = CARTESIAN_POINT ( 'NONE',  ( 1.041499849070736517E-34, 1.500000000000000222, 0.000000000000000000 ) ) ;
#263 = DIRECTION ( 'NONE',  ( 0.000000000000000000, 0.000000000000000000, -1.000000000000000000 ) ) ;
#264 = SURFACE_SIDE_STYLE ('',( #69 ) ) ;
#265 = COLOUR_RGB ( '',1.000000000000000000, 0.000000000000000000, 0.000000000000000000 ) ;
#266 = LENGTH_MEASURE_WITH_UNIT ( LENGTH_MEASURE( 0.02539999999999999897 ), #261 );
#267 = FILL_AREA_STYLE ('',( #149 ) ) ;
#268 = ORIENTED_EDGE ( 'NONE', *, *, #294, .F. ) ;
#269 = CARTESIAN_POINT ( 'NONE',  ( 7.582401355855259480E-33, 1.500000000000000222, 0.000000000000000000 ) ) ;
#270 =( NAMED_UNIT ( * ) PLANE_ANGLE_UNIT ( ) SI_UNIT ( $, .RADIAN. ) );
#271 = CARTESIAN_POINT ( 'NONE',  ( 1.530808498934191509E-17, 1.500000000000000222, 0.1250000000000000000 ) ) ;
#272 = LINE ( 'NONE', #9, #191 ) ;
#273 = AXIS2_PLACEMENT_3D ( 'NONE', #28, #222, #118 ) ;
#274 = EDGE_CURVE ( 'NONE', #242, #246, #161, .T. ) ;
#275 = CARTESIAN_POINT ( 'NONE',  ( -0.1250000000000000000, 1.500000000000000222, 0.000000000000000000 ) ) ;
#276 = EDGE_LOOP ( 'NONE', ( #209, #34 ) ) ;
#277 = DIMENSIONAL_EXPONENTS ( 1.000000000000000000, 0.000000000000000000, 0.000000000000000000, 0.000000000000000000, 0.000000000000000000, 0.000000000000000000, 0.000000000000000000 ) ;
#278 = COLOUR_RGB ( '',1.000000000000000000, 0.000000000000000000, 0.000000000000000000 ) ;
#279 = FACE_OUTER_BOUND ( 'NONE', #21, .T. ) ;
#280 = FILL_AREA_STYLE ('',( #117 ) ) ;
#281 = SURFACE_SIDE_STYLE ('',( #58 ) ) ;
#282 = CARTESIAN_POINT ( 'NONE',  ( 0.000000000000000000, 0.000000000000000000, 0.000000000000000000 ) ) ;
#283 = ORIENTED_EDGE ( 'NONE', *, *, #231, .F. ) ;
#284 = FILL_AREA_STYLE_COLOUR ( '', #11 ) ;
#285 = DIRECTION ( 'NONE',  ( 0.000000000000000000, 0.000000000000000000, 1.000000000000000000 ) ) ;
#286 = DIRECTION ( 'NONE',  ( -4.082155997157848133E-17, 1.000000000000000000, -0.000000000000000000 ) ) ;
#287 =( CONVERSION_BASED_UNIT ( 'INCH', #221 ) LENGTH_UNIT ( ) NAMED_UNIT ( #87 ) );
#288 = ORIENTED_EDGE ( 'NONE', *, *, #110, .T. ) ;
#289 = LENGTH_MEASURE_WITH_UNIT ( LENGTH_MEASURE( 0.02539999999999999897 ), #121 );
#290 = CLOSED_SHELL ( 'NONE', ( #249, #140, #124, #199 ) ) ;
#291 = VECTOR ( 'NONE', #184, 39.37007874015748143 ) ;
#292 = COLOUR_RGB ( '',1.000000000000000000, 0.000000000000000000, 0.000000000000000000 ) ;
#293 = DIRECTION ( 'NONE',  ( -1.000000000000000000, 0.000000000000000000, 0.000000000000000000 ) ) ;
#294 = EDGE_CURVE ( 'NONE', #81, #258, #97, .T. ) ;
#295 = LENGTH_MEASURE_WITH_UNIT ( LENGTH_MEASURE( 0.02539999999999999897 ), #220 );
#296 = CARTESIAN_POINT ( 'NONE',  ( 0.000000000000000000, 1.500000000000000222, 0.000000000000000000 ) ) ;
#297 = ORIENTED_EDGE ( 'NONE', *, *, #103, .T. ) ;
#298 = DIRECTION ( 'NONE',  ( 0.000000000000000000, -0.000000000000000000, 1.000000000000000000 ) ) ;
#299 =( NAMED_UNIT ( * ) PLANE_ANGLE_UNIT ( ) SI_UNIT ( $, .RADIAN. ) );
#300 =( NAMED_UNIT ( * ) SI_UNIT ( $, .STERADIAN. ) SOLID_ANGLE_UNIT ( ) );
#301 =( GEOMETRIC_REPRESENTATION_CONTEXT ( 3 ) GLOBAL_UNCERTAINTY_ASSIGNED_CONTEXT ( ( #197 ) ) GLOBAL_UNIT_ASSIGNED_CONTEXT ( ( #232, #299, #12 ) ) REPRESENTATION_CONTEXT ( 'NONE', 'WORKASPACE' ) );
#302 = LENGTH_MEASURE_WITH_UNIT ( LENGTH_MEASURE( 0.02539999999999999897 ), #94 );
#303 = CARTESIAN_POINT ( 'NONE',  ( -0.1250000000000001388, 3.000000000000000444, 0.000000000000000000 ) ) ;
#304 =( NAMED_UNIT ( * ) PLANE_ANGLE_UNIT ( ) SI_UNIT ( $, .RADIAN. ) );
#305 = MECHANICAL_DESIGN_GEOMETRIC_PRESENTATION_REPRESENTATION (  '', ( #60 ), #26 ) ;
#306 = ORIENTED_EDGE ( 'NONE', *, *, #274, .F. ) ;
#307 = EDGE_CURVE ( 'NONE', #169, #86, #145, .T. ) ;
#308 = UNCERTAINTY_MEASURE_WITH_UNIT (LENGTH_MEASURE( 1.000000000000000082E-05 ), #287, 'distance_accuracy_value', 'NONE');
#309 =( NAMED_UNIT ( * ) SI_UNIT ( $, .STERADIAN. ) SOLID_ANGLE_UNIT ( ) );
ENDSEC;
END-ISO-10303-21;
