ISO-10303-21;
HEADER;
FILE_DESCRIPTION (( 'STEP AP214' ),
    '1' );
FILE_NAME ('Micro_AEMM-250-3X.STEP',
    '2022-03-15T14:35:31',
    ( '' ),
    ( '' ),
    'SwSTEP 2.0',
    'SolidWorks 2022',
    '' );
FILE_SCHEMA (( 'AUTOMOTIVE_DESIGN' ));
ENDSEC;

DATA;
#1 = ORIENTED_EDGE ( 'NONE', *, *, #299, .T. ) ;
#2 = APPLICATION_CONTEXT ( 'automotive_design' ) ;
#3 = DIRECTION ( 'NONE',  ( 0.000000000000000000, 0.000000000000000000, -1.000000000000000000 ) ) ;
#4 = ORIENTED_EDGE ( 'NONE', *, *, #256, .F. ) ;
#5 = AXIS2_PLACEMENT_3D ( 'NONE', #76, #240, #200 ) ;
#6 = DIRECTION ( 'NONE',  ( -1.000000000000000000, 0.000000000000000000, 0.000000000000000000 ) ) ;
#7 = ORIENTED_EDGE ( 'NONE', *, *, #292, .F. ) ;
#8 = FACE_OUTER_BOUND ( 'NONE', #134, .T. ) ;
#9 = ORIENTED_EDGE ( 'NONE', *, *, #81, .T. ) ;
#10 = DIRECTION ( 'NONE',  ( -1.224646799147353207E-16, -0.000000000000000000, -1.000000000000000000 ) ) ;
#11 = STYLED_ITEM ( 'NONE', ( #278 ), #44 ) ;
#12 = ADVANCED_FACE ( 'NONE', ( #293 ), #84, .T. ) ;
#13 = CARTESIAN_POINT ( 'NONE',  ( 0.4921260000000000634, 6.026805306771904375E-17, 5.000000000000000000 ) ) ;
#14 = CARTESIAN_POINT ( 'NONE',  ( 0.4916338740000000262, 6.020778501465132931E-17, -6.020778501465132931E-17 ) ) ;
#15 =( CONVERSION_BASED_UNIT ( 'INCH', #203 ) LENGTH_UNIT ( ) NAMED_UNIT ( #241 ) );
#16 = AXIS2_PLACEMENT_3D ( 'NONE', #245, #288, #226 ) ;
#17 = EDGE_CURVE ( 'NONE', #104, #111, #166, .T. ) ;
#18 = CARTESIAN_POINT ( 'NONE',  ( 7.373327120194471968E-33, 0.000000000000000000, 6.020778501465132931E-17 ) ) ;
#19 = DIRECTION ( 'NONE',  ( -1.224646799147353207E-16, -0.000000000000000000, -1.000000000000000000 ) ) ;
#20 = EDGE_CURVE ( 'NONE', #111, #102, #225, .T. ) ;
#21 = ORIENTED_EDGE ( 'NONE', *, *, #20, .F. ) ;
#22 = DIRECTION ( 'NONE',  ( 0.7071067811865459074, 8.659560562354913137E-17, -0.7071067811865491270 ) ) ;
#23 =( NAMED_UNIT ( * ) SI_UNIT ( $, .STERADIAN. ) SOLID_ANGLE_UNIT ( ) );
#24 = LENGTH_MEASURE_WITH_UNIT ( LENGTH_MEASURE( 0.02539999999999999897 ), #46 );
#25 = CYLINDRICAL_SURFACE ( 'NONE', #142, 0.4921260000000000634 ) ;
#26 = PRESENTATION_LAYER_ASSIGNMENT (  '', '', ( #11 ) ) ;
#27 = ADVANCED_FACE ( 'NONE', ( #88 ), #25, .T. ) ;
#28 = DIRECTION ( 'NONE',  ( 1.224646799147353207E-16, 0.000000000000000000, 1.000000000000000000 ) ) ;
#29 = ORIENTED_EDGE ( 'NONE', *, *, #159, .T. ) ;
#30 = EDGE_CURVE ( 'NONE', #198, #219, #95, .T. ) ;
#31 = FACE_OUTER_BOUND ( 'NONE', #101, .T. ) ;
#32 = LINE ( 'NONE', #55, #53 ) ;
#33 = DIRECTION ( 'NONE',  ( 0.000000000000000000, 0.000000000000000000, -1.000000000000000000 ) ) ;
#34 = ORIENTED_EDGE ( 'NONE', *, *, #292, .T. ) ;
#35 = EDGE_LOOP ( 'NONE', ( #184, #68, #21, #228 ) ) ;
#36 = CARTESIAN_POINT ( 'NONE',  ( -0.4921260000000000634, 0.000000000000000000, 4.985000000000000320 ) ) ;
#37 = ORIENTED_EDGE ( 'NONE', *, *, #110, .T. ) ;
#38 = DIRECTION ( 'NONE',  ( 1.000000000000000000, 0.000000000000000000, 0.000000000000000000 ) ) ;
#39 = CARTESIAN_POINT ( 'NONE',  ( 0.000000000000000000, 0.000000000000000000, 5.000000000000000000 ) ) ;
#40 =( NAMED_UNIT ( * ) SI_UNIT ( $, .STERADIAN. ) SOLID_ANGLE_UNIT ( ) );
#41 = EDGE_LOOP ( 'NONE', ( #7, #126, #138, #180 ) ) ;
#42 = DIRECTION ( 'NONE',  ( -0.1736481776669311083, 2.126576849575782084E-17, 0.9848077530122080203 ) ) ;
#43 = VERTEX_POINT ( 'NONE', #253 ) ;
#44 = MANIFOLD_SOLID_BREP ( 'Cut-Revolve1', #192 ) ;
#45 = SURFACE_SIDE_STYLE ('',( #47 ) ) ;
#46 =( LENGTH_UNIT ( ) NAMED_UNIT ( * ) SI_UNIT ( $, .METRE. ) );
#47 = SURFACE_STYLE_FILL_AREA ( #149 ) ;
#48 = CARTESIAN_POINT ( 'NONE',  ( 0.4771260000000004387, 5.843108286899805499E-17, 5.000000000000000000 ) ) ;
#49 = VECTOR ( 'NONE', #113, 39.37007874015748143 ) ;
#50 = PRODUCT_RELATED_PRODUCT_CATEGORY ( 'part', '', ( #120 ) ) ;
#51 = CYLINDRICAL_SURFACE ( 'NONE', #280, 0.4916338740000000262 ) ;
#52 = CARTESIAN_POINT ( 'NONE',  ( 0.000000000000000000, 0.000000000000000000, 0.000000000000000000 ) ) ;
#53 = VECTOR ( 'NONE', #156, 39.37007874015748143 ) ;
#54 = COLOUR_RGB ( '',0.7921568627450980005, 0.8196078431372548767, 0.9333333333333333481 ) ;
#55 = CARTESIAN_POINT ( 'NONE',  ( -0.4916338740000000262, 0.000000000000000000, 6.020778501465132931E-17 ) ) ;
#56 = ORIENTED_EDGE ( 'NONE', *, *, #75, .T. ) ;
#57 = ORIENTED_EDGE ( 'NONE', *, *, #154, .T. ) ;
#58 = UNCERTAINTY_MEASURE_WITH_UNIT (LENGTH_MEASURE( 1.000000000000000082E-05 ), #171, 'distance_accuracy_value', 'NONE');
#59 = CARTESIAN_POINT ( 'NONE',  ( -0.4916338740000000262, 0.000000000000000000, 1.204155700293026586E-16 ) ) ;
#60 = ORIENTED_EDGE ( 'NONE', *, *, #81, .F. ) ;
#61 = PRODUCT_DEFINITION_SHAPE ( 'NONE', 'NONE',  #218 ) ;
#62 = ORIENTED_EDGE ( 'NONE', *, *, #223, .T. ) ;
#63 = AXIS2_PLACEMENT_3D ( 'NONE', #151, #28, #70 ) ;
#64 = EDGE_CURVE ( 'NONE', #157, #102, #206, .T. ) ;
#65 = SURFACE_STYLE_USAGE ( .BOTH. , #150 ) ;
#66 =( CONVERSION_BASED_UNIT ( 'INCH', #24 ) LENGTH_UNIT ( ) NAMED_UNIT ( #215 ) );
#67 = CARTESIAN_POINT ( 'NONE',  ( 0.000000000000000000, 0.000000000000000000, 5.000000000000000000 ) ) ;
#68 = ORIENTED_EDGE ( 'NONE', *, *, #144, .T. ) ;
#69 = PRESENTATION_STYLE_ASSIGNMENT (( #65 ) ) ;
#70 = DIRECTION ( 'NONE',  ( 1.000000000000000000, 0.000000000000000000, 0.000000000000000000 ) ) ;
#71 = DIMENSIONAL_EXPONENTS ( 1.000000000000000000, 0.000000000000000000, 0.000000000000000000, 0.000000000000000000, 0.000000000000000000, 0.000000000000000000, 0.000000000000000000 ) ;
#72 = CYLINDRICAL_SURFACE ( 'NONE', #252, 0.4921260000000000634 ) ;
#73 = DIRECTION ( 'NONE',  ( 1.000000000000000000, 0.000000000000000000, 0.000000000000000000 ) ) ;
#74 = CONICAL_SURFACE ( 'NONE', #63, 0.4916338739999999707, 0.1745329251994338082 ) ;
#75 = EDGE_CURVE ( 'NONE', #102, #111, #193, .T. ) ;
#76 = CARTESIAN_POINT ( 'NONE',  ( 0.000000000000000000, 0.000000000000000000, 0.000000000000000000 ) ) ;
#77 = DIRECTION ( 'NONE',  ( -1.000000000000000000, 0.000000000000000000, 0.000000000000000000 ) ) ;
#78 =( LENGTH_UNIT ( ) NAMED_UNIT ( * ) SI_UNIT ( $, .METRE. ) );
#79 = ORIENTED_EDGE ( 'NONE', *, *, #159, .F. ) ;
#80 = VECTOR ( 'NONE', #42, 39.37007874015747433 ) ;
#81 = EDGE_CURVE ( 'NONE', #219, #222, #289, .T. ) ;
#82 =( GEOMETRIC_REPRESENTATION_CONTEXT ( 3 ) GLOBAL_UNCERTAINTY_ASSIGNED_CONTEXT ( ( #58 ) ) GLOBAL_UNIT_ASSIGNED_CONTEXT ( ( #171, #169, #23 ) ) REPRESENTATION_CONTEXT ( 'NONE', 'WORKASPACE' ) );
#83 = DIRECTION ( 'NONE',  ( 0.000000000000000000, 0.000000000000000000, -1.000000000000000000 ) ) ;
#84 = CYLINDRICAL_SURFACE ( 'NONE', #257, 0.4916338740000000262 ) ;
#85 = AXIS2_PLACEMENT_3D ( 'NONE', #281, #260, #108 ) ;
#86 = PRODUCT_DEFINITION_FORMATION_WITH_SPECIFIED_SOURCE ( 'ANY', '', #120, .NOT_KNOWN. ) ;
#87 = ORIENTED_EDGE ( 'NONE', *, *, #154, .F. ) ;
#88 = FACE_OUTER_BOUND ( 'NONE', #35, .T. ) ;
#89 =( LENGTH_UNIT ( ) NAMED_UNIT ( * ) SI_UNIT ( $, .METRE. ) );
#90 = CONICAL_SURFACE ( 'NONE', #263, 0.4916338739999999707, 0.1745329251994338082 ) ;
#91 = CARTESIAN_POINT ( 'NONE',  ( 0.000000000000000000, 0.000000000000000000, 4.985000000000000320 ) ) ;
#92 = SURFACE_STYLE_FILL_AREA ( #234 ) ;
#93 = ORIENTED_EDGE ( 'NONE', *, *, #110, .F. ) ;
#94 = ORIENTED_EDGE ( 'NONE', *, *, #64, .T. ) ;
#95 = LINE ( 'NONE', #48, #235 ) ;
#96 = ORIENTED_EDGE ( 'NONE', *, *, #272, .T. ) ;
#97 = CARTESIAN_POINT ( 'NONE',  ( 0.000000000000000000, 0.000000000000000000, 5.000000000000000000 ) ) ;
#98 = AXIS2_PLACEMENT_3D ( 'NONE', #145, #123, #232 ) ;
#99 = AXIS2_PLACEMENT_3D ( 'NONE', #39, #83, #116 ) ;
#100 = CARTESIAN_POINT ( 'NONE',  ( 0.000000000000000000, 0.000000000000000000, 4.985000000000000320 ) ) ;
#101 = EDGE_LOOP ( 'NONE', ( #141, #93, #94, #56 ) ) ;
#102 = VERTEX_POINT ( 'NONE', #199 ) ;
#103 = DIRECTION ( 'NONE',  ( -1.224646799147353207E-16, -0.000000000000000000, -1.000000000000000000 ) ) ;
#104 = VERTEX_POINT ( 'NONE', #212 ) ;
#105 = ADVANCED_FACE ( 'NONE', ( #131 ), #72, .T. ) ;
#106 = DIRECTION ( 'NONE',  ( 1.000000000000000000, 0.000000000000000000, 0.000000000000000000 ) ) ;
#107 = CIRCLE ( 'NONE', #271, 0.4916338740000000262 ) ;
#108 = DIRECTION ( 'NONE',  ( 1.000000000000000000, 0.000000000000000000, -0.000000000000000000 ) ) ;
#109 = UNCERTAINTY_MEASURE_WITH_UNIT (LENGTH_MEASURE( 1.000000000000000082E-05 ), #15, 'distance_accuracy_value', 'NONE');
#110 = EDGE_CURVE ( 'NONE', #157, #104, #262, .T. ) ;
#111 = VERTEX_POINT ( 'NONE', #155 ) ;
#112 = MECHANICAL_DESIGN_GEOMETRIC_PRESENTATION_REPRESENTATION (  '', ( #11 ), #82 ) ;
#113 = DIRECTION ( 'NONE',  ( -0.7071067811865459074, 0.000000000000000000, -0.7071067811865491270 ) ) ;
#114 = ORIENTED_EDGE ( 'NONE', *, *, #208, .F. ) ;
#115 = APPLICATION_CONTEXT ( 'automotive_design' ) ;
#116 = DIRECTION ( 'NONE',  ( -1.000000000000000000, 0.000000000000000000, 0.000000000000000000 ) ) ;
#117 = DIRECTION ( 'NONE',  ( 1.000000000000000000, 0.000000000000000000, 0.000000000000000000 ) ) ;
#118 = MECHANICAL_DESIGN_GEOMETRIC_PRESENTATION_REPRESENTATION (  '', ( #273 ), #202 ) ;
#119 = FILL_AREA_STYLE_COLOUR ( '', #239 ) ;
#120 = PRODUCT ( 'Micro_AEMM-250-3X', 'Micro_AEMM-250-3X', '', ( #231 ) ) ;
#121 = ADVANCED_FACE ( 'NONE', ( #238 ), #205, .T. ) ;
#122 = FILL_AREA_STYLE_COLOUR ( '', #54 ) ;
#123 = DIRECTION ( 'NONE',  ( -1.224646799147353207E-16, -0.000000000000000000, -1.000000000000000000 ) ) ;
#124 = AXIS2_PLACEMENT_3D ( 'NONE', #185, #181, #38 ) ;
#125 = ORIENTED_EDGE ( 'NONE', *, *, #75, .F. ) ;
#126 = ORIENTED_EDGE ( 'NONE', *, *, #17, .T. ) ;
#127 = CARTESIAN_POINT ( 'NONE',  ( 2.410722122708761257E-16, 0.000000000000000000, 1.968503999999999809 ) ) ;
#128 = APPLICATION_PROTOCOL_DEFINITION ( 'draft international standard', 'automotive_design', 1998, #115 ) ;
#129 = CARTESIAN_POINT ( 'NONE',  ( 0.000000000000000000, 0.000000000000000000, 5.000000000000000000 ) ) ;
#130 = AXIS2_PLACEMENT_3D ( 'NONE', #100, #216, #266 ) ;
#131 = FACE_OUTER_BOUND ( 'NONE', #209, .T. ) ;
#132 = FACE_OUTER_BOUND ( 'NONE', #41, .T. ) ;
#133 = LINE ( 'NONE', #221, #135 ) ;
#134 = EDGE_LOOP ( 'NONE', ( #270, #37, #57, #4 ) ) ;
#135 = VECTOR ( 'NONE', #267, 39.37007874015748143 ) ;
#136 = AXIS2_PLACEMENT_3D ( 'NONE', #237, #10, #286 ) ;
#137 = CIRCLE ( 'NONE', #16, 0.4916338739999999707 ) ;
#138 = ORIENTED_EDGE ( 'NONE', *, *, #20, .T. ) ;
#139 = DIRECTION ( 'NONE',  ( -1.224646799147353207E-16, -0.000000000000000000, -1.000000000000000000 ) ) ;
#140 = DIRECTION ( 'NONE',  ( -1.000000000000000000, 0.000000000000000000, 1.224646799147353454E-16 ) ) ;
#141 = ORIENTED_EDGE ( 'NONE', *, *, #17, .F. ) ;
#142 = AXIS2_PLACEMENT_3D ( 'NONE', #67, #170, #255 ) ;
#143 = CONICAL_SURFACE ( 'NONE', #99, 0.4771260000000004387, 0.7853981633974460586 ) ;
#144 = EDGE_CURVE ( 'NONE', #219, #102, #173, .T. ) ;
#145 = CARTESIAN_POINT ( 'NONE',  ( 2.414140093845428801E-16, 0.000000000000000000, 1.971294985236761610 ) ) ;
#146 = ADVANCED_BREP_SHAPE_REPRESENTATION ( 'Micro_AEMM-250-3X', ( #44, #269 ), #165 ) ;
#147 = ADVANCED_FACE ( 'NONE', ( #174 ), #214, .F. ) ;
#148 = UNCERTAINTY_MEASURE_WITH_UNIT (LENGTH_MEASURE( 1.000000000000000082E-05 ), #66, 'distance_accuracy_value', 'NONE');
#149 = FILL_AREA_STYLE ('',( #119 ) ) ;
#150 = SURFACE_SIDE_STYLE ('',( #92 ) ) ;
#151 = CARTESIAN_POINT ( 'NONE',  ( 2.410722122708761257E-16, 0.000000000000000000, 1.968503999999999809 ) ) ;
#152 = PRODUCT_DEFINITION_CONTEXT ( 'detailed design', #2, 'design' ) ;
#153 = LINE ( 'NONE', #14, #284 ) ;
#154 = EDGE_CURVE ( 'NONE', #104, #210, #32, .T. ) ;
#155 = CARTESIAN_POINT ( 'NONE',  ( -0.4921259999999997858, 0.000000000000000000, 1.971294985236761610 ) ) ;
#156 = DIRECTION ( 'NONE',  ( -1.224646799147353207E-16, -0.000000000000000000, -1.000000000000000000 ) ) ;
#157 = VERTEX_POINT ( 'NONE', #177 ) ;
#158 = CARTESIAN_POINT ( 'NONE',  ( 0.4921260000000000634, 6.026805306771904375E-17, 4.985000000000000320 ) ) ;
#159 = EDGE_CURVE ( 'NONE', #43, #198, #164, .T. ) ;
#160 = DIRECTION ( 'NONE',  ( -1.000000000000000000, 0.000000000000000000, 1.224646799147353454E-16 ) ) ;
#161 = DIRECTION ( 'NONE',  ( -1.224646799147353207E-16, -0.000000000000000000, -1.000000000000000000 ) ) ;
#162 = EDGE_LOOP ( 'NONE', ( #204, #182, #187, #227 ) ) ;
#163 = ADVANCED_FACE ( 'NONE', ( #179 ), #282, .T. ) ;
#164 = CIRCLE ( 'NONE', #220, 0.4771260000000004387 ) ;
#165 =( GEOMETRIC_REPRESENTATION_CONTEXT ( 3 ) GLOBAL_UNCERTAINTY_ASSIGNED_CONTEXT ( ( #109 ) ) GLOBAL_UNIT_ASSIGNED_CONTEXT ( ( #15, #291, #40 ) ) REPRESENTATION_CONTEXT ( 'NONE', 'WORKASPACE' ) );
#166 = LINE ( 'NONE', #249, #80 ) ;
#167 = EDGE_LOOP ( 'NONE', ( #34, #285, #114, #87 ) ) ;
#168 = CIRCLE ( 'NONE', #136, 0.4916338740000000262 ) ;
#169 =( NAMED_UNIT ( * ) PLANE_ANGLE_UNIT ( ) SI_UNIT ( $, .RADIAN. ) );
#170 = DIRECTION ( 'NONE',  ( -0.000000000000000000, -0.000000000000000000, -1.000000000000000000 ) ) ;
#171 =( CONVERSION_BASED_UNIT ( 'INCH', #251 ) LENGTH_UNIT ( ) NAMED_UNIT ( #71 ) );
#172 = ORIENTED_EDGE ( 'NONE', *, *, #256, .T. ) ;
#173 = LINE ( 'NONE', #13, #183 ) ;
#174 = FACE_OUTER_BOUND ( 'NONE', #176, .T. ) ;
#175 = DIRECTION ( 'NONE',  ( -1.000000000000000000, 0.000000000000000000, 1.224646799147353454E-16 ) ) ;
#176 = EDGE_LOOP ( 'NONE', ( #230, #172 ) ) ;
#177 = CARTESIAN_POINT ( 'NONE',  ( 0.4916338740000002483, 0.000000000000000000, 1.968503999999999809 ) ) ;
#178 = EDGE_CURVE ( 'NONE', #222, #219, #248, .T. ) ;
#179 = FACE_OUTER_BOUND ( 'NONE', #224, .T. ) ;
#180 = ORIENTED_EDGE ( 'NONE', *, *, #64, .F. ) ;
#181 = DIRECTION ( 'NONE',  ( 0.000000000000000000, 0.000000000000000000, 1.000000000000000000 ) ) ;
#182 = ORIENTED_EDGE ( 'NONE', *, *, #30, .T. ) ;
#183 = VECTOR ( 'NONE', #283, 39.37007874015748143 ) ;
#184 = ORIENTED_EDGE ( 'NONE', *, *, #178, .T. ) ;
#185 = CARTESIAN_POINT ( 'NONE',  ( 0.000000000000000000, 0.000000000000000000, 5.000000000000000000 ) ) ;
#186 = DIRECTION ( 'NONE',  ( -1.224646799147353207E-16, -0.000000000000000000, -1.000000000000000000 ) ) ;
#187 = ORIENTED_EDGE ( 'NONE', *, *, #178, .F. ) ;
#188 = ADVANCED_FACE ( 'NONE', ( #8 ), #51, .T. ) ;
#189 = AXIS2_PLACEMENT_3D ( 'NONE', #242, #33, #77 ) ;
#190 = CIRCLE ( 'NONE', #124, 0.4771260000000004387 ) ;
#191 = ADVANCED_FACE ( 'NONE', ( #132 ), #90, .T. ) ;
#192 = CLOSED_SHELL ( 'NONE', ( #12, #191, #121, #27, #105, #163, #264, #233, #188, #147 ) ) ;
#193 = CIRCLE ( 'NONE', #98, 0.4921260000000000634 ) ;
#194 = APPLICATION_PROTOCOL_DEFINITION ( 'draft international standard', 'automotive_design', 1998, #2 ) ;
#195 = DIRECTION ( 'NONE',  ( -1.000000000000000000, 0.000000000000000000, 0.000000000000000000 ) ) ;
#196 = DIRECTION ( 'NONE',  ( 0.000000000000000000, 0.000000000000000000, 1.000000000000000000 ) ) ;
#197 = DIRECTION ( 'NONE',  ( -1.224646799147353207E-16, -0.000000000000000000, -1.000000000000000000 ) ) ;
#198 = VERTEX_POINT ( 'NONE', #287 ) ;
#199 = CARTESIAN_POINT ( 'NONE',  ( 0.4921260000000002299, 6.026805306771906840E-17, 1.971294985236761610 ) ) ;
#200 = DIRECTION ( 'NONE',  ( 1.000000000000000000, 0.000000000000000000, -0.000000000000000000 ) ) ;
#201 = CARTESIAN_POINT ( 'NONE',  ( -0.4771260000000004387, 0.000000000000000000, 5.000000000000000000 ) ) ;
#202 =( GEOMETRIC_REPRESENTATION_CONTEXT ( 3 ) GLOBAL_UNCERTAINTY_ASSIGNED_CONTEXT ( ( #148 ) ) GLOBAL_UNIT_ASSIGNED_CONTEXT ( ( #66, #211, #297 ) ) REPRESENTATION_CONTEXT ( 'NONE', 'WORKASPACE' ) );
#203 = LENGTH_MEASURE_WITH_UNIT ( LENGTH_MEASURE( 0.02539999999999999897 ), #78 );
#204 = ORIENTED_EDGE ( 'NONE', *, *, #299, .F. ) ;
#205 = CONICAL_SURFACE ( 'NONE', #189, 0.4771260000000004387, 0.7853981633974460586 ) ;
#206 = LINE ( 'NONE', #296, #207 ) ;
#207 = VECTOR ( 'NONE', #275, 39.37007874015748143 ) ;
#208 = EDGE_CURVE ( 'NONE', #210, #279, #168, .T. ) ;
#209 = EDGE_LOOP ( 'NONE', ( #247, #9, #62, #125 ) ) ;
#210 = VERTEX_POINT ( 'NONE', #59 ) ;
#211 =( NAMED_UNIT ( * ) PLANE_ANGLE_UNIT ( ) SI_UNIT ( $, .RADIAN. ) );
#212 = CARTESIAN_POINT ( 'NONE',  ( -0.4916338739999996932, 6.023791904118517420E-17, 1.968503999999999809 ) ) ;
#213 = AXIS2_PLACEMENT_3D ( 'NONE', #229, #19, #117 ) ;
#214 = PLANE ( 'NONE',  #5 ) ;
#215 = DIMENSIONAL_EXPONENTS ( 1.000000000000000000, 0.000000000000000000, 0.000000000000000000, 0.000000000000000000, 0.000000000000000000, 0.000000000000000000, 0.000000000000000000 ) ;
#216 = DIRECTION ( 'NONE',  ( 0.000000000000000000, 0.000000000000000000, -1.000000000000000000 ) ) ;
#217 = DIRECTION ( 'NONE',  ( 1.224646799147353207E-16, 0.000000000000000000, 1.000000000000000000 ) ) ;
#218 = PRODUCT_DEFINITION ( 'UNKNOWN', '', #86, #152 ) ;
#219 = VERTEX_POINT ( 'NONE', #158 ) ;
#220 = AXIS2_PLACEMENT_3D ( 'NONE', #129, #196, #261 ) ;
#221 = CARTESIAN_POINT ( 'NONE',  ( -0.4921260000000000634, 0.000000000000000000, 5.000000000000000000 ) ) ;
#222 = VERTEX_POINT ( 'NONE', #36 ) ;
#223 = EDGE_CURVE ( 'NONE', #222, #111, #133, .T. ) ;
#224 = EDGE_LOOP ( 'NONE', ( #29, #1 ) ) ;
#225 = CIRCLE ( 'NONE', #213, 0.4921260000000000634 ) ;
#226 = DIRECTION ( 'NONE',  ( -1.000000000000000000, 0.000000000000000000, 0.000000000000000000 ) ) ;
#227 = ORIENTED_EDGE ( 'NONE', *, *, #272, .F. ) ;
#228 = ORIENTED_EDGE ( 'NONE', *, *, #223, .F. ) ;
#229 = CARTESIAN_POINT ( 'NONE',  ( 2.414140093845428801E-16, 0.000000000000000000, 1.971294985236761610 ) ) ;
#230 = ORIENTED_EDGE ( 'NONE', *, *, #208, .T. ) ;
#231 = PRODUCT_CONTEXT ( 'NONE', #115, 'mechanical' ) ;
#232 = DIRECTION ( 'NONE',  ( 1.000000000000000000, 0.000000000000000000, 0.000000000000000000 ) ) ;
#233 = ADVANCED_FACE ( 'NONE', ( #31 ), #74, .T. ) ;
#234 = FILL_AREA_STYLE ('',( #122 ) ) ;
#235 = VECTOR ( 'NONE', #22, 39.37007874015748143 ) ;
#236 = EDGE_CURVE ( 'NONE', #157, #279, #153, .T. ) ;
#237 = CARTESIAN_POINT ( 'NONE',  ( 7.373327120194471968E-33, 0.000000000000000000, 6.020778501465132931E-17 ) ) ;
#238 = FACE_OUTER_BOUND ( 'NONE', #162, .T. ) ;
#239 = COLOUR_RGB ( '',0.7921568627450980005, 0.8196078431372548767, 0.9333333333333333481 ) ;
#240 = DIRECTION ( 'NONE',  ( 0.000000000000000000, 0.000000000000000000, 1.000000000000000000 ) ) ;
#241 = DIMENSIONAL_EXPONENTS ( 1.000000000000000000, 0.000000000000000000, 0.000000000000000000, 0.000000000000000000, 0.000000000000000000, 0.000000000000000000, 0.000000000000000000 ) ;
#242 = CARTESIAN_POINT ( 'NONE',  ( 0.000000000000000000, 0.000000000000000000, 5.000000000000000000 ) ) ;
#243 = DIRECTION ( 'NONE',  ( -0.000000000000000000, -0.000000000000000000, -1.000000000000000000 ) ) ;
#244 = AXIS2_PLACEMENT_3D ( 'NONE', #91, #3, #106 ) ;
#245 = CARTESIAN_POINT ( 'NONE',  ( 2.410722122708761257E-16, 0.000000000000000000, 1.968503999999999809 ) ) ;
#246 = FACE_OUTER_BOUND ( 'NONE', #250, .T. ) ;
#247 = ORIENTED_EDGE ( 'NONE', *, *, #144, .F. ) ;
#248 = CIRCLE ( 'NONE', #130, 0.4921260000000000634 ) ;
#249 = CARTESIAN_POINT ( 'NONE',  ( -0.4916338739999996932, 6.020778501465131698E-17, 1.968503999999999809 ) ) ;
#250 = EDGE_LOOP ( 'NONE', ( #295, #79, #96, #60 ) ) ;
#251 = LENGTH_MEASURE_WITH_UNIT ( LENGTH_MEASURE( 0.02539999999999999897 ), #89 );
#252 = AXIS2_PLACEMENT_3D ( 'NONE', #97, #243, #195 ) ;
#253 = CARTESIAN_POINT ( 'NONE',  ( -0.4771260000000004387, 0.000000000000000000, 5.000000000000000000 ) ) ;
#254 = SURFACE_STYLE_USAGE ( .BOTH. , #45 ) ;
#255 = DIRECTION ( 'NONE',  ( -1.000000000000000000, 0.000000000000000000, 0.000000000000000000 ) ) ;
#256 = EDGE_CURVE ( 'NONE', #279, #210, #107, .T. ) ;
#257 = AXIS2_PLACEMENT_3D ( 'NONE', #274, #186, #140 ) ;
#258 = DIRECTION ( 'NONE',  ( 0.000000000000000000, 0.000000000000000000, 1.000000000000000000 ) ) ;
#259 = CARTESIAN_POINT ( 'NONE',  ( 0.000000000000000000, 0.000000000000000000, 0.000000000000000000 ) ) ;
#260 = DIRECTION ( 'NONE',  ( 0.000000000000000000, 0.000000000000000000, 1.000000000000000000 ) ) ;
#261 = DIRECTION ( 'NONE',  ( 1.000000000000000000, 0.000000000000000000, 0.000000000000000000 ) ) ;
#262 = CIRCLE ( 'NONE', #268, 0.4916338739999999707 ) ;
#263 = AXIS2_PLACEMENT_3D ( 'NONE', #127, #217, #73 ) ;
#264 = ADVANCED_FACE ( 'NONE', ( #246 ), #143, .T. ) ;
#265 = CARTESIAN_POINT ( 'NONE',  ( 2.410722122708761257E-16, 0.000000000000000000, 1.968503999999999809 ) ) ;
#266 = DIRECTION ( 'NONE',  ( 1.000000000000000000, 0.000000000000000000, 0.000000000000000000 ) ) ;
#267 = DIRECTION ( 'NONE',  ( -0.000000000000000000, -0.000000000000000000, -1.000000000000000000 ) ) ;
#268 = AXIS2_PLACEMENT_3D ( 'NONE', #265, #197, #6 ) ;
#269 = AXIS2_PLACEMENT_3D ( 'NONE', #259, #258, #277 ) ;
#270 = ORIENTED_EDGE ( 'NONE', *, *, #236, .F. ) ;
#271 = AXIS2_PLACEMENT_3D ( 'NONE', #18, #161, #160 ) ;
#272 = EDGE_CURVE ( 'NONE', #43, #222, #294, .T. ) ;
#273 = STYLED_ITEM ( 'NONE', ( #69 ), #146 ) ;
#274 = CARTESIAN_POINT ( 'NONE',  ( 0.000000000000000000, 0.000000000000000000, 0.000000000000000000 ) ) ;
#275 = DIRECTION ( 'NONE',  ( 0.1736481776669313026, 0.000000000000000000, 0.9848077530122077983 ) ) ;
#276 = SHAPE_DEFINITION_REPRESENTATION ( #61, #146 ) ;
#277 = DIRECTION ( 'NONE',  ( 1.000000000000000000, 0.000000000000000000, 0.000000000000000000 ) ) ;
#278 = PRESENTATION_STYLE_ASSIGNMENT (( #254 ) ) ;
#279 = VERTEX_POINT ( 'NONE', #290 ) ;
#280 = AXIS2_PLACEMENT_3D ( 'NONE', #52, #103, #175 ) ;
#281 = CARTESIAN_POINT ( 'NONE',  ( 0.000000000000000000, 0.000000000000000000, 5.000000000000000000 ) ) ;
#282 = PLANE ( 'NONE',  #85 ) ;
#283 = DIRECTION ( 'NONE',  ( -0.000000000000000000, -0.000000000000000000, -1.000000000000000000 ) ) ;
#284 = VECTOR ( 'NONE', #139, 39.37007874015748143 ) ;
#285 = ORIENTED_EDGE ( 'NONE', *, *, #236, .T. ) ;
#286 = DIRECTION ( 'NONE',  ( -1.000000000000000000, 0.000000000000000000, 1.224646799147353454E-16 ) ) ;
#287 = CARTESIAN_POINT ( 'NONE',  ( 0.4771260000000004387, 5.934956796835854937E-17, 5.000000000000000000 ) ) ;
#288 = DIRECTION ( 'NONE',  ( -1.224646799147353207E-16, -0.000000000000000000, -1.000000000000000000 ) ) ;
#289 = CIRCLE ( 'NONE', #244, 0.4921260000000000634 ) ;
#290 = CARTESIAN_POINT ( 'NONE',  ( 0.4916338740000000262, 6.020778501465132931E-17, 0.000000000000000000 ) ) ;
#291 =( NAMED_UNIT ( * ) PLANE_ANGLE_UNIT ( ) SI_UNIT ( $, .RADIAN. ) );
#292 = EDGE_CURVE ( 'NONE', #104, #157, #137, .T. ) ;
#293 = FACE_OUTER_BOUND ( 'NONE', #167, .T. ) ;
#294 = LINE ( 'NONE', #201, #49 ) ;
#295 = ORIENTED_EDGE ( 'NONE', *, *, #30, .F. ) ;
#296 = CARTESIAN_POINT ( 'NONE',  ( 0.4916338740000002483, 0.000000000000000000, 1.968503999999999809 ) ) ;
#297 =( NAMED_UNIT ( * ) SI_UNIT ( $, .STERADIAN. ) SOLID_ANGLE_UNIT ( ) );
#298 = PRESENTATION_LAYER_ASSIGNMENT (  '', '', ( #273 ) ) ;
#299 = EDGE_CURVE ( 'NONE', #198, #43, #190, .T. ) ;
ENDSEC;
END-ISO-10303-21;
