ISO-10303-21;
HEADER;
FILE_DESCRIPTION (( 'STEP AP214' ),
    '1' );
FILE_NAME ('81713.STEP',
    '2023-06-23T02:55:59',
    ( '' ),
    ( '' ),
    'SwSTEP 2.0',
    'SolidWorks 2023',
    '' );
FILE_SCHEMA (( 'AUTOMOTIVE_DESIGN' ));
ENDSEC;

DATA;
#1 = ORIENTED_EDGE ( 'NONE', *, *, #196, .T. ) ;
#2 = PRODUCT_RELATED_PRODUCT_CATEGORY ( 'part', '', ( #209 ) ) ;
#3 = CARTESIAN_POINT ( 'NONE',  ( 0.000000000000000000, 0.000000000000000000, 0.000000000000000000 ) ) ;
#4 = DIRECTION ( 'NONE',  ( -3.498990854706726443E-17, 1.000000000000000000, -0.000000000000000000 ) ) ;
#5 = FILL_AREA_STYLE_COLOUR ( '', #86 ) ;
#6 = STYLED_ITEM ( 'NONE', ( #236 ), #160 ) ;
#7 = AXIS2_PLACEMENT_3D ( 'NONE', #203, #171, #58 ) ;
#8 = SURFACE_STYLE_USAGE ( .BOTH. , #167 ) ;
#9 = FACE_OUTER_BOUND ( 'NONE', #110, .T. ) ;
#10 = STYLED_ITEM ( 'NONE', ( #260 ), #150 ) ;
#11 = CARTESIAN_POINT ( 'NONE',  ( 1.913510623667739463E-17, 0.000000000000000000, 0.1562500000000000000 ) ) ;
#12 = UNCERTAINTY_MEASURE_WITH_UNIT (LENGTH_MEASURE( 1.000000000000000082E-05 ), #305, 'distance_accuracy_value', 'NONE');
#13 = VERTEX_POINT ( 'NONE', #134 ) ;
#14 = DIRECTION ( 'NONE',  ( 1.000000000000000000, 3.498990854706726443E-17, 0.000000000000000000 ) ) ;
#15 = MANIFOLD_SOLID_BREP ( 'Revolve - Tool Body (Straight Shanked)', #84 ) ;
#16 = CARTESIAN_POINT ( 'NONE',  ( -6.123233995736772199E-17, 3.000000000000000444, 0.000000000000000000 ) ) ;
#17 = STYLED_ITEM ( 'NONE', ( #246 ), #220 ) ;
#18 = VERTEX_POINT ( 'NONE', #286 ) ;
#19 = DIMENSIONAL_EXPONENTS ( 1.000000000000000000, 0.000000000000000000, 0.000000000000000000, 0.000000000000000000, 0.000000000000000000, 0.000000000000000000, 0.000000000000000000 ) ;
#20 = PRESENTATION_LAYER_ASSIGNMENT (  '', '', ( #63 ) ) ;
#21 = SURFACE_SIDE_STYLE ('',( #162 ) ) ;
#22 = VECTOR ( 'NONE', #56, 39.37007874015748143 ) ;
#23 = APPLICATION_CONTEXT ( 'automotive_design' ) ;
#24 = ORIENTED_EDGE ( 'NONE', *, *, #298, .T. ) ;
#25 = CARTESIAN_POINT ( 'NONE',  ( 0.000000000000000000, 0.000000000000000000, 0.000000000000000000 ) ) ;
#26 = DIRECTION ( 'NONE',  ( -3.498990854706726443E-17, 1.000000000000000000, -0.000000000000000000 ) ) ;
#27 = MECHANICAL_DESIGN_GEOMETRIC_PRESENTATION_REPRESENTATION (  '', ( #97 ), #258 ) ;
#28 = DIRECTION ( 'NONE',  ( -1.000000000000000000, 0.000000000000000000, 0.000000000000000000 ) ) ;
#29 = CARTESIAN_POINT ( 'NONE',  ( 1.913510623667739463E-17, 0.000000000000000000, 0.1562500000000000000 ) ) ;
#30 = DIRECTION ( 'NONE',  ( 0.000000000000000000, 0.000000000000000000, -1.000000000000000000 ) ) ;
#31 =( CONVERSION_BASED_UNIT ( 'INCH', #125 ) LENGTH_UNIT ( ) NAMED_UNIT ( #61 ) );
#32 = DIRECTION ( 'NONE',  ( -1.000000000000000000, -3.498990854706726443E-17, 0.000000000000000000 ) ) ;
#33 = VECTOR ( 'NONE', #247, 39.37007874015748143 ) ;
#34 = PLANE ( 'NONE',  #284 ) ;
#35 = EDGE_LOOP ( 'NONE', ( #128, #200, #256, #202 ) ) ;
#36 = EDGE_LOOP ( 'NONE', ( #198, #89 ) ) ;
#37 = CARTESIAN_POINT ( 'NONE',  ( 0.1562500000000000000, 3.000000000000000444, 0.000000000000000000 ) ) ;
#38 = EDGE_CURVE ( 'NONE', #107, #13, #126, .T. ) ;
#39 = DIMENSIONAL_EXPONENTS ( 1.000000000000000000, 0.000000000000000000, 0.000000000000000000, 0.000000000000000000, 0.000000000000000000, 0.000000000000000000, 0.000000000000000000 ) ;
#40 = AXIS2_PLACEMENT_3D ( 'NONE', #78, #142, #293 ) ;
#41 = FACE_OUTER_BOUND ( 'NONE', #161, .T. ) ;
#42 = CARTESIAN_POINT ( 'NONE',  ( 0.000000000000000000, 0.000000000000000000, 0.000000000000000000 ) ) ;
#43 = ORIENTED_EDGE ( 'NONE', *, *, #271, .T. ) ;
#44 = CARTESIAN_POINT ( 'NONE',  ( 0.000000000000000000, 0.000000000000000000, -0.1562500000000000000 ) ) ;
#45 = ADVANCED_FACE ( 'NONE', ( #139 ), #187, .T. ) ;
#46 = FACE_OUTER_BOUND ( 'NONE', #227, .T. ) ;
#47 = PRESENTATION_LAYER_ASSIGNMENT (  '', '', ( #17 ) ) ;
#48 = PRESENTATION_STYLE_ASSIGNMENT (( #8 ) ) ;
#49 = CARTESIAN_POINT ( 'NONE',  ( -0.1562500000000001388, 3.000000000000000444, 0.000000000000000000 ) ) ;
#50 =( CONVERSION_BASED_UNIT ( 'INCH', #270 ) LENGTH_UNIT ( ) NAMED_UNIT ( #111 ) );
#51 = PRODUCT_DEFINITION ( 'UNKNOWN', '', #243, #184 ) ;
#52 = UNCERTAINTY_MEASURE_WITH_UNIT (LENGTH_MEASURE( 1.000000000000000082E-05 ), #50, 'distance_accuracy_value', 'NONE');
#53 = CIRCLE ( 'NONE', #146, 0.1562500000000000000 ) ;
#54 = FACE_OUTER_BOUND ( 'NONE', #36, .T. ) ;
#55 = EDGE_LOOP ( 'NONE', ( #175, #24, #112, #277 ) ) ;
#56 = DIRECTION ( 'NONE',  ( -3.498990854706726443E-17, 1.000000000000000000, -0.000000000000000000 ) ) ;
#57 = COLOUR_RGB ( '',1.000000000000000000, 0.000000000000000000, 0.000000000000000000 ) ;
#58 = DIRECTION ( 'NONE',  ( 0.000000000000000000, 0.000000000000000000, -1.000000000000000000 ) ) ;
#59 = AXIS2_PLACEMENT_3D ( 'NONE', #37, #177, #14 ) ;
#60 = ORIENTED_EDGE ( 'NONE', *, *, #106, .F. ) ;
#61 = DIMENSIONAL_EXPONENTS ( 1.000000000000000000, 0.000000000000000000, 0.000000000000000000, 0.000000000000000000, 0.000000000000000000, 0.000000000000000000, 0.000000000000000000 ) ;
#62 = SURFACE_STYLE_USAGE ( .BOTH. , #179 ) ;
#63 = STYLED_ITEM ( 'NONE', ( #233 ), #15 ) ;
#64 = EDGE_CURVE ( 'NONE', #70, #18, #264, .T. ) ;
#65 =( NAMED_UNIT ( * ) SI_UNIT ( $, .STERADIAN. ) SOLID_ANGLE_UNIT ( ) );
#66 = CIRCLE ( 'NONE', #303, 0.1562500000000000000 ) ;
#67 = VERTEX_POINT ( 'NONE', #194 ) ;
#68 = PRODUCT_CONTEXT ( 'NONE', #23, 'mechanical' ) ;
#69 =( LENGTH_UNIT ( ) NAMED_UNIT ( * ) SI_UNIT ( $, .METRE. ) );
#70 = VERTEX_POINT ( 'NONE', #269 ) ;
#71 =( GEOMETRIC_REPRESENTATION_CONTEXT ( 3 ) GLOBAL_UNCERTAINTY_ASSIGNED_CONTEXT ( ( #300 ) ) GLOBAL_UNIT_ASSIGNED_CONTEXT ( ( #263, #115, #309 ) ) REPRESENTATION_CONTEXT ( 'NONE', 'WORKASPACE' ) );
#72 = CYLINDRICAL_SURFACE ( 'NONE', #108, 0.1562500000000000000 ) ;
#73 = AXIS2_PLACEMENT_3D ( 'NONE', #255, #157, #215 ) ;
#74 = ADVANCED_FACE ( 'NONE', ( #118 ), #82, .F. ) ;
#75 = FACE_OUTER_BOUND ( 'NONE', #307, .T. ) ;
#76 = CARTESIAN_POINT ( 'NONE',  ( 9.564794532282272738E-35, 1.250000000000000000, 0.000000000000000000 ) ) ;
#77 = FILL_AREA_STYLE_COLOUR ( '', #57 ) ;
#78 = CARTESIAN_POINT ( 'NONE',  ( 0.000000000000000000, 1.250000000000000000, 0.000000000000000000 ) ) ;
#79 = PRESENTATION_LAYER_ASSIGNMENT (  '', '', ( #10 ) ) ;
#80 = CARTESIAN_POINT ( 'NONE',  ( 0.000000000000000000, 1.250000000000000000, 0.000000000000000000 ) ) ;
#81 = SURFACE_SIDE_STYLE ('',( #100 ) ) ;
#82 = PLANE ( 'NONE',  #151 ) ;
#83 = DIRECTION ( 'NONE',  ( -0.000000000000000000, -1.000000000000000000, -0.000000000000000000 ) ) ;
#84 = CLOSED_SHELL ( 'NONE', ( #123, #74, #45, #292 ) ) ;
#85 = DIMENSIONAL_EXPONENTS ( 1.000000000000000000, 0.000000000000000000, 0.000000000000000000, 0.000000000000000000, 0.000000000000000000, 0.000000000000000000, 0.000000000000000000 ) ;
#86 = COLOUR_RGB ( '',1.000000000000000000, 0.000000000000000000, 0.000000000000000000 ) ;
#87 = LINE ( 'NONE', #245, #185 ) ;
#88 = ORIENTED_EDGE ( 'NONE', *, *, #191, .T. ) ;
#89 = ORIENTED_EDGE ( 'NONE', *, *, #106, .T. ) ;
#90 = PLANE ( 'NONE',  #59 ) ;
#91 = ORIENTED_EDGE ( 'NONE', *, *, #249, .F. ) ;
#92 = EDGE_LOOP ( 'NONE', ( #206, #170 ) ) ;
#93 = SURFACE_SIDE_STYLE ('',( #154 ) ) ;
#94 = DIRECTION ( 'NONE',  ( 0.000000000000000000, 0.000000000000000000, -1.000000000000000000 ) ) ;
#95 = FILL_AREA_STYLE ('',( #232 ) ) ;
#96 = DIRECTION ( 'NONE',  ( -0.000000000000000000, -1.000000000000000000, -0.000000000000000000 ) ) ;
#97 = STYLED_ITEM ( 'NONE', ( #48 ), #176 ) ;
#98 = CARTESIAN_POINT ( 'NONE',  ( 1.913510623667739463E-17, 1.250000000000000000, 0.1562500000000000000 ) ) ;
#99 = DIRECTION ( 'NONE',  ( 0.000000000000000000, 1.000000000000000000, 0.000000000000000000 ) ) ;
#100 = SURFACE_STYLE_FILL_AREA ( #240 ) ;
#101 = CARTESIAN_POINT ( 'NONE',  ( -6.123233995736772199E-17, 3.000000000000000444, 0.000000000000000000 ) ) ;
#102 = UNCERTAINTY_MEASURE_WITH_UNIT (LENGTH_MEASURE( 1.000000000000000082E-05 ), #178, 'distance_accuracy_value', 'NONE');
#103 = PLANE ( 'NONE',  #174 ) ;
#104 =( GEOMETRIC_REPRESENTATION_CONTEXT ( 3 ) GLOBAL_UNCERTAINTY_ASSIGNED_CONTEXT ( ( #102 ) ) GLOBAL_UNIT_ASSIGNED_CONTEXT ( ( #178, #116, #281 ) ) REPRESENTATION_CONTEXT ( 'NONE', 'WORKASPACE' ) );
#105 = DIRECTION ( 'NONE',  ( -0.000000000000000000, -1.000000000000000000, -0.000000000000000000 ) ) ;
#106 = EDGE_CURVE ( 'NONE', #147, #132, #163, .T. ) ;
#107 = VERTEX_POINT ( 'NONE', #49 ) ;
#108 = AXIS2_PLACEMENT_3D ( 'NONE', #289, #96, #94 ) ;
#109 = PRODUCT_DEFINITION_SHAPE ( 'NONE', 'NONE',  #51 ) ;
#110 = EDGE_LOOP ( 'NONE', ( #273, #254 ) ) ;
#111 = DIMENSIONAL_EXPONENTS ( 1.000000000000000000, 0.000000000000000000, 0.000000000000000000, 0.000000000000000000, 0.000000000000000000, 0.000000000000000000, 0.000000000000000000 ) ;
#112 = ORIENTED_EDGE ( 'NONE', *, *, #38, .F. ) ;
#113 = APPLICATION_PROTOCOL_DEFINITION ( 'draft international standard', 'automotive_design', 1998, #23 ) ;
#114 = FILL_AREA_STYLE ('',( #238 ) ) ;
#115 =( NAMED_UNIT ( * ) PLANE_ANGLE_UNIT ( ) SI_UNIT ( $, .RADIAN. ) );
#116 =( NAMED_UNIT ( * ) PLANE_ANGLE_UNIT ( ) SI_UNIT ( $, .RADIAN. ) );
#117 = DIRECTION ( 'NONE',  ( -0.000000000000000000, -1.000000000000000000, -0.000000000000000000 ) ) ;
#118 = FACE_OUTER_BOUND ( 'NONE', #92, .T. ) ;
#119 =( NAMED_UNIT ( * ) PLANE_ANGLE_UNIT ( ) SI_UNIT ( $, .RADIAN. ) );
#120 = DIRECTION ( 'NONE',  ( -3.498990854706726443E-17, 1.000000000000000000, -0.000000000000000000 ) ) ;
#121 = SURFACE_STYLE_USAGE ( .BOTH. , #81 ) ;
#122 = CIRCLE ( 'NONE', #7, 0.1562500000000000000 ) ;
#123 = ADVANCED_FACE ( 'NONE', ( #189 ), #267, .T. ) ;
#124 = DIMENSIONAL_EXPONENTS ( 1.000000000000000000, 0.000000000000000000, 0.000000000000000000, 0.000000000000000000, 0.000000000000000000, 0.000000000000000000, 0.000000000000000000 ) ;
#125 = LENGTH_MEASURE_WITH_UNIT ( LENGTH_MEASURE( 0.02539999999999999897 ), #274 );
#126 = CIRCLE ( 'NONE', #207, 0.1562500000000000833 ) ;
#127 = UNCERTAINTY_MEASURE_WITH_UNIT (LENGTH_MEASURE( 1.000000000000000082E-05 ), #31, 'distance_accuracy_value', 'NONE');
#128 = ORIENTED_EDGE ( 'NONE', *, *, #298, .F. ) ;
#129 = CLOSED_SHELL ( 'NONE', ( #160, #176, #150, #220 ) ) ;
#130 =( LENGTH_UNIT ( ) NAMED_UNIT ( * ) SI_UNIT ( $, .METRE. ) );
#131 = LINE ( 'NONE', #11, #193 ) ;
#132 = VERTEX_POINT ( 'NONE', #44 ) ;
#133 = DIRECTION ( 'NONE',  ( 0.000000000000000000, -1.000000000000000000, -0.000000000000000000 ) ) ;
#134 = CARTESIAN_POINT ( 'NONE',  ( 0.1562500000000000000, 3.000000000000000444, 1.913510623667739771E-17 ) ) ;
#135 = VERTEX_POINT ( 'NONE', #98 ) ;
#136 =( CONVERSION_BASED_UNIT ( 'INCH', #153 ) LENGTH_UNIT ( ) NAMED_UNIT ( #124 ) );
#137 =( NAMED_UNIT ( * ) PLANE_ANGLE_UNIT ( ) SI_UNIT ( $, .RADIAN. ) );
#138 = SURFACE_STYLE_USAGE ( .BOTH. , #21 ) ;
#139 = FACE_OUTER_BOUND ( 'NONE', #35, .T. ) ;
#140 = COLOUR_RGB ( '',1.000000000000000000, 0.000000000000000000, 0.000000000000000000 ) ;
#141 = DIRECTION ( 'NONE',  ( -0.000000000000000000, -1.000000000000000000, -0.000000000000000000 ) ) ;
#142 = DIRECTION ( 'NONE',  ( -3.498990854706726443E-17, 1.000000000000000000, -0.000000000000000000 ) ) ;
#143 = FILL_AREA_STYLE_COLOUR ( '', #158 ) ;
#144 = CARTESIAN_POINT ( 'NONE',  ( 0.000000000000000000, 1.250000000000000000, 0.000000000000000000 ) ) ;
#145 = EDGE_CURVE ( 'NONE', #18, #70, #224, .T. ) ;
#146 = AXIS2_PLACEMENT_3D ( 'NONE', #80, #83, #266 ) ;
#147 = VERTEX_POINT ( 'NONE', #29 ) ;
#148 = CARTESIAN_POINT ( 'NONE',  ( 0.000000000000000000, 0.000000000000000000, 0.000000000000000000 ) ) ;
#149 = DIMENSIONAL_EXPONENTS ( 1.000000000000000000, 0.000000000000000000, 0.000000000000000000, 0.000000000000000000, 0.000000000000000000, 0.000000000000000000, 0.000000000000000000 ) ;
#150 = ADVANCED_FACE ( 'NONE', ( #46 ), #72, .T. ) ;
#151 = AXIS2_PLACEMENT_3D ( 'NONE', #76, #218, #32 ) ;
#152 = LENGTH_MEASURE_WITH_UNIT ( LENGTH_MEASURE( 0.02539999999999999897 ), #278 );
#153 = LENGTH_MEASURE_WITH_UNIT ( LENGTH_MEASURE( 0.02539999999999999897 ), #155 );
#154 = SURFACE_STYLE_FILL_AREA ( #95 ) ;
#155 =( LENGTH_UNIT ( ) NAMED_UNIT ( * ) SI_UNIT ( $, .METRE. ) );
#156 = ORIENTED_EDGE ( 'NONE', *, *, #169, .F. ) ;
#157 = DIRECTION ( 'NONE',  ( 0.000000000000000000, 0.000000000000000000, 1.000000000000000000 ) ) ;
#158 = COLOUR_RGB ( '',0.7921568627450980005, 0.8196078431372548767, 0.9333333333333333481 ) ;
#159 = DIRECTION ( 'NONE',  ( -3.498990854706726443E-17, 1.000000000000000000, -0.000000000000000000 ) ) ;
#160 = ADVANCED_FACE ( 'NONE', ( #75 ), #295, .T. ) ;
#161 = EDGE_LOOP ( 'NONE', ( #229, #1 ) ) ;
#162 = SURFACE_STYLE_FILL_AREA ( #217 ) ;
#163 = CIRCLE ( 'NONE', #183, 0.1562500000000000000 ) ;
#164 = AXIS2_PLACEMENT_3D ( 'NONE', #239, #120, #222 ) ;
#165 =( NAMED_UNIT ( * ) SI_UNIT ( $, .STERADIAN. ) SOLID_ANGLE_UNIT ( ) );
#166 = MECHANICAL_DESIGN_GEOMETRIC_PRESENTATION_REPRESENTATION (  '', ( #63 ), #104 ) ;
#167 = SURFACE_SIDE_STYLE ('',( #299 ) ) ;
#168 = PRESENTATION_LAYER_ASSIGNMENT (  '', '', ( #272 ) ) ;
#169 = EDGE_CURVE ( 'NONE', #67, #132, #87, .T. ) ;
#170 = ORIENTED_EDGE ( 'NONE', *, *, #145, .F. ) ;
#171 = DIRECTION ( 'NONE',  ( -0.000000000000000000, -1.000000000000000000, -0.000000000000000000 ) ) ;
#172 = SURFACE_STYLE_FILL_AREA ( #253 ) ;
#173 = AXIS2_PLACEMENT_3D ( 'NONE', #16, #159, #219 ) ;
#174 = AXIS2_PLACEMENT_3D ( 'NONE', #144, #99, #188 ) ;
#175 = ORIENTED_EDGE ( 'NONE', *, *, #64, .T. ) ;
#176 = ADVANCED_FACE ( 'NONE', ( #9 ), #103, .T. ) ;
#177 = DIRECTION ( 'NONE',  ( 3.498990854706726443E-17, -1.000000000000000000, 0.000000000000000000 ) ) ;
#178 =( CONVERSION_BASED_UNIT ( 'INCH', #212 ) LENGTH_UNIT ( ) NAMED_UNIT ( #85 ) );
#179 = SURFACE_SIDE_STYLE ('',( #172 ) ) ;
#180 = CARTESIAN_POINT ( 'NONE',  ( 0.000000000000000000, 1.250000000000000000, 0.000000000000000000 ) ) ;
#181 = LENGTH_MEASURE_WITH_UNIT ( LENGTH_MEASURE( 0.02539999999999999897 ), #69 );
#182 = ORIENTED_EDGE ( 'NONE', *, *, #279, .F. ) ;
#183 = AXIS2_PLACEMENT_3D ( 'NONE', #3, #141, #221 ) ;
#184 = PRODUCT_DEFINITION_CONTEXT ( 'detailed design', #288, 'design' ) ;
#185 = VECTOR ( 'NONE', #197, 39.37007874015748143 ) ;
#186 = DIRECTION ( 'NONE',  ( -1.000000000000000000, 0.000000000000000000, 0.000000000000000000 ) ) ;
#187 = CYLINDRICAL_SURFACE ( 'NONE', #251, 0.1562500000000000278 ) ;
#188 = DIRECTION ( 'NONE',  ( 0.000000000000000000, -0.000000000000000000, 1.000000000000000000 ) ) ;
#189 = FACE_OUTER_BOUND ( 'NONE', #55, .T. ) ;
#190 = AXIS2_PLACEMENT_3D ( 'NONE', #180, #4, #186 ) ;
#191 = EDGE_CURVE ( 'NONE', #67, #135, #53, .T. ) ;
#192 = FILL_AREA_STYLE ('',( #296 ) ) ;
#193 = VECTOR ( 'NONE', #105, 39.37007874015748143 ) ;
#194 = CARTESIAN_POINT ( 'NONE',  ( 0.000000000000000000, 1.250000000000000000, -0.1562500000000000000 ) ) ;
#195 = ADVANCED_BREP_SHAPE_REPRESENTATION ( '81713', ( #214, #15, #73 ), #252 ) ;
#196 = EDGE_CURVE ( 'NONE', #13, #107, #231, .T. ) ;
#197 = DIRECTION ( 'NONE',  ( -0.000000000000000000, -1.000000000000000000, -0.000000000000000000 ) ) ;
#198 = ORIENTED_EDGE ( 'NONE', *, *, #279, .T. ) ;
#199 = DIRECTION ( 'NONE',  ( 0.000000000000000000, 0.000000000000000000, -1.000000000000000000 ) ) ;
#200 = ORIENTED_EDGE ( 'NONE', *, *, #145, .T. ) ;
#201 = CARTESIAN_POINT ( 'NONE',  ( 0.1562499999999999722, 3.000000000000000444, 1.913510623667739771E-17 ) ) ;
#202 = ORIENTED_EDGE ( 'NONE', *, *, #196, .F. ) ;
#203 = CARTESIAN_POINT ( 'NONE',  ( 0.000000000000000000, 1.250000000000000000, 0.000000000000000000 ) ) ;
#204 = ORIENTED_EDGE ( 'NONE', *, *, #169, .T. ) ;
#205 = LENGTH_MEASURE_WITH_UNIT ( LENGTH_MEASURE( 0.02539999999999999897 ), #248 );
#206 = ORIENTED_EDGE ( 'NONE', *, *, #64, .F. ) ;
#207 = AXIS2_PLACEMENT_3D ( 'NONE', #261, #237, #223 ) ;
#208 = MECHANICAL_DESIGN_GEOMETRIC_PRESENTATION_REPRESENTATION (  '', ( #272 ), #259 ) ;
#209 = PRODUCT ( '81713', '81713', '', ( #68 ) ) ;
#210 = SURFACE_STYLE_FILL_AREA ( #114 ) ;
#211 = SURFACE_STYLE_USAGE ( .BOTH. , #93 ) ;
#212 = LENGTH_MEASURE_WITH_UNIT ( LENGTH_MEASURE( 0.02539999999999999897 ), #130 );
#213 = SURFACE_SIDE_STYLE ('',( #210 ) ) ;
#214 = MANIFOLD_SOLID_BREP ( 'Revolve - Cutting Edge', #129 ) ;
#215 = DIRECTION ( 'NONE',  ( 1.000000000000000000, 0.000000000000000000, 0.000000000000000000 ) ) ;
#216 =( GEOMETRIC_REPRESENTATION_CONTEXT ( 3 ) GLOBAL_UNCERTAINTY_ASSIGNED_CONTEXT ( ( #262 ) ) GLOBAL_UNIT_ASSIGNED_CONTEXT ( ( #282, #230, #65 ) ) REPRESENTATION_CONTEXT ( 'NONE', 'WORKASPACE' ) );
#217 = FILL_AREA_STYLE ('',( #77 ) ) ;
#218 = DIRECTION ( 'NONE',  ( -3.498990854706726443E-17, 1.000000000000000000, 0.000000000000000000 ) ) ;
#219 = DIRECTION ( 'NONE',  ( -1.000000000000000000, 0.000000000000000000, 0.000000000000000000 ) ) ;
#220 = ADVANCED_FACE ( 'NONE', ( #54 ), #34, .T. ) ;
#221 = DIRECTION ( 'NONE',  ( 0.000000000000000000, 0.000000000000000000, -1.000000000000000000 ) ) ;
#222 = DIRECTION ( 'NONE',  ( -1.000000000000000000, 0.000000000000000000, 0.000000000000000000 ) ) ;
#223 = DIRECTION ( 'NONE',  ( -1.000000000000000000, 0.000000000000000000, 0.000000000000000000 ) ) ;
#224 = CIRCLE ( 'NONE', #190, 0.1562500000000000000 ) ;
#225 = PRESENTATION_STYLE_ASSIGNMENT (( #121 ) ) ;
#226 =( NAMED_UNIT ( * ) SI_UNIT ( $, .STERADIAN. ) SOLID_ANGLE_UNIT ( ) );
#227 = EDGE_LOOP ( 'NONE', ( #91, #43, #204, #60 ) ) ;
#228 = PRESENTATION_LAYER_ASSIGNMENT (  '', '', ( #97 ) ) ;
#229 = ORIENTED_EDGE ( 'NONE', *, *, #38, .T. ) ;
#230 =( NAMED_UNIT ( * ) PLANE_ANGLE_UNIT ( ) SI_UNIT ( $, .RADIAN. ) );
#231 = CIRCLE ( 'NONE', #164, 0.1562500000000000833 ) ;
#232 = FILL_AREA_STYLE_COLOUR ( '', #283 ) ;
#233 = PRESENTATION_STYLE_ASSIGNMENT (( #211 ) ) ;
#234 = EDGE_CURVE ( 'NONE', #70, #107, #276, .T. ) ;
#235 = APPLICATION_PROTOCOL_DEFINITION ( 'draft international standard', 'automotive_design', 1998, #288 ) ;
#236 = PRESENTATION_STYLE_ASSIGNMENT (( #138 ) ) ;
#237 = DIRECTION ( 'NONE',  ( -3.498990854706726443E-17, 1.000000000000000000, -0.000000000000000000 ) ) ;
#238 = FILL_AREA_STYLE_COLOUR ( '', #140 ) ;
#239 = CARTESIAN_POINT ( 'NONE',  ( -6.123233995736772199E-17, 3.000000000000000444, 0.000000000000000000 ) ) ;
#240 = FILL_AREA_STYLE ('',( #143 ) ) ;
#241 = MECHANICAL_DESIGN_GEOMETRIC_PRESENTATION_REPRESENTATION (  '', ( #6 ), #71 ) ;
#242 =( NAMED_UNIT ( * ) PLANE_ANGLE_UNIT ( ) SI_UNIT ( $, .RADIAN. ) );
#243 = PRODUCT_DEFINITION_FORMATION_WITH_SPECIFIED_SOURCE ( 'ANY', '', #209, .NOT_KNOWN. ) ;
#244 =( LENGTH_UNIT ( ) NAMED_UNIT ( * ) SI_UNIT ( $, .METRE. ) );
#245 = CARTESIAN_POINT ( 'NONE',  ( 0.000000000000000000, 0.000000000000000000, -0.1562500000000000000 ) ) ;
#246 = PRESENTATION_STYLE_ASSIGNMENT (( #62 ) ) ;
#247 = DIRECTION ( 'NONE',  ( -3.498990854706726443E-17, 1.000000000000000000, -0.000000000000000000 ) ) ;
#248 =( LENGTH_UNIT ( ) NAMED_UNIT ( * ) SI_UNIT ( $, .METRE. ) );
#249 = EDGE_CURVE ( 'NONE', #135, #147, #131, .T. ) ;
#250 = DIRECTION ( 'NONE',  ( 0.000000000000000000, 0.000000000000000000, -1.000000000000000000 ) ) ;
#251 = AXIS2_PLACEMENT_3D ( 'NONE', #101, #26, #28 ) ;
#252 =( GEOMETRIC_REPRESENTATION_CONTEXT ( 3 ) GLOBAL_UNCERTAINTY_ASSIGNED_CONTEXT ( ( #12 ) ) GLOBAL_UNIT_ASSIGNED_CONTEXT ( ( #305, #137, #287 ) ) REPRESENTATION_CONTEXT ( 'NONE', 'WORKASPACE' ) );
#253 = FILL_AREA_STYLE ('',( #5 ) ) ;
#254 = ORIENTED_EDGE ( 'NONE', *, *, #271, .F. ) ;
#255 = CARTESIAN_POINT ( 'NONE',  ( 0.000000000000000000, 0.000000000000000000, 0.000000000000000000 ) ) ;
#256 = ORIENTED_EDGE ( 'NONE', *, *, #234, .T. ) ;
#257 = MECHANICAL_DESIGN_GEOMETRIC_PRESENTATION_REPRESENTATION (  '', ( #10 ), #297 ) ;
#258 =( GEOMETRIC_REPRESENTATION_CONTEXT ( 3 ) GLOBAL_UNCERTAINTY_ASSIGNED_CONTEXT ( ( #127 ) ) GLOBAL_UNIT_ASSIGNED_CONTEXT ( ( #31, #268, #165 ) ) REPRESENTATION_CONTEXT ( 'NONE', 'WORKASPACE' ) );
#259 =( GEOMETRIC_REPRESENTATION_CONTEXT ( 3 ) GLOBAL_UNCERTAINTY_ASSIGNED_CONTEXT ( ( #52 ) ) GLOBAL_UNIT_ASSIGNED_CONTEXT ( ( #50, #242, #226 ) ) REPRESENTATION_CONTEXT ( 'NONE', 'WORKASPACE' ) );
#260 = PRESENTATION_STYLE_ASSIGNMENT (( #285 ) ) ;
#261 = CARTESIAN_POINT ( 'NONE',  ( -6.123233995736772199E-17, 3.000000000000000444, 0.000000000000000000 ) ) ;
#262 = UNCERTAINTY_MEASURE_WITH_UNIT (LENGTH_MEASURE( 1.000000000000000082E-05 ), #282, 'distance_accuracy_value', 'NONE');
#263 =( CONVERSION_BASED_UNIT ( 'INCH', #181 ) LENGTH_UNIT ( ) NAMED_UNIT ( #39 ) );
#264 = CIRCLE ( 'NONE', #40, 0.1562500000000000000 ) ;
#265 = MECHANICAL_DESIGN_GEOMETRIC_PRESENTATION_REPRESENTATION (  '', ( #17 ), #216 ) ;
#266 = DIRECTION ( 'NONE',  ( 0.000000000000000000, 0.000000000000000000, -1.000000000000000000 ) ) ;
#267 = CYLINDRICAL_SURFACE ( 'NONE', #173, 0.1562500000000000278 ) ;
#268 =( NAMED_UNIT ( * ) PLANE_ANGLE_UNIT ( ) SI_UNIT ( $, .RADIAN. ) );
#269 = CARTESIAN_POINT ( 'NONE',  ( -0.1562500000000000000, 1.250000000000000000, 0.000000000000000000 ) ) ;
#270 = LENGTH_MEASURE_WITH_UNIT ( LENGTH_MEASURE( 0.02539999999999999897 ), #244 );
#271 = EDGE_CURVE ( 'NONE', #135, #67, #122, .T. ) ;
#272 = STYLED_ITEM ( 'NONE', ( #225 ), #214 ) ;
#273 = ORIENTED_EDGE ( 'NONE', *, *, #191, .F. ) ;
#274 =( LENGTH_UNIT ( ) NAMED_UNIT ( * ) SI_UNIT ( $, .METRE. ) );
#275 = DIRECTION ( 'NONE',  ( -0.000000000000000000, -1.000000000000000000, -0.000000000000000000 ) ) ;
#276 = LINE ( 'NONE', #304, #22 ) ;
#277 = ORIENTED_EDGE ( 'NONE', *, *, #234, .F. ) ;
#278 =( LENGTH_UNIT ( ) NAMED_UNIT ( * ) SI_UNIT ( $, .METRE. ) );
#279 = EDGE_CURVE ( 'NONE', #132, #147, #66, .T. ) ;
#280 = LINE ( 'NONE', #201, #33 ) ;
#281 =( NAMED_UNIT ( * ) SI_UNIT ( $, .STERADIAN. ) SOLID_ANGLE_UNIT ( ) );
#282 =( CONVERSION_BASED_UNIT ( 'INCH', #152 ) LENGTH_UNIT ( ) NAMED_UNIT ( #19 ) );
#283 = COLOUR_RGB ( '',0.7921568627450980005, 0.8196078431372548767, 0.9333333333333333481 ) ;
#284 = AXIS2_PLACEMENT_3D ( 'NONE', #42, #133, #199 ) ;
#285 = SURFACE_STYLE_USAGE ( .BOTH. , #213 ) ;
#286 = CARTESIAN_POINT ( 'NONE',  ( 0.1562500000000000000, 1.250000000000000000, 1.913510623667739771E-17 ) ) ;
#287 =( NAMED_UNIT ( * ) SI_UNIT ( $, .STERADIAN. ) SOLID_ANGLE_UNIT ( ) );
#288 = APPLICATION_CONTEXT ( 'automotive_design' ) ;
#289 = CARTESIAN_POINT ( 'NONE',  ( 0.000000000000000000, 0.000000000000000000, 0.000000000000000000 ) ) ;
#290 = UNCERTAINTY_MEASURE_WITH_UNIT (LENGTH_MEASURE( 1.000000000000000082E-05 ), #136, 'distance_accuracy_value', 'NONE');
#291 = AXIS2_PLACEMENT_3D ( 'NONE', #25, #117, #30 ) ;
#292 = ADVANCED_FACE ( 'NONE', ( #41 ), #90, .F. ) ;
#293 = DIRECTION ( 'NONE',  ( -1.000000000000000000, 0.000000000000000000, 0.000000000000000000 ) ) ;
#294 = SHAPE_DEFINITION_REPRESENTATION ( #109, #195 ) ;
#295 = CYLINDRICAL_SURFACE ( 'NONE', #291, 0.1562500000000000000 ) ;
#296 = FILL_AREA_STYLE_COLOUR ( '', #306 ) ;
#297 =( GEOMETRIC_REPRESENTATION_CONTEXT ( 3 ) GLOBAL_UNCERTAINTY_ASSIGNED_CONTEXT ( ( #290 ) ) GLOBAL_UNIT_ASSIGNED_CONTEXT ( ( #136, #119, #308 ) ) REPRESENTATION_CONTEXT ( 'NONE', 'WORKASPACE' ) );
#298 = EDGE_CURVE ( 'NONE', #18, #13, #280, .T. ) ;
#299 = SURFACE_STYLE_FILL_AREA ( #192 ) ;
#300 = UNCERTAINTY_MEASURE_WITH_UNIT (LENGTH_MEASURE( 1.000000000000000082E-05 ), #263, 'distance_accuracy_value', 'NONE');
#301 = ORIENTED_EDGE ( 'NONE', *, *, #249, .T. ) ;
#302 = PRESENTATION_LAYER_ASSIGNMENT (  '', '', ( #6 ) ) ;
#303 = AXIS2_PLACEMENT_3D ( 'NONE', #148, #275, #250 ) ;
#304 = CARTESIAN_POINT ( 'NONE',  ( -0.1562500000000001110, 3.000000000000000444, 0.000000000000000000 ) ) ;
#305 =( CONVERSION_BASED_UNIT ( 'INCH', #205 ) LENGTH_UNIT ( ) NAMED_UNIT ( #149 ) );
#306 = COLOUR_RGB ( '',1.000000000000000000, 0.000000000000000000, 0.000000000000000000 ) ;
#307 = EDGE_LOOP ( 'NONE', ( #88, #301, #182, #156 ) ) ;
#308 =( NAMED_UNIT ( * ) SI_UNIT ( $, .STERADIAN. ) SOLID_ANGLE_UNIT ( ) );
#309 =( NAMED_UNIT ( * ) SI_UNIT ( $, .STERADIAN. ) SOLID_ANGLE_UNIT ( ) );
ENDSEC;
END-ISO-10303-21;
