ISO-10303-21;
HEADER;
FILE_DESCRIPTION (( 'STEP AP214' ),
    '1' );
FILE_NAME ('24362.STEP',
    '2023-06-22T17:10:37',
    ( '' ),
    ( '' ),
    'SwSTEP 2.0',
    'SolidWorks 2023',
    '' );
FILE_SCHEMA (( 'AUTOMOTIVE_DESIGN' ));
ENDSEC;

DATA;
#1 =( CONVERSION_BASED_UNIT ( 'INCH', #116 ) LENGTH_UNIT ( ) NAMED_UNIT ( #186 ) );
#2 = DIRECTION ( 'NONE',  ( -1.000000000000000000, 0.000000000000000000, 0.000000000000000000 ) ) ;
#3 = SURFACE_SIDE_STYLE ('',( #78 ) ) ;
#4 = CARTESIAN_POINT ( 'NONE',  ( 0.2499999999999999722, 3.250000000000000000, 3.061616997868384251E-17 ) ) ;
#5 = MECHANICAL_DESIGN_GEOMETRIC_PRESENTATION_REPRESENTATION (  '', ( #20 ), #132 ) ;
#6 =( GEOMETRIC_REPRESENTATION_CONTEXT ( 3 ) GLOBAL_UNCERTAINTY_ASSIGNED_CONTEXT ( ( #142 ) ) GLOBAL_UNIT_ASSIGNED_CONTEXT ( ( #46, #309, #191 ) ) REPRESENTATION_CONTEXT ( 'NONE', 'WORKASPACE' ) );
#7 = LENGTH_MEASURE_WITH_UNIT ( LENGTH_MEASURE( 0.02539999999999999897 ), #172 );
#8 = DIRECTION ( 'NONE',  ( -1.000000000000000000, 0.000000000000000000, 0.000000000000000000 ) ) ;
#9 = EDGE_LOOP ( 'NONE', ( #62, #205, #83, #39 ) ) ;
#10 = CYLINDRICAL_SURFACE ( 'NONE', #211, 0.2500000000000000555 ) ;
#11 = VERTEX_POINT ( 'NONE', #59 ) ;
#12 = EDGE_CURVE ( 'NONE', #31, #179, #221, .T. ) ;
#13 = SURFACE_SIDE_STYLE ('',( #25 ) ) ;
#14 = ORIENTED_EDGE ( 'NONE', *, *, #94, .F. ) ;
#15 = ORIENTED_EDGE ( 'NONE', *, *, #296, .T. ) ;
#16 = DIRECTION ( 'NONE',  ( -1.000000000000000000, 0.000000000000000000, 0.000000000000000000 ) ) ;
#17 = ORIENTED_EDGE ( 'NONE', *, *, #45, .F. ) ;
#18 = DIRECTION ( 'NONE',  ( -0.000000000000000000, -1.000000000000000000, -0.000000000000000000 ) ) ;
#19 = CARTESIAN_POINT ( 'NONE',  ( -2.449293598294707400E-16, 6.000000000000000888, 0.000000000000000000 ) ) ;
#20 = STYLED_ITEM ( 'NONE', ( #171 ), #26 ) ;
#21 = CARTESIAN_POINT ( 'NONE',  ( -0.2499999999999999722, 3.250000000000000000, 0.000000000000000000 ) ) ;
#22 = STYLED_ITEM ( 'NONE', ( #290 ), #306 ) ;
#23 = SURFACE_STYLE_USAGE ( .BOTH. , #294 ) ;
#24 = DIRECTION ( 'NONE',  ( -8.906522175617116587E-17, 1.000000000000000000, -0.000000000000000000 ) ) ;
#25 = SURFACE_STYLE_FILL_AREA ( #51 ) ;
#26 = MANIFOLD_SOLID_BREP ( 'Revolve - Tool Body (Straight Shanked)', #163 ) ;
#27 = DIRECTION ( 'NONE',  ( 0.000000000000000000, -0.000000000000000000, 1.000000000000000000 ) ) ;
#28 = VECTOR ( 'NONE', #210, 39.37007874015748143 ) ;
#29 = MANIFOLD_SOLID_BREP ( 'Revolve - Cutting Edge', #138 ) ;
#30 = SURFACE_SIDE_STYLE ('',( #147 ) ) ;
#31 = VERTEX_POINT ( 'NONE', #262 ) ;
#32 = LINE ( 'NONE', #301, #41 ) ;
#33 = EDGE_LOOP ( 'NONE', ( #129, #149, #76, #17 ) ) ;
#34 = AXIS2_PLACEMENT_3D ( 'NONE', #195, #246, #224 ) ;
#35 = DIRECTION ( 'NONE',  ( 0.000000000000000000, 0.000000000000000000, -1.000000000000000000 ) ) ;
#36 = STYLED_ITEM ( 'NONE', ( #72 ), #227 ) ;
#37 = ADVANCED_FACE ( 'NONE', ( #216 ), #269, .T. ) ;
#38 = UNCERTAINTY_MEASURE_WITH_UNIT (LENGTH_MEASURE( 1.000000000000000082E-05 ), #299, 'distance_accuracy_value', 'NONE');
#39 = ORIENTED_EDGE ( 'NONE', *, *, #208, .F. ) ;
#40 = DIRECTION ( 'NONE',  ( 0.000000000000000000, 0.000000000000000000, 1.000000000000000000 ) ) ;
#41 = VECTOR ( 'NONE', #130, 39.37007874015748143 ) ;
#42 = CYLINDRICAL_SURFACE ( 'NONE', #213, 0.2500000000000000000 ) ;
#43 = UNCERTAINTY_MEASURE_WITH_UNIT (LENGTH_MEASURE( 1.000000000000000082E-05 ), #145, 'distance_accuracy_value', 'NONE');
#44 = SURFACE_STYLE_USAGE ( .BOTH. , #261 ) ;
#45 = EDGE_CURVE ( 'NONE', #180, #179, #307, .T. ) ;
#46 =( CONVERSION_BASED_UNIT ( 'INCH', #286 ) LENGTH_UNIT ( ) NAMED_UNIT ( #155 ) );
#47 = PRESENTATION_LAYER_ASSIGNMENT (  '', '', ( #156 ) ) ;
#48 = CIRCLE ( 'NONE', #58, 0.2499999999999999722 ) ;
#49 = UNCERTAINTY_MEASURE_WITH_UNIT (LENGTH_MEASURE( 1.000000000000000082E-05 ), #1, 'distance_accuracy_value', 'NONE');
#50 = FACE_OUTER_BOUND ( 'NONE', #232, .T. ) ;
#51 = FILL_AREA_STYLE ('',( #55 ) ) ;
#52 = CIRCLE ( 'NONE', #68, 0.2500000000000002220 ) ;
#53 = PRODUCT_CONTEXT ( 'NONE', #90, 'mechanical' ) ;
#54 = DIRECTION ( 'NONE',  ( -0.000000000000000000, -1.000000000000000000, -0.000000000000000000 ) ) ;
#55 = FILL_AREA_STYLE_COLOUR ( '', #234 ) ;
#56 = VERTEX_POINT ( 'NONE', #295 ) ;
#57 = ORIENTED_EDGE ( 'NONE', *, *, #152, .F. ) ;
#58 = AXIS2_PLACEMENT_3D ( 'NONE', #107, #202, #75 ) ;
#59 = CARTESIAN_POINT ( 'NONE',  ( 3.061616997868382402E-17, 3.250000000000000000, 0.2499999999999999722 ) ) ;
#60 = VERTEX_POINT ( 'NONE', #4 ) ;
#61 = ADVANCED_FACE ( 'NONE', ( #50 ), #10, .T. ) ;
#62 = ORIENTED_EDGE ( 'NONE', *, *, #260, .F. ) ;
#63 = MECHANICAL_DESIGN_GEOMETRIC_PRESENTATION_REPRESENTATION (  '', ( #219 ), #189 ) ;
#64 = AXIS2_PLACEMENT_3D ( 'NONE', #81, #233, #160 ) ;
#65 = CARTESIAN_POINT ( 'NONE',  ( 0.000000000000000000, 0.000000000000000000, 0.000000000000000000 ) ) ;
#66 = PRODUCT_DEFINITION_CONTEXT ( 'detailed design', #175, 'design' ) ;
#67 = ADVANCED_FACE ( 'NONE', ( #193 ), #166, .T. ) ;
#68 = AXIS2_PLACEMENT_3D ( 'NONE', #112, #113, #8 ) ;
#69 = PRESENTATION_STYLE_ASSIGNMENT (( #95 ) ) ;
#70 = FILL_AREA_STYLE ('',( #285 ) ) ;
#71 =( LENGTH_UNIT ( ) NAMED_UNIT ( * ) SI_UNIT ( $, .METRE. ) );
#72 = PRESENTATION_STYLE_ASSIGNMENT (( #44 ) ) ;
#73 =( LENGTH_UNIT ( ) NAMED_UNIT ( * ) SI_UNIT ( $, .METRE. ) );
#74 = PRESENTATION_LAYER_ASSIGNMENT (  '', '', ( #22 ) ) ;
#75 = DIRECTION ( 'NONE',  ( -1.000000000000000000, 0.000000000000000000, 0.000000000000000000 ) ) ;
#76 = ORIENTED_EDGE ( 'NONE', *, *, #12, .T. ) ;
#77 = FILL_AREA_STYLE ('',( #168 ) ) ;
#78 = SURFACE_STYLE_FILL_AREA ( #272 ) ;
#79 = CIRCLE ( 'NONE', #140, 0.2499999999999999722 ) ;
#80 = DIRECTION ( 'NONE',  ( -0.000000000000000000, -1.000000000000000000, -0.000000000000000000 ) ) ;
#81 = CARTESIAN_POINT ( 'NONE',  ( 0.2499999999999999722, 6.000000000000000888, 0.000000000000000000 ) ) ;
#82 = LENGTH_MEASURE_WITH_UNIT ( LENGTH_MEASURE( 0.02539999999999999897 ), #121 );
#83 = ORIENTED_EDGE ( 'NONE', *, *, #152, .T. ) ;
#84 = AXIS2_PLACEMENT_3D ( 'NONE', #19, #133, #16 ) ;
#85 = FILL_AREA_STYLE_COLOUR ( '', #92 ) ;
#86 = MECHANICAL_DESIGN_GEOMETRIC_PRESENTATION_REPRESENTATION (  '', ( #36 ), #164 ) ;
#87 = SURFACE_STYLE_USAGE ( .BOTH. , #13 ) ;
#88 = ORIENTED_EDGE ( 'NONE', *, *, #260, .T. ) ;
#89 = DIRECTION ( 'NONE',  ( -8.906522175617116587E-17, 1.000000000000000000, 0.000000000000000000 ) ) ;
#90 = APPLICATION_CONTEXT ( 'automotive_design' ) ;
#91 = DIRECTION ( 'NONE',  ( 0.000000000000000000, 0.000000000000000000, -1.000000000000000000 ) ) ;
#92 = COLOUR_RGB ( '',1.000000000000000000, 0.000000000000000000, 0.000000000000000000 ) ;
#93 = COLOUR_RGB ( '',1.000000000000000000, 0.000000000000000000, 0.000000000000000000 ) ;
#94 = EDGE_CURVE ( 'NONE', #226, #60, #48, .T. ) ;
#95 = SURFACE_STYLE_USAGE ( .BOTH. , #283 ) ;
#96 = CARTESIAN_POINT ( 'NONE',  ( 0.000000000000000000, 0.000000000000000000, 0.000000000000000000 ) ) ;
#97 = LINE ( 'NONE', #267, #225 ) ;
#98 = FILL_AREA_STYLE ('',( #249 ) ) ;
#99 =( NAMED_UNIT ( * ) SI_UNIT ( $, .STERADIAN. ) SOLID_ANGLE_UNIT ( ) );
#100 = EDGE_CURVE ( 'NONE', #60, #226, #271, .T. ) ;
#101 = DIRECTION ( 'NONE',  ( 1.000000000000000000, 0.000000000000000000, 0.000000000000000000 ) ) ;
#102 = SURFACE_STYLE_USAGE ( .BOTH. , #3 ) ;
#103 =( NAMED_UNIT ( * ) SI_UNIT ( $, .STERADIAN. ) SOLID_ANGLE_UNIT ( ) );
#104 =( GEOMETRIC_REPRESENTATION_CONTEXT ( 3 ) GLOBAL_UNCERTAINTY_ASSIGNED_CONTEXT ( ( #43 ) ) GLOBAL_UNIT_ASSIGNED_CONTEXT ( ( #145, #123, #196 ) ) REPRESENTATION_CONTEXT ( 'NONE', 'WORKASPACE' ) );
#105 = CYLINDRICAL_SURFACE ( 'NONE', #197, 0.2500000000000000000 ) ;
#106 = DIMENSIONAL_EXPONENTS ( 1.000000000000000000, 0.000000000000000000, 0.000000000000000000, 0.000000000000000000, 0.000000000000000000, 0.000000000000000000, 0.000000000000000000 ) ;
#107 = CARTESIAN_POINT ( 'NONE',  ( -3.032960542342103792E-32, 3.250000000000000000, 0.000000000000000000 ) ) ;
#108 = ORIENTED_EDGE ( 'NONE', *, *, #167, .T. ) ;
#109 = EDGE_LOOP ( 'NONE', ( #209, #277 ) ) ;
#110 = CARTESIAN_POINT ( 'NONE',  ( -3.032960542342103792E-32, 3.250000000000000000, 0.000000000000000000 ) ) ;
#111 = ADVANCED_FACE ( 'NONE', ( #206 ), #222, .T. ) ;
#112 = CARTESIAN_POINT ( 'NONE',  ( -2.449293598294707400E-16, 6.000000000000000888, 0.000000000000000000 ) ) ;
#113 = DIRECTION ( 'NONE',  ( -8.906522175617116587E-17, 1.000000000000000000, -0.000000000000000000 ) ) ;
#114 =( CONVERSION_BASED_UNIT ( 'INCH', #289 ) LENGTH_UNIT ( ) NAMED_UNIT ( #106 ) );
#115 = PRESENTATION_LAYER_ASSIGNMENT (  '', '', ( #20 ) ) ;
#116 = LENGTH_MEASURE_WITH_UNIT ( LENGTH_MEASURE( 0.02539999999999999897 ), #241 );
#117 = DIRECTION ( 'NONE',  ( -8.906522175617116587E-17, 1.000000000000000000, -0.000000000000000000 ) ) ;
#118 =( NAMED_UNIT ( * ) PLANE_ANGLE_UNIT ( ) SI_UNIT ( $, .RADIAN. ) );
#119 = PRODUCT_DEFINITION ( 'UNKNOWN', '', #220, #66 ) ;
#120 = DIRECTION ( 'NONE',  ( 0.000000000000000000, -1.000000000000000000, -0.000000000000000000 ) ) ;
#121 =( LENGTH_UNIT ( ) NAMED_UNIT ( * ) SI_UNIT ( $, .METRE. ) );
#122 = FILL_AREA_STYLE_COLOUR ( '', #270 ) ;
#123 =( NAMED_UNIT ( * ) PLANE_ANGLE_UNIT ( ) SI_UNIT ( $, .RADIAN. ) );
#124 = DIRECTION ( 'NONE',  ( -1.000000000000000000, 0.000000000000000000, 0.000000000000000000 ) ) ;
#125 = ORIENTED_EDGE ( 'NONE', *, *, #100, .F. ) ;
#126 = MECHANICAL_DESIGN_GEOMETRIC_PRESENTATION_REPRESENTATION (  '', ( #156 ), #177 ) ;
#127 = PRESENTATION_LAYER_ASSIGNMENT (  '', '', ( #303 ) ) ;
#128 = ORIENTED_EDGE ( 'NONE', *, *, #94, .T. ) ;
#129 = ORIENTED_EDGE ( 'NONE', *, *, #237, .F. ) ;
#130 = DIRECTION ( 'NONE',  ( -8.906522175617116587E-17, 1.000000000000000000, -0.000000000000000000 ) ) ;
#131 = CARTESIAN_POINT ( 'NONE',  ( 3.061616997868383018E-17, 0.000000000000000000, 0.2500000000000000000 ) ) ;
#132 =( GEOMETRIC_REPRESENTATION_CONTEXT ( 3 ) GLOBAL_UNCERTAINTY_ASSIGNED_CONTEXT ( ( #38 ) ) GLOBAL_UNIT_ASSIGNED_CONTEXT ( ( #299, #174, #251 ) ) REPRESENTATION_CONTEXT ( 'NONE', 'WORKASPACE' ) );
#133 = DIRECTION ( 'NONE',  ( -8.906522175617116587E-17, 1.000000000000000000, -0.000000000000000000 ) ) ;
#134 = CARTESIAN_POINT ( 'NONE',  ( 3.061616997868383018E-17, 0.000000000000000000, 0.2500000000000000000 ) ) ;
#135 = UNCERTAINTY_MEASURE_WITH_UNIT (LENGTH_MEASURE( 1.000000000000000082E-05 ), #302, 'distance_accuracy_value', 'NONE');
#136 = MECHANICAL_DESIGN_GEOMETRIC_PRESENTATION_REPRESENTATION (  '', ( #22 ), #6 ) ;
#137 =( NAMED_UNIT ( * ) PLANE_ANGLE_UNIT ( ) SI_UNIT ( $, .RADIAN. ) );
#138 = CLOSED_SHELL ( 'NONE', ( #306, #67, #227, #37 ) ) ;
#139 = CARTESIAN_POINT ( 'NONE',  ( -2.449293598294707400E-16, 6.000000000000000888, 0.000000000000000000 ) ) ;
#140 = AXIS2_PLACEMENT_3D ( 'NONE', #258, #293, #236 ) ;
#141 = SHAPE_DEFINITION_REPRESENTATION ( #279, #284 ) ;
#142 = UNCERTAINTY_MEASURE_WITH_UNIT (LENGTH_MEASURE( 1.000000000000000082E-05 ), #46, 'distance_accuracy_value', 'NONE');
#143 = ADVANCED_FACE ( 'NONE', ( #151 ), #181, .F. ) ;
#144 = DIRECTION ( 'NONE',  ( 0.000000000000000000, 1.000000000000000000, 0.000000000000000000 ) ) ;
#145 =( CONVERSION_BASED_UNIT ( 'INCH', #82 ) LENGTH_UNIT ( ) NAMED_UNIT ( #188 ) );
#146 = AXIS2_PLACEMENT_3D ( 'NONE', #65, #40, #101 ) ;
#147 = SURFACE_STYLE_FILL_AREA ( #201 ) ;
#148 = VERTEX_POINT ( 'NONE', #235 ) ;
#149 = ORIENTED_EDGE ( 'NONE', *, *, #238, .T. ) ;
#150 = ORIENTED_EDGE ( 'NONE', *, *, #237, .T. ) ;
#151 = FACE_OUTER_BOUND ( 'NONE', #173, .T. ) ;
#152 = EDGE_CURVE ( 'NONE', #226, #56, #32, .T. ) ;
#153 = CIRCLE ( 'NONE', #255, 0.2500000000000000000 ) ;
#154 = DIRECTION ( 'NONE',  ( -1.000000000000000000, -8.906522175617116587E-17, 0.000000000000000000 ) ) ;
#155 = DIMENSIONAL_EXPONENTS ( 1.000000000000000000, 0.000000000000000000, 0.000000000000000000, 0.000000000000000000, 0.000000000000000000, 0.000000000000000000, 0.000000000000000000 ) ;
#156 = STYLED_ITEM ( 'NONE', ( #274 ), #29 ) ;
#157 = DIMENSIONAL_EXPONENTS ( 1.000000000000000000, 0.000000000000000000, 0.000000000000000000, 0.000000000000000000, 0.000000000000000000, 0.000000000000000000, 0.000000000000000000 ) ;
#158 = CARTESIAN_POINT ( 'NONE',  ( -2.449293598294707400E-16, 6.000000000000000888, 0.000000000000000000 ) ) ;
#159 =( NAMED_UNIT ( * ) PLANE_ANGLE_UNIT ( ) SI_UNIT ( $, .RADIAN. ) );
#160 = DIRECTION ( 'NONE',  ( 1.000000000000000000, 8.906522175617116587E-17, 0.000000000000000000 ) ) ;
#161 = UNCERTAINTY_MEASURE_WITH_UNIT (LENGTH_MEASURE( 1.000000000000000082E-05 ), #114, 'distance_accuracy_value', 'NONE');
#162 = SURFACE_STYLE_FILL_AREA ( #70 ) ;
#163 = CLOSED_SHELL ( 'NONE', ( #61, #143, #111, #282 ) ) ;
#164 =( GEOMETRIC_REPRESENTATION_CONTEXT ( 3 ) GLOBAL_UNCERTAINTY_ASSIGNED_CONTEXT ( ( #49 ) ) GLOBAL_UNIT_ASSIGNED_CONTEXT ( ( #1, #137, #187 ) ) REPRESENTATION_CONTEXT ( 'NONE', 'WORKASPACE' ) );
#165 =( CONVERSION_BASED_UNIT ( 'INCH', #264 ) LENGTH_UNIT ( ) NAMED_UNIT ( #229 ) );
#166 = PLANE ( 'NONE',  #192 ) ;
#167 = EDGE_CURVE ( 'NONE', #179, #180, #153, .T. ) ;
#168 = FILL_AREA_STYLE_COLOUR ( '', #93 ) ;
#169 = CARTESIAN_POINT ( 'NONE',  ( 0.000000000000000000, 0.000000000000000000, -0.2500000000000000000 ) ) ;
#170 = AXIS2_PLACEMENT_3D ( 'NONE', #183, #18, #91 ) ;
#171 = PRESENTATION_STYLE_ASSIGNMENT (( #102 ) ) ;
#172 =( LENGTH_UNIT ( ) NAMED_UNIT ( * ) SI_UNIT ( $, .METRE. ) );
#173 = EDGE_LOOP ( 'NONE', ( #14, #125 ) ) ;
#174 =( NAMED_UNIT ( * ) PLANE_ANGLE_UNIT ( ) SI_UNIT ( $, .RADIAN. ) );
#175 = APPLICATION_CONTEXT ( 'automotive_design' ) ;
#176 = COLOUR_RGB ( '',1.000000000000000000, 0.000000000000000000, 0.000000000000000000 ) ;
#177 =( GEOMETRIC_REPRESENTATION_CONTEXT ( 3 ) GLOBAL_UNCERTAINTY_ASSIGNED_CONTEXT ( ( #161 ) ) GLOBAL_UNIT_ASSIGNED_CONTEXT ( ( #114, #159, #305 ) ) REPRESENTATION_CONTEXT ( 'NONE', 'WORKASPACE' ) );
#178 = EDGE_CURVE ( 'NONE', #31, #11, #308, .T. ) ;
#179 = VERTEX_POINT ( 'NONE', #281 ) ;
#180 = VERTEX_POINT ( 'NONE', #134 ) ;
#181 = PLANE ( 'NONE',  #300 ) ;
#182 = PRODUCT_RELATED_PRODUCT_CATEGORY ( 'part', '', ( #203 ) ) ;
#183 = CARTESIAN_POINT ( 'NONE',  ( 0.000000000000000000, 3.250000000000000000, 0.000000000000000000 ) ) ;
#184 = AXIS2_PLACEMENT_3D ( 'NONE', #158, #117, #304 ) ;
#185 = DIRECTION ( 'NONE',  ( -0.000000000000000000, -1.000000000000000000, -0.000000000000000000 ) ) ;
#186 = DIMENSIONAL_EXPONENTS ( 1.000000000000000000, 0.000000000000000000, 0.000000000000000000, 0.000000000000000000, 0.000000000000000000, 0.000000000000000000, 0.000000000000000000 ) ;
#187 =( NAMED_UNIT ( * ) SI_UNIT ( $, .STERADIAN. ) SOLID_ANGLE_UNIT ( ) );
#188 = DIMENSIONAL_EXPONENTS ( 1.000000000000000000, 0.000000000000000000, 0.000000000000000000, 0.000000000000000000, 0.000000000000000000, 0.000000000000000000, 0.000000000000000000 ) ;
#189 =( GEOMETRIC_REPRESENTATION_CONTEXT ( 3 ) GLOBAL_UNCERTAINTY_ASSIGNED_CONTEXT ( ( #276 ) ) GLOBAL_UNIT_ASSIGNED_CONTEXT ( ( #165, #118, #103 ) ) REPRESENTATION_CONTEXT ( 'NONE', 'WORKASPACE' ) );
#190 = SURFACE_STYLE_USAGE ( .BOTH. , #30 ) ;
#191 =( NAMED_UNIT ( * ) SI_UNIT ( $, .STERADIAN. ) SOLID_ANGLE_UNIT ( ) );
#192 = AXIS2_PLACEMENT_3D ( 'NONE', #248, #144, #27 ) ;
#193 = FACE_OUTER_BOUND ( 'NONE', #109, .T. ) ;
#194 = LINE ( 'NONE', #131, #28 ) ;
#195 = CARTESIAN_POINT ( 'NONE',  ( 0.000000000000000000, 0.000000000000000000, 0.000000000000000000 ) ) ;
#196 =( NAMED_UNIT ( * ) SI_UNIT ( $, .STERADIAN. ) SOLID_ANGLE_UNIT ( ) );
#197 = AXIS2_PLACEMENT_3D ( 'NONE', #96, #288, #256 ) ;
#198 = PLANE ( 'NONE',  #64 ) ;
#199 = SURFACE_STYLE_FILL_AREA ( #77 ) ;
#200 = APPLICATION_PROTOCOL_DEFINITION ( 'draft international standard', 'automotive_design', 1998, #175 ) ;
#201 = FILL_AREA_STYLE ('',( #85 ) ) ;
#202 = DIRECTION ( 'NONE',  ( -8.906522175617116587E-17, 1.000000000000000000, -0.000000000000000000 ) ) ;
#203 = PRODUCT ( '24362', '24362', '', ( #53 ) ) ;
#204 = EDGE_LOOP ( 'NONE', ( #108, #247 ) ) ;
#205 = ORIENTED_EDGE ( 'NONE', *, *, #100, .T. ) ;
#206 = FACE_OUTER_BOUND ( 'NONE', #9, .T. ) ;
#207 = COLOUR_RGB ( '',1.000000000000000000, 0.000000000000000000, 0.000000000000000000 ) ;
#208 = EDGE_CURVE ( 'NONE', #148, #56, #278, .T. ) ;
#209 = ORIENTED_EDGE ( 'NONE', *, *, #178, .F. ) ;
#210 = DIRECTION ( 'NONE',  ( -0.000000000000000000, -1.000000000000000000, -0.000000000000000000 ) ) ;
#211 = AXIS2_PLACEMENT_3D ( 'NONE', #139, #24, #2 ) ;
#212 = DIMENSIONAL_EXPONENTS ( 1.000000000000000000, 0.000000000000000000, 0.000000000000000000, 0.000000000000000000, 0.000000000000000000, 0.000000000000000000, 0.000000000000000000 ) ;
#213 = AXIS2_PLACEMENT_3D ( 'NONE', #215, #80, #243 ) ;
#214 = SURFACE_STYLE_FILL_AREA ( #98 ) ;
#215 = CARTESIAN_POINT ( 'NONE',  ( 0.000000000000000000, 0.000000000000000000, 0.000000000000000000 ) ) ;
#216 = FACE_OUTER_BOUND ( 'NONE', #204, .T. ) ;
#217 =( NAMED_UNIT ( * ) PLANE_ANGLE_UNIT ( ) SI_UNIT ( $, .RADIAN. ) );
#218 = ORIENTED_EDGE ( 'NONE', *, *, #12, .F. ) ;
#219 = STYLED_ITEM ( 'NONE', ( #69 ), #37 ) ;
#220 = PRODUCT_DEFINITION_FORMATION_WITH_SPECIFIED_SOURCE ( 'ANY', '', #203, .NOT_KNOWN. ) ;
#221 = LINE ( 'NONE', #169, #291 ) ;
#222 = CYLINDRICAL_SURFACE ( 'NONE', #84, 0.2500000000000000555 ) ;
#223 = FACE_OUTER_BOUND ( 'NONE', #257, .T. ) ;
#224 = DIRECTION ( 'NONE',  ( 0.000000000000000000, 0.000000000000000000, -1.000000000000000000 ) ) ;
#225 = VECTOR ( 'NONE', #298, 39.37007874015748143 ) ;
#226 = VERTEX_POINT ( 'NONE', #21 ) ;
#227 = ADVANCED_FACE ( 'NONE', ( #287 ), #42, .T. ) ;
#228 = EDGE_LOOP ( 'NONE', ( #15, #273 ) ) ;
#229 = DIMENSIONAL_EXPONENTS ( 1.000000000000000000, 0.000000000000000000, 0.000000000000000000, 0.000000000000000000, 0.000000000000000000, 0.000000000000000000, 0.000000000000000000 ) ;
#230 = ORIENTED_EDGE ( 'NONE', *, *, #178, .T. ) ;
#231 = APPLICATION_PROTOCOL_DEFINITION ( 'draft international standard', 'automotive_design', 1998, #90 ) ;
#232 = EDGE_LOOP ( 'NONE', ( #128, #88, #252, #57 ) ) ;
#233 = DIRECTION ( 'NONE',  ( 8.906522175617116587E-17, -1.000000000000000000, 0.000000000000000000 ) ) ;
#234 = COLOUR_RGB ( '',0.7921568627450980005, 0.8196078431372548767, 0.9333333333333333481 ) ;
#235 = CARTESIAN_POINT ( 'NONE',  ( 0.2499999999999999722, 6.000000000000000888, 3.061616997868384251E-17 ) ) ;
#236 = DIRECTION ( 'NONE',  ( 0.000000000000000000, 0.000000000000000000, -1.000000000000000000 ) ) ;
#237 = EDGE_CURVE ( 'NONE', #11, #180, #194, .T. ) ;
#238 = EDGE_CURVE ( 'NONE', #11, #31, #79, .T. ) ;
#239 = AXIS2_PLACEMENT_3D ( 'NONE', #244, #120, #250 ) ;
#240 = PRESENTATION_LAYER_ASSIGNMENT (  '', '', ( #36 ) ) ;
#241 =( LENGTH_UNIT ( ) NAMED_UNIT ( * ) SI_UNIT ( $, .METRE. ) );
#242 = LENGTH_MEASURE_WITH_UNIT ( LENGTH_MEASURE( 0.02539999999999999897 ), #265 );
#243 = DIRECTION ( 'NONE',  ( 0.000000000000000000, 0.000000000000000000, -1.000000000000000000 ) ) ;
#244 = CARTESIAN_POINT ( 'NONE',  ( 0.000000000000000000, 0.000000000000000000, 0.000000000000000000 ) ) ;
#245 = FACE_OUTER_BOUND ( 'NONE', #228, .T. ) ;
#246 = DIRECTION ( 'NONE',  ( -0.000000000000000000, -1.000000000000000000, -0.000000000000000000 ) ) ;
#247 = ORIENTED_EDGE ( 'NONE', *, *, #45, .T. ) ;
#248 = CARTESIAN_POINT ( 'NONE',  ( 0.000000000000000000, 3.250000000000000000, 0.000000000000000000 ) ) ;
#249 = FILL_AREA_STYLE_COLOUR ( '', #176 ) ;
#250 = DIRECTION ( 'NONE',  ( 0.000000000000000000, 0.000000000000000000, -1.000000000000000000 ) ) ;
#251 =( NAMED_UNIT ( * ) SI_UNIT ( $, .STERADIAN. ) SOLID_ANGLE_UNIT ( ) );
#252 = ORIENTED_EDGE ( 'NONE', *, *, #296, .F. ) ;
#253 = ORIENTED_EDGE ( 'NONE', *, *, #167, .F. ) ;
#254 = CARTESIAN_POINT ( 'NONE',  ( 0.000000000000000000, 0.000000000000000000, 0.000000000000000000 ) ) ;
#255 = AXIS2_PLACEMENT_3D ( 'NONE', #254, #185, #35 ) ;
#256 = DIRECTION ( 'NONE',  ( 0.000000000000000000, 0.000000000000000000, -1.000000000000000000 ) ) ;
#257 = EDGE_LOOP ( 'NONE', ( #230, #150, #253, #218 ) ) ;
#258 = CARTESIAN_POINT ( 'NONE',  ( 0.000000000000000000, 3.250000000000000000, 0.000000000000000000 ) ) ;
#259 = PRESENTATION_LAYER_ASSIGNMENT (  '', '', ( #219 ) ) ;
#260 = EDGE_CURVE ( 'NONE', #60, #148, #97, .T. ) ;
#261 = SURFACE_SIDE_STYLE ('',( #162 ) ) ;
#262 = CARTESIAN_POINT ( 'NONE',  ( 0.000000000000000000, 3.250000000000000000, -0.2499999999999999722 ) ) ;
#263 =( LENGTH_UNIT ( ) NAMED_UNIT ( * ) SI_UNIT ( $, .METRE. ) );
#264 = LENGTH_MEASURE_WITH_UNIT ( LENGTH_MEASURE( 0.02539999999999999897 ), #73 );
#265 =( LENGTH_UNIT ( ) NAMED_UNIT ( * ) SI_UNIT ( $, .METRE. ) );
#266 = AXIS2_PLACEMENT_3D ( 'NONE', #110, #280, #124 ) ;
#267 = CARTESIAN_POINT ( 'NONE',  ( 0.2499999999999998335, 6.000000000000000888, 3.061616997868383634E-17 ) ) ;
#268 = PRESENTATION_STYLE_ASSIGNMENT (( #23 ) ) ;
#269 = PLANE ( 'NONE',  #239 ) ;
#270 = COLOUR_RGB ( '',0.7921568627450980005, 0.8196078431372548767, 0.9333333333333333481 ) ;
#271 = CIRCLE ( 'NONE', #266, 0.2499999999999999722 ) ;
#272 = FILL_AREA_STYLE ('',( #122 ) ) ;
#273 = ORIENTED_EDGE ( 'NONE', *, *, #208, .T. ) ;
#274 = PRESENTATION_STYLE_ASSIGNMENT (( #87 ) ) ;
#275 = CARTESIAN_POINT ( 'NONE',  ( 9.915767158094932200E-34, 3.250000000000000000, 0.000000000000000000 ) ) ;
#276 = UNCERTAINTY_MEASURE_WITH_UNIT (LENGTH_MEASURE( 1.000000000000000082E-05 ), #165, 'distance_accuracy_value', 'NONE');
#277 = ORIENTED_EDGE ( 'NONE', *, *, #238, .F. ) ;
#278 = CIRCLE ( 'NONE', #184, 0.2500000000000002220 ) ;
#279 = PRODUCT_DEFINITION_SHAPE ( 'NONE', 'NONE',  #119 ) ;
#280 = DIRECTION ( 'NONE',  ( -8.906522175617116587E-17, 1.000000000000000000, -0.000000000000000000 ) ) ;
#281 = CARTESIAN_POINT ( 'NONE',  ( 0.000000000000000000, 0.000000000000000000, -0.2500000000000000000 ) ) ;
#282 = ADVANCED_FACE ( 'NONE', ( #245 ), #198, .F. ) ;
#283 = SURFACE_SIDE_STYLE ('',( #214 ) ) ;
#284 = ADVANCED_BREP_SHAPE_REPRESENTATION ( '24362', ( #29, #26, #146 ), #292 ) ;
#285 = FILL_AREA_STYLE_COLOUR ( '', #207 ) ;
#286 = LENGTH_MEASURE_WITH_UNIT ( LENGTH_MEASURE( 0.02539999999999999897 ), #263 );
#287 = FACE_OUTER_BOUND ( 'NONE', #33, .T. ) ;
#288 = DIRECTION ( 'NONE',  ( -0.000000000000000000, -1.000000000000000000, -0.000000000000000000 ) ) ;
#289 = LENGTH_MEASURE_WITH_UNIT ( LENGTH_MEASURE( 0.02539999999999999897 ), #71 );
#290 = PRESENTATION_STYLE_ASSIGNMENT (( #190 ) ) ;
#291 = VECTOR ( 'NONE', #54, 39.37007874015748143 ) ;
#292 =( GEOMETRIC_REPRESENTATION_CONTEXT ( 3 ) GLOBAL_UNCERTAINTY_ASSIGNED_CONTEXT ( ( #135 ) ) GLOBAL_UNIT_ASSIGNED_CONTEXT ( ( #302, #217, #99 ) ) REPRESENTATION_CONTEXT ( 'NONE', 'WORKASPACE' ) );
#293 = DIRECTION ( 'NONE',  ( -0.000000000000000000, -1.000000000000000000, -0.000000000000000000 ) ) ;
#294 = SURFACE_SIDE_STYLE ('',( #199 ) ) ;
#295 = CARTESIAN_POINT ( 'NONE',  ( -0.2500000000000004441, 6.000000000000000888, 0.000000000000000000 ) ) ;
#296 = EDGE_CURVE ( 'NONE', #56, #148, #52, .T. ) ;
#297 = MECHANICAL_DESIGN_GEOMETRIC_PRESENTATION_REPRESENTATION (  '', ( #303 ), #104 ) ;
#298 = DIRECTION ( 'NONE',  ( -8.906522175617116587E-17, 1.000000000000000000, -0.000000000000000000 ) ) ;
#299 =( CONVERSION_BASED_UNIT ( 'INCH', #7 ) LENGTH_UNIT ( ) NAMED_UNIT ( #157 ) );
#300 = AXIS2_PLACEMENT_3D ( 'NONE', #275, #89, #154 ) ;
#301 = CARTESIAN_POINT ( 'NONE',  ( -0.2500000000000002776, 6.000000000000000888, 0.000000000000000000 ) ) ;
#302 =( CONVERSION_BASED_UNIT ( 'INCH', #242 ) LENGTH_UNIT ( ) NAMED_UNIT ( #212 ) );
#303 = STYLED_ITEM ( 'NONE', ( #268 ), #67 ) ;
#304 = DIRECTION ( 'NONE',  ( -1.000000000000000000, 0.000000000000000000, 0.000000000000000000 ) ) ;
#305 =( NAMED_UNIT ( * ) SI_UNIT ( $, .STERADIAN. ) SOLID_ANGLE_UNIT ( ) );
#306 = ADVANCED_FACE ( 'NONE', ( #223 ), #105, .T. ) ;
#307 = CIRCLE ( 'NONE', #34, 0.2500000000000000000 ) ;
#308 = CIRCLE ( 'NONE', #170, 0.2499999999999999722 ) ;
#309 =( NAMED_UNIT ( * ) PLANE_ANGLE_UNIT ( ) SI_UNIT ( $, .RADIAN. ) );
ENDSEC;
END-ISO-10303-21;
