ISO-10303-21;
HEADER;
FILE_DESCRIPTION (( 'STEP AP214' ),
    '1' );
FILE_NAME ('Micro_RDB-20.STEP',
    '2021-08-31T16:59:41',
    ( '' ),
    ( '' ),
    'SwSTEP 2.0',
    'SolidWorks 2020',
    '' );
FILE_SCHEMA (( 'AUTOMOTIVE_DESIGN' ));
ENDSEC;

DATA;
#1 = DIRECTION ( 'NONE',  ( -1.000000000000000000, 0.0000000000000000000, 0.0000000000000000000 ) ) ;
#2 = DIRECTION ( 'NONE',  ( -1.000000000000000000, 0.0000000000000000000, 0.0000000000000000000 ) ) ;
#3 = CARTESIAN_POINT ( 'NONE',  ( 4.592425496802575451E-17, 0.0000000000000000000, 0.3749999999999999445 ) ) ;
#4 = CARTESIAN_POINT ( 'NONE',  ( 4.592425496802575451E-17, 0.0000000000000000000, 0.3749999999999999445 ) ) ;
#5 = DIRECTION ( 'NONE',  ( 0.0000000000000000000, 0.0000000000000000000, 1.000000000000000000 ) ) ;
#6 = DIRECTION ( 'NONE',  ( 0.0000000000000000000, 0.0000000000000000000, 1.000000000000000000 ) ) ;
#7 = CARTESIAN_POINT ( 'NONE',  ( 4.592425496802575451E-17, 0.0000000000000000000, 0.3749999999999999445 ) ) ;
#8 = DIRECTION ( 'NONE',  ( 1.000000000000000000, 0.0000000000000000000, 0.0000000000000000000 ) ) ;
#9 = CARTESIAN_POINT ( 'NONE',  ( 0.0000000000000000000, 0.0000000000000000000, 1.485000000000000764 ) ) ;
#10 = CIRCLE ( 'NONE', #18, 0.04750000000000064587 ) ;
#11 = EDGE_CURVE ( 'NONE', #202, #269, #137, .T. ) ;
#12 = DIRECTION ( 'NONE',  ( 0.0000000000000000000, 0.0000000000000000000, -1.000000000000000000 ) ) ;
#13 = VERTEX_POINT ( 'NONE', #186 ) ;
#14 = CONICAL_SURFACE ( 'NONE', #257, 0.04685310000000000863, 0.1745329251994339192 ) ;
#15 = ORIENTED_EDGE ( 'NONE', *, *, #239, .T. ) ;
#16 = EDGE_LOOP ( 'NONE', ( #58, #183, #251, #101 ) ) ;
#17 = DIRECTION ( 'NONE',  ( -1.224646799147353454E-16, -0.0000000000000000000, -1.000000000000000000 ) ) ;
#18 = AXIS2_PLACEMENT_3D ( 'NONE', #70, #6, #8 ) ;
#19 = DIRECTION ( 'NONE',  ( 1.000000000000000000, 0.0000000000000000000, 0.0000000000000000000 ) ) ;
#20 = FACE_OUTER_BOUND ( 'NONE', #182, .T. ) ;
#21 = EDGE_CURVE ( 'NONE', #201, #133, #179, .T. ) ;
#22 = PRESENTATION_STYLE_ASSIGNMENT (( #139 ) ) ;
#23 = STYLED_ITEM ( 'NONE', ( #22 ), #95 ) ;
#24 = CARTESIAN_POINT ( 'NONE',  ( 0.04685310000000001557, 5.737849894513087439E-18, 0.0000000000000000000 ) ) ;
#25 = DIRECTION ( 'NONE',  ( 0.0000000000000000000, 0.0000000000000000000, -1.000000000000000000 ) ) ;
#26 = DIRECTION ( 'NONE',  ( -1.000000000000000000, 0.0000000000000000000, 1.224646799147353454E-16 ) ) ;
#27 = MECHANICAL_DESIGN_GEOMETRIC_PRESENTATION_REPRESENTATION (  '', ( #23 ), #237 ) ;
#28 = CARTESIAN_POINT ( 'NONE',  ( 0.04750000000000064587, 5.817072295950006528E-18, 1.500000000000000222 ) ) ;
#29 = CARTESIAN_POINT ( 'NONE',  ( -0.04685310000000001557, 0.0000000000000000000, 5.737849894513088209E-18 ) ) ;
#30 = ADVANCED_FACE ( 'NONE', ( #63 ), #41, .T. ) ;
#31 =( NAMED_UNIT ( * ) PLANE_ANGLE_UNIT ( ) SI_UNIT ( $, .RADIAN. ) );
#32 = EDGE_LOOP ( 'NONE', ( #185, #150, #52, #131 ) ) ;
#33 =( CONVERSION_BASED_UNIT ( 'INCH', #36 ) LENGTH_UNIT ( ) NAMED_UNIT ( #184 ) );
#34 = VERTEX_POINT ( 'NONE', #161 ) ;
#35 = AXIS2_PLACEMENT_3D ( 'NONE', #146, #240, #235 ) ;
#36 = LENGTH_MEASURE_WITH_UNIT ( LENGTH_MEASURE( 0.02539999999999999897 ), #55 );
#37 = EDGE_LOOP ( 'NONE', ( #245, #54 ) ) ;
#38 = EDGE_LOOP ( 'NONE', ( #152, #297, #15, #265 ) ) ;
#39 = AXIS2_PLACEMENT_3D ( 'NONE', #215, #94, #284 ) ;
#40 = DIRECTION ( 'NONE',  ( 1.224646799147353454E-16, 0.0000000000000000000, 1.000000000000000000 ) ) ;
#41 = CONICAL_SURFACE ( 'NONE', #145, 0.04750000000000064587, 0.7853981633974466137 ) ;
#42 =( NAMED_UNIT ( * ) SI_UNIT ( $, .STERADIAN. ) SOLID_ANGLE_UNIT ( ) );
#43 = SURFACE_SIDE_STYLE ('',( #255 ) ) ;
#44 = CIRCLE ( 'NONE', #187, 0.04685310000000000863 ) ;
#45 = DIRECTION ( 'NONE',  ( -1.224646799147353454E-16, -0.0000000000000000000, -1.000000000000000000 ) ) ;
#46 = DIRECTION ( 'NONE',  ( -1.224646799147353454E-16, -0.0000000000000000000, -1.000000000000000000 ) ) ;
#47 = DIRECTION ( 'NONE',  ( 0.0000000000000000000, 0.0000000000000000000, 1.000000000000000000 ) ) ;
#48 = VECTOR ( 'NONE', #49, 39.37007874015748143 ) ;
#49 = DIRECTION ( 'NONE',  ( -0.0000000000000000000, -0.0000000000000000000, -1.000000000000000000 ) ) ;
#50 = DIRECTION ( 'NONE',  ( 0.1736481776669314137, 0.0000000000000000000, 0.9848077530122077983 ) ) ;
#51 = ORIENTED_EDGE ( 'NONE', *, *, #227, .F. ) ;
#52 = ORIENTED_EDGE ( 'NONE', *, *, #260, .T. ) ;
#53 = ADVANCED_BREP_SHAPE_REPRESENTATION ( 'Micro_RDB-20', ( #95, #136 ), #159 ) ;
#54 = ORIENTED_EDGE ( 'NONE', *, *, #21, .T. ) ;
#55 =( LENGTH_UNIT ( ) NAMED_UNIT ( * ) SI_UNIT ( $, .METRE. ) );
#56 = EDGE_LOOP ( 'NONE', ( #204, #272, #295, #293 ) ) ;
#57 = CIRCLE ( 'NONE', #141, 0.04685310000000001557 ) ;
#58 = ORIENTED_EDGE ( 'NONE', *, *, #236, .F. ) ;
#59 = CARTESIAN_POINT ( 'NONE',  ( -0.04685309999999996700, 6.695946194592023262E-18, 0.3749999999999999445 ) ) ;
#60 = ADVANCED_FACE ( 'NONE', ( #138 ), #252, .T. ) ;
#61 = PRESENTATION_LAYER_ASSIGNMENT (  '', '', ( #23 ) ) ;
#62 = CARTESIAN_POINT ( 'NONE',  ( 4.592425496802575451E-17, 0.0000000000000000000, 0.3749999999999999445 ) ) ;
#63 = FACE_OUTER_BOUND ( 'NONE', #226, .T. ) ;
#64 = DIRECTION ( 'NONE',  ( 1.000000000000000000, 0.0000000000000000000, 0.0000000000000000000 ) ) ;
#65 = CARTESIAN_POINT ( 'NONE',  ( -0.04750000000000064587, 0.0000000000000000000, 1.500000000000000222 ) ) ;
#66 = AXIS2_PLACEMENT_3D ( 'NONE', #210, #205, #114 ) ;
#67 = STYLED_ITEM ( 'NONE', ( #220 ), #53 ) ;
#68 = CARTESIAN_POINT ( 'NONE',  ( -0.04685309999999996700, 5.737849894513086668E-18, 0.3749999999999999445 ) ) ;
#69 = CARTESIAN_POINT ( 'NONE',  ( 0.0000000000000000000, 0.0000000000000000000, 1.500000000000000222 ) ) ;
#70 = CARTESIAN_POINT ( 'NONE',  ( 0.0000000000000000000, 0.0000000000000000000, 1.500000000000000222 ) ) ;
#71 = AXIS2_PLACEMENT_3D ( 'NONE', #62, #256, #2 ) ;
#72 = CYLINDRICAL_SURFACE ( 'NONE', #39, 0.06250000000000002776 ) ;
#73 = APPLICATION_PROTOCOL_DEFINITION ( 'draft international standard', 'automotive_design', 1998, #149 ) ;
#74 = ORIENTED_EDGE ( 'NONE', *, *, #289, .F. ) ;
#75 = AXIS2_PLACEMENT_3D ( 'NONE', #118, #117, #92 ) ;
#76 =( LENGTH_UNIT ( ) NAMED_UNIT ( * ) SI_UNIT ( $, .METRE. ) );
#77 = DIMENSIONAL_EXPONENTS ( 1.000000000000000000, 0.0000000000000000000, 0.0000000000000000000, 0.0000000000000000000, 0.0000000000000000000, 0.0000000000000000000, 0.0000000000000000000 ) ;
#78 = ORIENTED_EDGE ( 'NONE', *, *, #111, .T. ) ;
#79 = ORIENTED_EDGE ( 'NONE', *, *, #236, .T. ) ;
#80 = PRODUCT ( 'Micro_RDB-20', 'Micro_RDB-20', '', ( #268 ) ) ;
#81 = SURFACE_STYLE_USAGE ( .BOTH. , #296 ) ;
#82 = EDGE_CURVE ( 'NONE', #127, #13, #209, .T. ) ;
#83 = ORIENTED_EDGE ( 'NONE', *, *, #82, .F. ) ;
#84 = AXIS2_PLACEMENT_3D ( 'NONE', #89, #85, #274 ) ;
#85 = DIRECTION ( 'NONE',  ( -1.224646799147353454E-16, -0.0000000000000000000, -1.000000000000000000 ) ) ;
#86 =( NAMED_UNIT ( * ) PLANE_ANGLE_UNIT ( ) SI_UNIT ( $, .RADIAN. ) );
#87 = FACE_OUTER_BOUND ( 'NONE', #249, .T. ) ;
#88 = CIRCLE ( 'NONE', #224, 0.06250000000000002776 ) ;
#89 = CARTESIAN_POINT ( 'NONE',  ( 5.679152322418703517E-17, 0.0000000000000000000, 0.4637379795033758634 ) ) ;
#90 = DIRECTION ( 'NONE',  ( 0.7071067811865462405, 8.659560562354916834E-17, -0.7071067811865486830 ) ) ;
#91 = ADVANCED_FACE ( 'NONE', ( #87 ), #93, .T. ) ;
#92 = DIRECTION ( 'NONE',  ( -1.000000000000000000, 0.0000000000000000000, 0.0000000000000000000 ) ) ;
#93 = CONICAL_SURFACE ( 'NONE', #298, 0.04685310000000000863, 0.1745329251994339192 ) ;
#94 = DIRECTION ( 'NONE',  ( -0.0000000000000000000, -0.0000000000000000000, -1.000000000000000000 ) ) ;
#95 = MANIFOLD_SOLID_BREP ( 'Cut-Revolve1', #124 ) ;
#96 = DIRECTION ( 'NONE',  ( -0.7071067811865462405, 0.0000000000000000000, -0.7071067811865486830 ) ) ;
#97 = PLANE ( 'NONE',  #276 ) ;
#98 = AXIS2_PLACEMENT_3D ( 'NONE', #195, #47, #263 ) ;
#99 = LENGTH_MEASURE_WITH_UNIT ( LENGTH_MEASURE( 0.02539999999999999897 ), #76 );
#100 = PRODUCT_DEFINITION ( 'UNKNOWN', '', #178, #190 ) ;
#101 = ORIENTED_EDGE ( 'NONE', *, *, #250, .T. ) ;
#102 = ADVANCED_FACE ( 'NONE', ( #208 ), #194, .T. ) ;
#103 = ORIENTED_EDGE ( 'NONE', *, *, #294, .T. ) ;
#104 = APPLICATION_PROTOCOL_DEFINITION ( 'draft international standard', 'automotive_design', 1998, #113 ) ;
#105 = ORIENTED_EDGE ( 'NONE', *, *, #260, .F. ) ;
#106 = PRODUCT_DEFINITION_SHAPE ( 'NONE', 'NONE',  #100 ) ;
#107 = DIRECTION ( 'NONE',  ( -1.224646799147353454E-16, -0.0000000000000000000, -1.000000000000000000 ) ) ;
#108 = CIRCLE ( 'NONE', #280, 0.06250000000000002776 ) ;
#109 = AXIS2_PLACEMENT_3D ( 'NONE', #207, #107, #160 ) ;
#110 = FILL_AREA_STYLE_COLOUR ( '', #170 ) ;
#111 = EDGE_CURVE ( 'NONE', #228, #269, #243, .T. ) ;
#112 = CARTESIAN_POINT ( 'NONE',  ( 0.0000000000000000000, 0.0000000000000000000, 1.500000000000000222 ) ) ;
#113 = APPLICATION_CONTEXT ( 'automotive_design' ) ;
#114 = DIRECTION ( 'NONE',  ( -1.000000000000000000, 0.0000000000000000000, 0.0000000000000000000 ) ) ;
#115 = FACE_OUTER_BOUND ( 'NONE', #16, .T. ) ;
#116 = ADVANCED_FACE ( 'NONE', ( #115 ), #14, .T. ) ;
#117 = DIRECTION ( 'NONE',  ( -0.0000000000000000000, -0.0000000000000000000, -1.000000000000000000 ) ) ;
#118 = CARTESIAN_POINT ( 'NONE',  ( 0.0000000000000000000, 0.0000000000000000000, 1.500000000000000222 ) ) ;
#119 = FACE_OUTER_BOUND ( 'NONE', #222, .T. ) ;
#120 = PRODUCT_RELATED_PRODUCT_CATEGORY ( 'part', '', ( #80 ) ) ;
#121 = DIRECTION ( 'NONE',  ( -1.000000000000000000, 0.0000000000000000000, 0.0000000000000000000 ) ) ;
#122 = DIRECTION ( 'NONE',  ( 1.000000000000000000, 0.0000000000000000000, -0.0000000000000000000 ) ) ;
#123 = VECTOR ( 'NONE', #17, 39.37007874015748143 ) ;
#124 = CLOSED_SHELL ( 'NONE', ( #140, #91, #30, #282, #180, #172, #102, #116, #60, #283 ) ) ;
#125 = UNCERTAINTY_MEASURE_WITH_UNIT (LENGTH_MEASURE( 1.000000000000000082E-05 ), #33, 'distance_accuracy_value', 'NONE');
#126 = ORIENTED_EDGE ( 'NONE', *, *, #11, .T. ) ;
#127 = VERTEX_POINT ( 'NONE', #59 ) ;
#128 = ORIENTED_EDGE ( 'NONE', *, *, #221, .F. ) ;
#129 = AXIS2_PLACEMENT_3D ( 'NONE', #238, #46, #26 ) ;
#130 = DIRECTION ( 'NONE',  ( -1.224646799147353454E-16, -0.0000000000000000000, -1.000000000000000000 ) ) ;
#131 = ORIENTED_EDGE ( 'NONE', *, *, #21, .F. ) ;
#132 = EDGE_CURVE ( 'NONE', #13, #201, #299, .T. ) ;
#133 = VERTEX_POINT ( 'NONE', #253 ) ;
#134 = DIRECTION ( 'NONE',  ( 1.224646799147353454E-16, 0.0000000000000000000, 1.000000000000000000 ) ) ;
#135 = CIRCLE ( 'NONE', #287, 0.04750000000000064587 ) ;
#136 = AXIS2_PLACEMENT_3D ( 'NONE', #196, #290, #174 ) ;
#137 = LINE ( 'NONE', #188, #165 ) ;
#138 = FACE_OUTER_BOUND ( 'NONE', #32, .T. ) ;
#139 = SURFACE_STYLE_USAGE ( .BOTH. , #43 ) ;
#140 = ADVANCED_FACE ( 'NONE', ( #20 ), #169, .T. ) ;
#141 = AXIS2_PLACEMENT_3D ( 'NONE', #144, #130, #200 ) ;
#142 = LINE ( 'NONE', #259, #48 ) ;
#143 = LINE ( 'NONE', #28, #176 ) ;
#144 = CARTESIAN_POINT ( 'NONE',  ( 7.026839507303433011E-34, 0.0000000000000000000, 5.737849894513088209E-18 ) ) ;
#145 = AXIS2_PLACEMENT_3D ( 'NONE', #112, #277, #1 ) ;
#146 = CARTESIAN_POINT ( 'NONE',  ( 5.679152322418703517E-17, 0.0000000000000000000, 0.4637379795033758634 ) ) ;
#147 = EDGE_CURVE ( 'NONE', #267, #202, #143, .T. ) ;
#148 = FILL_AREA_STYLE ('',( #292 ) ) ;
#149 = APPLICATION_CONTEXT ( 'automotive_design' ) ;
#150 = ORIENTED_EDGE ( 'NONE', *, *, #217, .T. ) ;
#151 = EDGE_CURVE ( 'NONE', #153, #267, #135, .T. ) ;
#152 = ORIENTED_EDGE ( 'NONE', *, *, #147, .F. ) ;
#153 = VERTEX_POINT ( 'NONE', #65 ) ;
#154 = VECTOR ( 'NONE', #50, 39.37007874015748143 ) ;
#155 = VECTOR ( 'NONE', #192, 39.37007874015747433 ) ;
#156 = ORIENTED_EDGE ( 'NONE', *, *, #227, .T. ) ;
#157 =( LENGTH_UNIT ( ) NAMED_UNIT ( * ) SI_UNIT ( $, .METRE. ) );
#158 = CARTESIAN_POINT ( 'NONE',  ( 0.04685310000000001557, 5.737849894513087439E-18, -5.737849894513088209E-18 ) ) ;
#159 =( GEOMETRIC_REPRESENTATION_CONTEXT ( 3 ) GLOBAL_UNCERTAINTY_ASSIGNED_CONTEXT ( ( #125 ) ) GLOBAL_UNIT_ASSIGNED_CONTEXT ( ( #33, #31, #244 ) ) REPRESENTATION_CONTEXT ( 'NONE', 'WORKASPACE' ) );
#160 = DIRECTION ( 'NONE',  ( -1.000000000000000000, 0.0000000000000000000, 1.224646799147353454E-16 ) ) ;
#161 = CARTESIAN_POINT ( 'NONE',  ( -0.06250000000000002776, 0.0000000000000000000, 1.485000000000000764 ) ) ;
#162 = DIRECTION ( 'NONE',  ( -1.000000000000000000, 0.0000000000000000000, 1.224646799147353454E-16 ) ) ;
#163 = COLOUR_RGB ( '',0.7921568627450980005, 0.8196078431372548767, 0.9333333333333333481 ) ;
#164 = LINE ( 'NONE', #68, #155 ) ;
#165 = VECTOR ( 'NONE', #232, 39.37007874015748143 ) ;
#166 = EDGE_CURVE ( 'NONE', #202, #34, #108, .T. ) ;
#167 = DIRECTION ( 'NONE',  ( 0.0000000000000000000, 0.0000000000000000000, 1.000000000000000000 ) ) ;
#168 = LINE ( 'NONE', #29, #286 ) ;
#169 = CYLINDRICAL_SURFACE ( 'NONE', #129, 0.04685310000000001557 ) ;
#170 = COLOUR_RGB ( '',0.7921568627450980005, 0.8196078431372548767, 0.9333333333333333481 ) ;
#171 = CARTESIAN_POINT ( 'NONE',  ( 0.06250000000000008327, 7.654042494670966789E-18, 0.4637379795033758634 ) ) ;
#172 = ADVANCED_FACE ( 'NONE', ( #191 ), #97, .T. ) ;
#173 = UNCERTAINTY_MEASURE_WITH_UNIT (LENGTH_MEASURE( 1.000000000000000082E-05 ), #271, 'distance_accuracy_value', 'NONE');
#174 = DIRECTION ( 'NONE',  ( 1.000000000000000000, 0.0000000000000000000, 0.0000000000000000000 ) ) ;
#175 = ORIENTED_EDGE ( 'NONE', *, *, #239, .F. ) ;
#176 = VECTOR ( 'NONE', #90, 39.37007874015748854 ) ;
#177 = ORIENTED_EDGE ( 'NONE', *, *, #132, .T. ) ;
#178 = PRODUCT_DEFINITION_FORMATION_WITH_SPECIFIED_SOURCE ( 'ANY', '', #80, .NOT_KNOWN. ) ;
#179 = CIRCLE ( 'NONE', #109, 0.04685310000000001557 ) ;
#180 = ADVANCED_FACE ( 'NONE', ( #193 ), #234, .T. ) ;
#181 =( NAMED_UNIT ( * ) PLANE_ANGLE_UNIT ( ) SI_UNIT ( $, .RADIAN. ) );
#182 = EDGE_LOOP ( 'NONE', ( #199, #177, #74, #105 ) ) ;
#183 = ORIENTED_EDGE ( 'NONE', *, *, #217, .F. ) ;
#184 = DIMENSIONAL_EXPONENTS ( 1.000000000000000000, 0.0000000000000000000, 0.0000000000000000000, 0.0000000000000000000, 0.0000000000000000000, 0.0000000000000000000, 0.0000000000000000000 ) ;
#185 = ORIENTED_EDGE ( 'NONE', *, *, #132, .F. ) ;
#186 = CARTESIAN_POINT ( 'NONE',  ( 0.04685310000000005026, 0.0000000000000000000, 0.3749999999999999445 ) ) ;
#187 = AXIS2_PLACEMENT_3D ( 'NONE', #7, #216, #121 ) ;
#188 = CARTESIAN_POINT ( 'NONE',  ( 0.06250000000000002776, 7.654042494670959086E-18, 1.500000000000000222 ) ) ;
#189 = CARTESIAN_POINT ( 'NONE',  ( 0.06250000000000002776, 7.654042494670959086E-18, 1.485000000000000764 ) ) ;
#190 = PRODUCT_DEFINITION_CONTEXT ( 'detailed design', #113, 'design' ) ;
#191 = FACE_OUTER_BOUND ( 'NONE', #225, .T. ) ;
#192 = DIRECTION ( 'NONE',  ( -0.1736481776669312194, 2.126576849575783625E-17, 0.9848077530122080203 ) ) ;
#193 = FACE_OUTER_BOUND ( 'NONE', #56, .T. ) ;
#194 = CONICAL_SURFACE ( 'NONE', #66, 0.04750000000000064587, 0.7853981633974466137 ) ;
#195 = CARTESIAN_POINT ( 'NONE',  ( 0.0000000000000000000, 0.0000000000000000000, 0.0000000000000000000 ) ) ;
#196 = CARTESIAN_POINT ( 'NONE',  ( 0.0000000000000000000, 0.0000000000000000000, 0.0000000000000000000 ) ) ;
#197 = ORIENTED_EDGE ( 'NONE', *, *, #111, .F. ) ;
#198 =( NAMED_UNIT ( * ) SI_UNIT ( $, .STERADIAN. ) SOLID_ANGLE_UNIT ( ) );
#199 = ORIENTED_EDGE ( 'NONE', *, *, #82, .T. ) ;
#200 = DIRECTION ( 'NONE',  ( -1.000000000000000000, 0.0000000000000000000, 1.224646799147353454E-16 ) ) ;
#201 = VERTEX_POINT ( 'NONE', #24 ) ;
#202 = VERTEX_POINT ( 'NONE', #189 ) ;
#203 = CARTESIAN_POINT ( 'NONE',  ( 0.0000000000000000000, 0.0000000000000000000, 1.485000000000000764 ) ) ;
#204 = ORIENTED_EDGE ( 'NONE', *, *, #11, .F. ) ;
#205 = DIRECTION ( 'NONE',  ( 0.0000000000000000000, 0.0000000000000000000, -1.000000000000000000 ) ) ;
#206 = AXIS2_PLACEMENT_3D ( 'NONE', #278, #275, #162 ) ;
#207 = CARTESIAN_POINT ( 'NONE',  ( 7.026839507303433011E-34, 0.0000000000000000000, 5.737849894513088209E-18 ) ) ;
#208 = FACE_OUTER_BOUND ( 'NONE', #38, .T. ) ;
#209 = CIRCLE ( 'NONE', #71, 0.04685310000000000863 ) ;
#210 = CARTESIAN_POINT ( 'NONE',  ( 0.0000000000000000000, 0.0000000000000000000, 1.500000000000000222 ) ) ;
#211 = CARTESIAN_POINT ( 'NONE',  ( 0.0000000000000000000, 0.0000000000000000000, 1.500000000000000222 ) ) ;
#212 = DIRECTION ( 'NONE',  ( 1.000000000000000000, 0.0000000000000000000, 0.0000000000000000000 ) ) ;
#213 = VECTOR ( 'NONE', #96, 39.37007874015748854 ) ;
#214 = PRESENTATION_LAYER_ASSIGNMENT (  '', '', ( #67 ) ) ;
#215 = CARTESIAN_POINT ( 'NONE',  ( 0.0000000000000000000, 0.0000000000000000000, 1.500000000000000222 ) ) ;
#216 = DIRECTION ( 'NONE',  ( -1.224646799147353454E-16, -0.0000000000000000000, -1.000000000000000000 ) ) ;
#217 = EDGE_CURVE ( 'NONE', #13, #127, #44, .T. ) ;
#218 = PLANE ( 'NONE',  #98 ) ;
#219 = MECHANICAL_DESIGN_GEOMETRIC_PRESENTATION_REPRESENTATION (  '', ( #67 ), #266 ) ;
#220 = PRESENTATION_STYLE_ASSIGNMENT (( #81 ) ) ;
#221 = EDGE_CURVE ( 'NONE', #13, #269, #285, .T. ) ;
#222 = EDGE_LOOP ( 'NONE', ( #103, #126, #197, #223 ) ) ;
#223 = ORIENTED_EDGE ( 'NONE', *, *, #242, .F. ) ;
#224 = AXIS2_PLACEMENT_3D ( 'NONE', #203, #12, #246 ) ;
#225 = EDGE_LOOP ( 'NONE', ( #270, #156 ) ) ;
#226 = EDGE_LOOP ( 'NONE', ( #51, #247, #291, #175 ) ) ;
#227 = EDGE_CURVE ( 'NONE', #267, #153, #10, .T. ) ;
#228 = VERTEX_POINT ( 'NONE', #281 ) ;
#229 = DIMENSIONAL_EXPONENTS ( 1.000000000000000000, 0.0000000000000000000, 0.0000000000000000000, 0.0000000000000000000, 0.0000000000000000000, 0.0000000000000000000, 0.0000000000000000000 ) ;
#230 = FILL_AREA_STYLE ('',( #110 ) ) ;
#231 = LENGTH_MEASURE_WITH_UNIT ( LENGTH_MEASURE( 0.02539999999999999897 ), #157 );
#232 = DIRECTION ( 'NONE',  ( -0.0000000000000000000, -0.0000000000000000000, -1.000000000000000000 ) ) ;
#233 = DIRECTION ( 'NONE',  ( 1.000000000000000000, 0.0000000000000000000, 0.0000000000000000000 ) ) ;
#234 = CYLINDRICAL_SURFACE ( 'NONE', #75, 0.06250000000000002776 ) ;
#235 = DIRECTION ( 'NONE',  ( 1.000000000000000000, 0.0000000000000000000, 0.0000000000000000000 ) ) ;
#236 = EDGE_CURVE ( 'NONE', #127, #228, #164, .T. ) ;
#237 =( GEOMETRIC_REPRESENTATION_CONTEXT ( 3 ) GLOBAL_UNCERTAINTY_ASSIGNED_CONTEXT ( ( #241 ) ) GLOBAL_UNIT_ASSIGNED_CONTEXT ( ( #273, #86, #42 ) ) REPRESENTATION_CONTEXT ( 'NONE', 'WORKASPACE' ) );
#238 = CARTESIAN_POINT ( 'NONE',  ( 0.0000000000000000000, 0.0000000000000000000, 0.0000000000000000000 ) ) ;
#239 = EDGE_CURVE ( 'NONE', #153, #34, #258, .T. ) ;
#240 = DIRECTION ( 'NONE',  ( -1.224646799147353454E-16, -0.0000000000000000000, -1.000000000000000000 ) ) ;
#241 = UNCERTAINTY_MEASURE_WITH_UNIT (LENGTH_MEASURE( 1.000000000000000082E-05 ), #273, 'distance_accuracy_value', 'NONE');
#242 = EDGE_CURVE ( 'NONE', #34, #228, #142, .T. ) ;
#243 = CIRCLE ( 'NONE', #84, 0.06250000000000002776 ) ;
#244 =( NAMED_UNIT ( * ) SI_UNIT ( $, .STERADIAN. ) SOLID_ANGLE_UNIT ( ) );
#245 = ORIENTED_EDGE ( 'NONE', *, *, #289, .T. ) ;
#246 = DIRECTION ( 'NONE',  ( 1.000000000000000000, 0.0000000000000000000, 0.0000000000000000000 ) ) ;
#247 = ORIENTED_EDGE ( 'NONE', *, *, #147, .T. ) ;
#248 = SURFACE_STYLE_FILL_AREA ( #148 ) ;
#249 = EDGE_LOOP ( 'NONE', ( #83, #79, #78, #128 ) ) ;
#250 = EDGE_CURVE ( 'NONE', #269, #228, #254, .T. ) ;
#251 = ORIENTED_EDGE ( 'NONE', *, *, #221, .T. ) ;
#252 = CYLINDRICAL_SURFACE ( 'NONE', #206, 0.04685310000000001557 ) ;
#253 = CARTESIAN_POINT ( 'NONE',  ( -0.04685310000000001557, 0.0000000000000000000, 1.147569978902617642E-17 ) ) ;
#254 = CIRCLE ( 'NONE', #35, 0.06250000000000002776 ) ;
#255 = SURFACE_STYLE_FILL_AREA ( #230 ) ;
#256 = DIRECTION ( 'NONE',  ( -1.224646799147353454E-16, -0.0000000000000000000, -1.000000000000000000 ) ) ;
#257 = AXIS2_PLACEMENT_3D ( 'NONE', #4, #40, #64 ) ;
#258 = LINE ( 'NONE', #262, #213 ) ;
#259 = CARTESIAN_POINT ( 'NONE',  ( -0.06250000000000002776, 0.0000000000000000000, 1.500000000000000222 ) ) ;
#260 = EDGE_CURVE ( 'NONE', #127, #133, #168, .T. ) ;
#261 = FACE_OUTER_BOUND ( 'NONE', #37, .T. ) ;
#262 = CARTESIAN_POINT ( 'NONE',  ( -0.04750000000000064587, 0.0000000000000000000, 1.500000000000000222 ) ) ;
#263 = DIRECTION ( 'NONE',  ( 1.000000000000000000, 0.0000000000000000000, -0.0000000000000000000 ) ) ;
#264 = SHAPE_DEFINITION_REPRESENTATION ( #106, #53 ) ;
#265 = ORIENTED_EDGE ( 'NONE', *, *, #166, .F. ) ;
#266 =( GEOMETRIC_REPRESENTATION_CONTEXT ( 3 ) GLOBAL_UNCERTAINTY_ASSIGNED_CONTEXT ( ( #173 ) ) GLOBAL_UNIT_ASSIGNED_CONTEXT ( ( #271, #181, #198 ) ) REPRESENTATION_CONTEXT ( 'NONE', 'WORKASPACE' ) );
#267 = VERTEX_POINT ( 'NONE', #288 ) ;
#268 = PRODUCT_CONTEXT ( 'NONE', #149, 'mechanical' ) ;
#269 = VERTEX_POINT ( 'NONE', #171 ) ;
#270 = ORIENTED_EDGE ( 'NONE', *, *, #151, .T. ) ;
#271 =( CONVERSION_BASED_UNIT ( 'INCH', #99 ) LENGTH_UNIT ( ) NAMED_UNIT ( #229 ) );
#272 = ORIENTED_EDGE ( 'NONE', *, *, #166, .T. ) ;
#273 =( CONVERSION_BASED_UNIT ( 'INCH', #231 ) LENGTH_UNIT ( ) NAMED_UNIT ( #77 ) );
#274 = DIRECTION ( 'NONE',  ( 1.000000000000000000, 0.0000000000000000000, 0.0000000000000000000 ) ) ;
#275 = DIRECTION ( 'NONE',  ( -1.224646799147353454E-16, -0.0000000000000000000, -1.000000000000000000 ) ) ;
#276 = AXIS2_PLACEMENT_3D ( 'NONE', #69, #5, #122 ) ;
#277 = DIRECTION ( 'NONE',  ( 0.0000000000000000000, 0.0000000000000000000, -1.000000000000000000 ) ) ;
#278 = CARTESIAN_POINT ( 'NONE',  ( 0.0000000000000000000, 0.0000000000000000000, 0.0000000000000000000 ) ) ;
#279 = CARTESIAN_POINT ( 'NONE',  ( 0.04685310000000005026, 0.0000000000000000000, 0.3749999999999999445 ) ) ;
#280 = AXIS2_PLACEMENT_3D ( 'NONE', #9, #25, #212 ) ;
#281 = CARTESIAN_POINT ( 'NONE',  ( -0.06249999999999996531, 0.0000000000000000000, 0.4637379795033758634 ) ) ;
#282 = ADVANCED_FACE ( 'NONE', ( #119 ), #72, .T. ) ;
#283 = ADVANCED_FACE ( 'NONE', ( #261 ), #218, .F. ) ;
#284 = DIRECTION ( 'NONE',  ( -1.000000000000000000, 0.0000000000000000000, 0.0000000000000000000 ) ) ;
#285 = LINE ( 'NONE', #279, #154 ) ;
#286 = VECTOR ( 'NONE', #45, 39.37007874015748143 ) ;
#287 = AXIS2_PLACEMENT_3D ( 'NONE', #211, #167, #233 ) ;
#288 = CARTESIAN_POINT ( 'NONE',  ( 0.04750000000000064587, 6.735557395310483192E-18, 1.500000000000000222 ) ) ;
#289 = EDGE_CURVE ( 'NONE', #133, #201, #57, .T. ) ;
#290 = DIRECTION ( 'NONE',  ( 0.0000000000000000000, 0.0000000000000000000, 1.000000000000000000 ) ) ;
#291 = ORIENTED_EDGE ( 'NONE', *, *, #294, .F. ) ;
#292 = FILL_AREA_STYLE_COLOUR ( '', #163 ) ;
#293 = ORIENTED_EDGE ( 'NONE', *, *, #250, .F. ) ;
#294 = EDGE_CURVE ( 'NONE', #34, #202, #88, .T. ) ;
#295 = ORIENTED_EDGE ( 'NONE', *, *, #242, .T. ) ;
#296 = SURFACE_SIDE_STYLE ('',( #248 ) ) ;
#297 = ORIENTED_EDGE ( 'NONE', *, *, #151, .F. ) ;
#298 = AXIS2_PLACEMENT_3D ( 'NONE', #3, #134, #19 ) ;
#299 = LINE ( 'NONE', #158, #123 ) ;
ENDSEC;
END-ISO-10303-21;
