ISO-10303-21;
HEADER;
FILE_DESCRIPTION (( 'STEP AP214' ),
    '1' );
FILE_NAME ('Micro_RNC-250-230X.STEP',
    '2021-09-03T17:36:24',
    ( '' ),
    ( '' ),
    'SwSTEP 2.0',
    'SolidWorks 2020',
    '' );
FILE_SCHEMA (( 'AUTOMOTIVE_DESIGN' ));
ENDSEC;

DATA;
#1 = CYLINDRICAL_SURFACE ( 'NONE', #201, 0.1250000000000000000 ) ;
#2 = CIRCLE ( 'NONE', #159, 0.01499999999999999944 ) ;
#3 = LINE ( 'NONE', #143, #65 ) ;
#4 =( NAMED_UNIT ( * ) SI_UNIT ( $, .STERADIAN. ) SOLID_ANGLE_UNIT ( ) );
#5 = VECTOR ( 'NONE', #93, 39.37007874015748143 ) ;
#6 = SURFACE_STYLE_FILL_AREA ( #33 ) ;
#7 = SURFACE_SIDE_STYLE ('',( #6 ) ) ;
#8 = UNCERTAINTY_MEASURE_WITH_UNIT (LENGTH_MEASURE( 1.000000000000000082E-05 ), #241, 'distance_accuracy_value', 'NONE');
#9 = CARTESIAN_POINT ( 'NONE',  ( 0.0000000000000000000, 0.0000000000000000000, 2.500000000000000000 ) ) ;
#10 = DIRECTION ( 'NONE',  ( 1.000000000000000000, 0.0000000000000000000, 0.0000000000000000000 ) ) ;
#11 = EDGE_CURVE ( 'NONE', #191, #211, #39, .T. ) ;
#12 = ORIENTED_EDGE ( 'NONE', *, *, #157, .F. ) ;
#13 = COLOUR_RGB ( '',0.7921568627450980005, 0.8196078431372548767, 0.9333333333333333481 ) ;
#14 = SURFACE_SIDE_STYLE ('',( #70 ) ) ;
#15 = CARTESIAN_POINT ( 'NONE',  ( 0.01499999999999999944, 0.0000000000000000000, 0.0000000000000000000 ) ) ;
#16 = EDGE_CURVE ( 'NONE', #194, #211, #125, .T. ) ;
#17 = VERTEX_POINT ( 'NONE', #103 ) ;
#18 = ORIENTED_EDGE ( 'NONE', *, *, #144, .F. ) ;
#19 = CIRCLE ( 'NONE', #126, 0.01499999999999999944 ) ;
#20 =( GEOMETRIC_REPRESENTATION_CONTEXT ( 3 ) GLOBAL_UNCERTAINTY_ASSIGNED_CONTEXT ( ( #8 ) ) GLOBAL_UNIT_ASSIGNED_CONTEXT ( ( #241, #49, #220 ) ) REPRESENTATION_CONTEXT ( 'NONE', 'WORKASPACE' ) );
#21 = PRESENTATION_LAYER_ASSIGNMENT (  '', '', ( #27 ) ) ;
#22 = DIRECTION ( 'NONE',  ( -0.0000000000000000000, -0.0000000000000000000, -1.000000000000000000 ) ) ;
#23 = EDGE_CURVE ( 'NONE', #135, #194, #3, .T. ) ;
#24 = PLANE ( 'NONE',  #45 ) ;
#25 = DIRECTION ( 'NONE',  ( -0.0000000000000000000, -0.0000000000000000000, -1.000000000000000000 ) ) ;
#26 = DIRECTION ( 'NONE',  ( 1.000000000000000000, 0.0000000000000000000, -0.0000000000000000000 ) ) ;
#27 = STYLED_ITEM ( 'NONE', ( #132 ), #116 ) ;
#28 = DIRECTION ( 'NONE',  ( -1.000000000000000000, 0.0000000000000000000, 0.0000000000000000000 ) ) ;
#29 = DIMENSIONAL_EXPONENTS ( 1.000000000000000000, 0.0000000000000000000, 0.0000000000000000000, 0.0000000000000000000, 0.0000000000000000000, 0.0000000000000000000, 0.0000000000000000000 ) ;
#30 = DIRECTION ( 'NONE',  ( 1.000000000000000000, 0.0000000000000000000, 0.0000000000000000000 ) ) ;
#31 =( NAMED_UNIT ( * ) PLANE_ANGLE_UNIT ( ) SI_UNIT ( $, .RADIAN. ) );
#32 = CARTESIAN_POINT ( 'NONE',  ( 0.01499999999999999944, 0.0000000000000000000, 0.0000000000000000000 ) ) ;
#33 = FILL_AREA_STYLE ('',( #46 ) ) ;
#34 = LENGTH_MEASURE_WITH_UNIT ( LENGTH_MEASURE( 0.02539999999999999897 ), #124 );
#35 = CONICAL_SURFACE ( 'NONE', #96, 0.01499999999999999944, 0.7853981633974502774 ) ;
#36 = SURFACE_STYLE_USAGE ( .BOTH. , #14 ) ;
#37 = ORIENTED_EDGE ( 'NONE', *, *, #115, .T. ) ;
#38 = APPLICATION_PROTOCOL_DEFINITION ( 'draft international standard', 'automotive_design', 1998, #111 ) ;
#39 = LINE ( 'NONE', #15, #5 ) ;
#40 = ORIENTED_EDGE ( 'NONE', *, *, #11, .T. ) ;
#41 = DIRECTION ( 'NONE',  ( -0.0000000000000000000, -0.0000000000000000000, -1.000000000000000000 ) ) ;
#42 = DIRECTION ( 'NONE',  ( 0.7071067811865489050, 0.0000000000000000000, -0.7071067811865461294 ) ) ;
#43 = CARTESIAN_POINT ( 'NONE',  ( -0.01499999999999999944, 8.572527594031471957E-18, 0.0000000000000000000 ) ) ;
#44 = LINE ( 'NONE', #232, #234 ) ;
#45 = AXIS2_PLACEMENT_3D ( 'NONE', #121, #200, #26 ) ;
#46 = FILL_AREA_STYLE_COLOUR ( '', #13 ) ;
#47 = PRODUCT ( 'Micro_RNC-250-230X', 'Micro_RNC-250-230X', '', ( #152 ) ) ;
#48 = CARTESIAN_POINT ( 'NONE',  ( 0.0000000000000000000, 0.0000000000000000000, 2.500000000000000000 ) ) ;
#49 =( NAMED_UNIT ( * ) PLANE_ANGLE_UNIT ( ) SI_UNIT ( $, .RADIAN. ) );
#50 = CLOSED_SHELL ( 'NONE', ( #203, #88, #99, #79, #81, #166, #245, #177 ) ) ;
#51 =( GEOMETRIC_REPRESENTATION_CONTEXT ( 3 ) GLOBAL_UNCERTAINTY_ASSIGNED_CONTEXT ( ( #136 ) ) GLOBAL_UNIT_ASSIGNED_CONTEXT ( ( #242, #189, #227 ) ) REPRESENTATION_CONTEXT ( 'NONE', 'WORKASPACE' ) );
#52 = CARTESIAN_POINT ( 'NONE',  ( 0.0000000000000000000, 0.0000000000000000000, 2.390000000000000568 ) ) ;
#53 = APPLICATION_CONTEXT ( 'automotive_design' ) ;
#54 = ORIENTED_EDGE ( 'NONE', *, *, #67, .F. ) ;
#55 = SHAPE_DEFINITION_REPRESENTATION ( #174, #116 ) ;
#56 = EDGE_LOOP ( 'NONE', ( #54, #208, #40, #173 ) ) ;
#57 = FILL_AREA_STYLE_COLOUR ( '', #131 ) ;
#58 = EDGE_LOOP ( 'NONE', ( #110, #153 ) ) ;
#59 = VECTOR ( 'NONE', #72, 39.37007874015748143 ) ;
#60 = DIRECTION ( 'NONE',  ( -1.000000000000000000, 0.0000000000000000000, 0.0000000000000000000 ) ) ;
#61 = DIRECTION ( 'NONE',  ( 0.0000000000000000000, 0.0000000000000000000, 1.000000000000000000 ) ) ;
#62 = CARTESIAN_POINT ( 'NONE',  ( 0.0000000000000000000, 0.0000000000000000000, 2.500000000000000000 ) ) ;
#63 = DIRECTION ( 'NONE',  ( -1.000000000000000000, 0.0000000000000000000, 0.0000000000000000000 ) ) ;
#64 = DIRECTION ( 'NONE',  ( -0.0000000000000000000, -0.0000000000000000000, -1.000000000000000000 ) ) ;
#65 = VECTOR ( 'NONE', #41, 39.37007874015748143 ) ;
#66 = APPLICATION_PROTOCOL_DEFINITION ( 'draft international standard', 'automotive_design', 1998, #53 ) ;
#67 = EDGE_CURVE ( 'NONE', #114, #194, #117, .T. ) ;
#68 = ORIENTED_EDGE ( 'NONE', *, *, #218, .F. ) ;
#69 = ORIENTED_EDGE ( 'NONE', *, *, #67, .T. ) ;
#70 = SURFACE_STYLE_FILL_AREA ( #92 ) ;
#71 = ORIENTED_EDGE ( 'NONE', *, *, #144, .T. ) ;
#72 = DIRECTION ( 'NONE',  ( -0.7071067811865489050, -8.659560562354950115E-17, -0.7071067811865461294 ) ) ;
#73 = EDGE_CURVE ( 'NONE', #114, #191, #2, .T. ) ;
#74 = FACE_OUTER_BOUND ( 'NONE', #207, .T. ) ;
#75 = FACE_OUTER_BOUND ( 'NONE', #137, .T. ) ;
#76 = AXIS2_PLACEMENT_3D ( 'NONE', #9, #221, #30 ) ;
#77 = AXIS2_PLACEMENT_3D ( 'NONE', #154, #192, #10 ) ;
#78 = DIRECTION ( 'NONE',  ( 0.0000000000000000000, 0.0000000000000000000, -1.000000000000000000 ) ) ;
#79 = ADVANCED_FACE ( 'NONE', ( #98 ), #123, .T. ) ;
#80 = DIRECTION ( 'NONE',  ( -0.0000000000000000000, -0.0000000000000000000, -1.000000000000000000 ) ) ;
#81 = ADVANCED_FACE ( 'NONE', ( #215 ), #230, .T. ) ;
#82 =( LENGTH_UNIT ( ) NAMED_UNIT ( * ) SI_UNIT ( $, .METRE. ) );
#83 = DIRECTION ( 'NONE',  ( 0.0000000000000000000, 0.0000000000000000000, -1.000000000000000000 ) ) ;
#84 = LENGTH_MEASURE_WITH_UNIT ( LENGTH_MEASURE( 0.02539999999999999897 ), #82 );
#85 = PRODUCT_RELATED_PRODUCT_CATEGORY ( 'part', '', ( #47 ) ) ;
#86 = AXIS2_PLACEMENT_3D ( 'NONE', #199, #78, #28 ) ;
#87 = ORIENTED_EDGE ( 'NONE', *, *, #73, .F. ) ;
#88 = ADVANCED_FACE ( 'NONE', ( #74 ), #184, .T. ) ;
#89 = ORIENTED_EDGE ( 'NONE', *, *, #73, .T. ) ;
#90 = AXIS2_PLACEMENT_3D ( 'NONE', #236, #247, #63 ) ;
#91 = VECTOR ( 'NONE', #120, 39.37007874015748143 ) ;
#92 = FILL_AREA_STYLE ('',( #57 ) ) ;
#93 = DIRECTION ( 'NONE',  ( 0.7071067811865489050, 0.0000000000000000000, 0.7071067811865461294 ) ) ;
#94 = ORIENTED_EDGE ( 'NONE', *, *, #115, .F. ) ;
#95 = ORIENTED_EDGE ( 'NONE', *, *, #11, .F. ) ;
#96 = AXIS2_PLACEMENT_3D ( 'NONE', #48, #83, #186 ) ;
#97 = DIRECTION ( 'NONE',  ( -1.000000000000000000, 0.0000000000000000000, 0.0000000000000000000 ) ) ;
#98 = FACE_OUTER_BOUND ( 'NONE', #151, .T. ) ;
#99 = ADVANCED_FACE ( 'NONE', ( #75 ), #1, .T. ) ;
#100 = CARTESIAN_POINT ( 'NONE',  ( 0.0000000000000000000, 0.0000000000000000000, 0.0000000000000000000 ) ) ;
#101 = AXIS2_PLACEMENT_3D ( 'NONE', #162, #61, #249 ) ;
#102 = FACE_OUTER_BOUND ( 'NONE', #58, .T. ) ;
#103 = CARTESIAN_POINT ( 'NONE',  ( 0.01499999999999999944, 0.0000000000000000000, 2.500000000000000000 ) ) ;
#104 = CARTESIAN_POINT ( 'NONE',  ( 0.1250000000000000000, 1.530808498934191509E-17, 2.390000000000000568 ) ) ;
#105 = DIMENSIONAL_EXPONENTS ( 1.000000000000000000, 0.0000000000000000000, 0.0000000000000000000, 0.0000000000000000000, 0.0000000000000000000, 0.0000000000000000000, 0.0000000000000000000 ) ;
#106 = CIRCLE ( 'NONE', #176, 0.1250000000000000000 ) ;
#107 = DIRECTION ( 'NONE',  ( -1.000000000000000000, 0.0000000000000000000, 0.0000000000000000000 ) ) ;
#108 = MECHANICAL_DESIGN_GEOMETRIC_PRESENTATION_REPRESENTATION (  '', ( #122 ), #246 ) ;
#109 = EDGE_LOOP ( 'NONE', ( #12, #175, #226, #209 ) ) ;
#110 = ORIENTED_EDGE ( 'NONE', *, *, #148, .F. ) ;
#111 = APPLICATION_CONTEXT ( 'automotive_design' ) ;
#112 = UNCERTAINTY_MEASURE_WITH_UNIT (LENGTH_MEASURE( 1.000000000000000082E-05 ), #147, 'distance_accuracy_value', 'NONE');
#113 = ORIENTED_EDGE ( 'NONE', *, *, #16, .T. ) ;
#114 = VERTEX_POINT ( 'NONE', #43 ) ;
#115 = EDGE_CURVE ( 'NONE', #190, #135, #213, .T. ) ;
#116 = ADVANCED_BREP_SHAPE_REPRESENTATION ( 'Micro_RNC-250-230X', ( #188, #77 ), #20 ) ;
#117 = LINE ( 'NONE', #179, #91 ) ;
#118 = CARTESIAN_POINT ( 'NONE',  ( 0.0000000000000000000, 0.0000000000000000000, 0.1099999999999995565 ) ) ;
#119 = PRODUCT_DEFINITION ( 'UNKNOWN', '', #142, #187 ) ;
#120 = DIRECTION ( 'NONE',  ( -0.7071067811865489050, 8.659560562354950115E-17, 0.7071067811865461294 ) ) ;
#121 = CARTESIAN_POINT ( 'NONE',  ( 0.0000000000000000000, 0.0000000000000000000, 2.500000000000000000 ) ) ;
#122 = STYLED_ITEM ( 'NONE', ( #128 ), #188 ) ;
#123 = CYLINDRICAL_SURFACE ( 'NONE', #138, 0.1250000000000000000 ) ;
#124 =( LENGTH_UNIT ( ) NAMED_UNIT ( * ) SI_UNIT ( $, .METRE. ) );
#125 = CIRCLE ( 'NONE', #228, 0.1250000000000000000 ) ;
#126 = AXIS2_PLACEMENT_3D ( 'NONE', #182, #80, #164 ) ;
#127 = DIRECTION ( 'NONE',  ( -1.000000000000000000, 0.0000000000000000000, 0.0000000000000000000 ) ) ;
#128 = PRESENTATION_STYLE_ASSIGNMENT (( #185 ) ) ;
#129 = CIRCLE ( 'NONE', #170, 0.1250000000000000000 ) ;
#130 = ORIENTED_EDGE ( 'NONE', *, *, #222, .T. ) ;
#131 = COLOUR_RGB ( '',0.7921568627450980005, 0.8196078431372548767, 0.9333333333333333481 ) ;
#132 = PRESENTATION_STYLE_ASSIGNMENT (( #36 ) ) ;
#133 = ORIENTED_EDGE ( 'NONE', *, *, #157, .T. ) ;
#134 = AXIS2_PLACEMENT_3D ( 'NONE', #160, #235, #139 ) ;
#135 = VERTEX_POINT ( 'NONE', #212 ) ;
#136 = UNCERTAINTY_MEASURE_WITH_UNIT (LENGTH_MEASURE( 1.000000000000000082E-05 ), #242, 'distance_accuracy_value', 'NONE');
#137 = EDGE_LOOP ( 'NONE', ( #130, #71, #158, #225 ) ) ;
#138 = AXIS2_PLACEMENT_3D ( 'NONE', #202, #64, #197 ) ;
#139 = DIRECTION ( 'NONE',  ( 1.000000000000000000, 0.0000000000000000000, 0.0000000000000000000 ) ) ;
#140 = DIRECTION ( 'NONE',  ( -1.000000000000000000, 0.0000000000000000000, 0.0000000000000000000 ) ) ;
#141 = CIRCLE ( 'NONE', #149, 0.01499999999999999944 ) ;
#142 = PRODUCT_DEFINITION_FORMATION_WITH_SPECIFIED_SOURCE ( 'ANY', '', #47, .NOT_KNOWN. ) ;
#143 = CARTESIAN_POINT ( 'NONE',  ( -0.1250000000000000000, 0.0000000000000000000, 2.500000000000000000 ) ) ;
#144 = EDGE_CURVE ( 'NONE', #190, #211, #217, .T. ) ;
#145 = FACE_OUTER_BOUND ( 'NONE', #171, .T. ) ;
#146 = CARTESIAN_POINT ( 'NONE',  ( 0.0000000000000000000, 0.0000000000000000000, 0.1099999999999995565 ) ) ;
#147 =( CONVERSION_BASED_UNIT ( 'INCH', #34 ) LENGTH_UNIT ( ) NAMED_UNIT ( #29 ) );
#148 = EDGE_CURVE ( 'NONE', #17, #244, #204, .T. ) ;
#149 = AXIS2_PLACEMENT_3D ( 'NONE', #167, #165, #168 ) ;
#150 = DIRECTION ( 'NONE',  ( -0.0000000000000000000, -0.0000000000000000000, -1.000000000000000000 ) ) ;
#151 = EDGE_LOOP ( 'NONE', ( #18, #37, #243, #68 ) ) ;
#152 = PRODUCT_CONTEXT ( 'NONE', #53, 'mechanical' ) ;
#153 = ORIENTED_EDGE ( 'NONE', *, *, #231, .F. ) ;
#154 = CARTESIAN_POINT ( 'NONE',  ( 0.0000000000000000000, 0.0000000000000000000, 0.0000000000000000000 ) ) ;
#155 = DIMENSIONAL_EXPONENTS ( 1.000000000000000000, 0.0000000000000000000, 0.0000000000000000000, 0.0000000000000000000, 0.0000000000000000000, 0.0000000000000000000, 0.0000000000000000000 ) ;
#156 = EDGE_LOOP ( 'NONE', ( #195, #89 ) ) ;
#157 = EDGE_CURVE ( 'NONE', #244, #135, #237, .T. ) ;
#158 = ORIENTED_EDGE ( 'NONE', *, *, #16, .F. ) ;
#159 = AXIS2_PLACEMENT_3D ( 'NONE', #100, #25, #140 ) ;
#160 = CARTESIAN_POINT ( 'NONE',  ( 0.0000000000000000000, 0.0000000000000000000, 0.0000000000000000000 ) ) ;
#161 = PLANE ( 'NONE',  #210 ) ;
#162 = CARTESIAN_POINT ( 'NONE',  ( 0.0000000000000000000, 0.0000000000000000000, 0.0000000000000000000 ) ) ;
#163 = DIRECTION ( 'NONE',  ( -0.0000000000000000000, -0.0000000000000000000, -1.000000000000000000 ) ) ;
#164 = DIRECTION ( 'NONE',  ( -1.000000000000000000, 0.0000000000000000000, 0.0000000000000000000 ) ) ;
#165 = DIRECTION ( 'NONE',  ( 0.0000000000000000000, 0.0000000000000000000, -1.000000000000000000 ) ) ;
#166 = ADVANCED_FACE ( 'NONE', ( #248 ), #161, .F. ) ;
#167 = CARTESIAN_POINT ( 'NONE',  ( 0.0000000000000000000, 0.0000000000000000000, 2.500000000000000000 ) ) ;
#168 = DIRECTION ( 'NONE',  ( -1.000000000000000000, 0.0000000000000000000, 0.0000000000000000000 ) ) ;
#169 = EDGE_CURVE ( 'NONE', #17, #190, #44, .T. ) ;
#170 = AXIS2_PLACEMENT_3D ( 'NONE', #52, #219, #127 ) ;
#171 = EDGE_LOOP ( 'NONE', ( #196, #133, #94, #224 ) ) ;
#172 =( LENGTH_UNIT ( ) NAMED_UNIT ( * ) SI_UNIT ( $, .METRE. ) );
#173 = ORIENTED_EDGE ( 'NONE', *, *, #218, .T. ) ;
#174 = PRODUCT_DEFINITION_SHAPE ( 'NONE', 'NONE',  #119 ) ;
#175 = ORIENTED_EDGE ( 'NONE', *, *, #231, .T. ) ;
#176 = AXIS2_PLACEMENT_3D ( 'NONE', #146, #150, #107 ) ;
#177 = ADVANCED_FACE ( 'NONE', ( #102 ), #24, .T. ) ;
#178 = CARTESIAN_POINT ( 'NONE',  ( 0.1250000000000000000, 1.530808498934191509E-17, 2.500000000000000000 ) ) ;
#179 = CARTESIAN_POINT ( 'NONE',  ( -0.01499999999999999944, 1.836970198721029595E-18, 0.0000000000000000000 ) ) ;
#180 = DIRECTION ( 'NONE',  ( -0.0000000000000000000, -0.0000000000000000000, -1.000000000000000000 ) ) ;
#181 = EDGE_CURVE ( 'NONE', #191, #114, #19, .T. ) ;
#182 = CARTESIAN_POINT ( 'NONE',  ( 0.0000000000000000000, 0.0000000000000000000, 0.0000000000000000000 ) ) ;
#183 = CARTESIAN_POINT ( 'NONE',  ( 0.1250000000000000000, 1.530808498934191509E-17, 0.1099999999999995565 ) ) ;
#184 = CONICAL_SURFACE ( 'NONE', #101, 0.01499999999999999944, 0.7853981633974502774 ) ;
#185 = SURFACE_STYLE_USAGE ( .BOTH. , #7 ) ;
#186 = DIRECTION ( 'NONE',  ( 1.000000000000000000, 0.0000000000000000000, 0.0000000000000000000 ) ) ;
#187 = PRODUCT_DEFINITION_CONTEXT ( 'detailed design', #111, 'design' ) ;
#188 = MANIFOLD_SOLID_BREP ( 'Mirror1', #50 ) ;
#189 =( NAMED_UNIT ( * ) PLANE_ANGLE_UNIT ( ) SI_UNIT ( $, .RADIAN. ) );
#190 = VERTEX_POINT ( 'NONE', #104 ) ;
#191 = VERTEX_POINT ( 'NONE', #32 ) ;
#192 = DIRECTION ( 'NONE',  ( 0.0000000000000000000, 0.0000000000000000000, 1.000000000000000000 ) ) ;
#193 = CONICAL_SURFACE ( 'NONE', #76, 0.01499999999999999944, 0.7853981633974502774 ) ;
#194 = VERTEX_POINT ( 'NONE', #238 ) ;
#195 = ORIENTED_EDGE ( 'NONE', *, *, #181, .T. ) ;
#196 = ORIENTED_EDGE ( 'NONE', *, *, #148, .T. ) ;
#197 = DIRECTION ( 'NONE',  ( -1.000000000000000000, 0.0000000000000000000, 0.0000000000000000000 ) ) ;
#198 = CARTESIAN_POINT ( 'NONE',  ( -0.01499999999999999944, -1.836970198721029595E-18, 2.500000000000000000 ) ) ;
#199 = CARTESIAN_POINT ( 'NONE',  ( 0.0000000000000000000, 0.0000000000000000000, 2.390000000000000568 ) ) ;
#200 = DIRECTION ( 'NONE',  ( 0.0000000000000000000, 0.0000000000000000000, 1.000000000000000000 ) ) ;
#201 = AXIS2_PLACEMENT_3D ( 'NONE', #62, #180, #97 ) ;
#202 = CARTESIAN_POINT ( 'NONE',  ( 0.0000000000000000000, 0.0000000000000000000, 2.500000000000000000 ) ) ;
#203 = ADVANCED_FACE ( 'NONE', ( #145 ), #35, .T. ) ;
#204 = CIRCLE ( 'NONE', #90, 0.01499999999999999944 ) ;
#205 = FACE_OUTER_BOUND ( 'NONE', #109, .T. ) ;
#206 = MECHANICAL_DESIGN_GEOMETRIC_PRESENTATION_REPRESENTATION (  '', ( #27 ), #51 ) ;
#207 = EDGE_LOOP ( 'NONE', ( #87, #69, #113, #95 ) ) ;
#208 = ORIENTED_EDGE ( 'NONE', *, *, #181, .F. ) ;
#209 = ORIENTED_EDGE ( 'NONE', *, *, #222, .F. ) ;
#210 = AXIS2_PLACEMENT_3D ( 'NONE', #233, #214, #216 ) ;
#211 = VERTEX_POINT ( 'NONE', #183 ) ;
#212 = CARTESIAN_POINT ( 'NONE',  ( -0.1250000000000000000, 0.0000000000000000000, 2.390000000000000568 ) ) ;
#213 = CIRCLE ( 'NONE', #86, 0.1250000000000000000 ) ;
#214 = DIRECTION ( 'NONE',  ( 0.0000000000000000000, 0.0000000000000000000, 1.000000000000000000 ) ) ;
#215 = FACE_OUTER_BOUND ( 'NONE', #56, .T. ) ;
#216 = DIRECTION ( 'NONE',  ( 1.000000000000000000, 0.0000000000000000000, -0.0000000000000000000 ) ) ;
#217 = LINE ( 'NONE', #178, #240 ) ;
#218 = EDGE_CURVE ( 'NONE', #211, #194, #106, .T. ) ;
#219 = DIRECTION ( 'NONE',  ( 0.0000000000000000000, 0.0000000000000000000, -1.000000000000000000 ) ) ;
#220 =( NAMED_UNIT ( * ) SI_UNIT ( $, .STERADIAN. ) SOLID_ANGLE_UNIT ( ) );
#221 = DIRECTION ( 'NONE',  ( 0.0000000000000000000, 0.0000000000000000000, -1.000000000000000000 ) ) ;
#222 = EDGE_CURVE ( 'NONE', #135, #190, #129, .T. ) ;
#223 = LENGTH_MEASURE_WITH_UNIT ( LENGTH_MEASURE( 0.02539999999999999897 ), #172 );
#224 = ORIENTED_EDGE ( 'NONE', *, *, #169, .F. ) ;
#225 = ORIENTED_EDGE ( 'NONE', *, *, #23, .F. ) ;
#226 = ORIENTED_EDGE ( 'NONE', *, *, #169, .T. ) ;
#227 =( NAMED_UNIT ( * ) SI_UNIT ( $, .STERADIAN. ) SOLID_ANGLE_UNIT ( ) );
#228 = AXIS2_PLACEMENT_3D ( 'NONE', #118, #22, #60 ) ;
#229 = PRESENTATION_LAYER_ASSIGNMENT (  '', '', ( #122 ) ) ;
#230 = CONICAL_SURFACE ( 'NONE', #134, 0.01499999999999999944, 0.7853981633974502774 ) ;
#231 = EDGE_CURVE ( 'NONE', #244, #17, #141, .T. ) ;
#232 = CARTESIAN_POINT ( 'NONE',  ( 0.01499999999999999944, 0.0000000000000000000, 2.500000000000000000 ) ) ;
#233 = CARTESIAN_POINT ( 'NONE',  ( 0.0000000000000000000, 0.0000000000000000000, 0.0000000000000000000 ) ) ;
#234 = VECTOR ( 'NONE', #42, 39.37007874015748143 ) ;
#235 = DIRECTION ( 'NONE',  ( 0.0000000000000000000, 0.0000000000000000000, 1.000000000000000000 ) ) ;
#236 = CARTESIAN_POINT ( 'NONE',  ( 0.0000000000000000000, 0.0000000000000000000, 2.500000000000000000 ) ) ;
#237 = LINE ( 'NONE', #198, #59 ) ;
#238 = CARTESIAN_POINT ( 'NONE',  ( -0.1250000000000000000, 0.0000000000000000000, 0.1099999999999995565 ) ) ;
#239 = CARTESIAN_POINT ( 'NONE',  ( -0.01499999999999999944, -8.572527594031471957E-18, 2.500000000000000000 ) ) ;
#240 = VECTOR ( 'NONE', #163, 39.37007874015748143 ) ;
#241 =( CONVERSION_BASED_UNIT ( 'INCH', #84 ) LENGTH_UNIT ( ) NAMED_UNIT ( #105 ) );
#242 =( CONVERSION_BASED_UNIT ( 'INCH', #223 ) LENGTH_UNIT ( ) NAMED_UNIT ( #155 ) );
#243 = ORIENTED_EDGE ( 'NONE', *, *, #23, .T. ) ;
#244 = VERTEX_POINT ( 'NONE', #239 ) ;
#245 = ADVANCED_FACE ( 'NONE', ( #205 ), #193, .T. ) ;
#246 =( GEOMETRIC_REPRESENTATION_CONTEXT ( 3 ) GLOBAL_UNCERTAINTY_ASSIGNED_CONTEXT ( ( #112 ) ) GLOBAL_UNIT_ASSIGNED_CONTEXT ( ( #147, #31, #4 ) ) REPRESENTATION_CONTEXT ( 'NONE', 'WORKASPACE' ) );
#247 = DIRECTION ( 'NONE',  ( 0.0000000000000000000, 0.0000000000000000000, -1.000000000000000000 ) ) ;
#248 = FACE_OUTER_BOUND ( 'NONE', #156, .T. ) ;
#249 = DIRECTION ( 'NONE',  ( 1.000000000000000000, 0.0000000000000000000, 0.0000000000000000000 ) ) ;
ENDSEC;
END-ISO-10303-21;
