ISO-10303-21;
HEADER;
FILE_DESCRIPTION (( 'STEP AP214' ),
    '1' );
FILE_NAME ('03330.STEP',
    '2023-06-22T15:10:07',
    ( '' ),
    ( '' ),
    'SwSTEP 2.0',
    'SolidWorks 2023',
    '' );
FILE_SCHEMA (( 'AUTOMOTIVE_DESIGN' ));
ENDSEC;

DATA;
#1 = ORIENTED_EDGE ( 'NONE', *, *, #265, .T. ) ;
#2 = AXIS2_PLACEMENT_3D ( 'NONE', #270, #244, #195 ) ;
#3 = ORIENTED_EDGE ( 'NONE', *, *, #67, .F. ) ;
#4 = PRODUCT_DEFINITION_SHAPE ( 'NONE', 'NONE',  #144 ) ;
#5 = CARTESIAN_POINT ( 'NONE',  ( 0.000000000000000000, 0.5000000000000001110, 0.000000000000000000 ) ) ;
#6 = ORIENTED_EDGE ( 'NONE', *, *, #39, .F. ) ;
#7 = DIRECTION ( 'NONE',  ( -1.632862398863137774E-16, -1.000000000000000000, 0.000000000000000000 ) ) ;
#8 = AXIS2_PLACEMENT_3D ( 'NONE', #192, #7, #193 ) ;
#9 = PLANE ( 'NONE',  #59 ) ;
#10 = ORIENTED_EDGE ( 'NONE', *, *, #238, .F. ) ;
#11 = CARTESIAN_POINT ( 'NONE',  ( 0.000000000000000000, 0.000000000000000000, 0.000000000000000000 ) ) ;
#12 =( NAMED_UNIT ( * ) PLANE_ANGLE_UNIT ( ) SI_UNIT ( $, .RADIAN. ) );
#13 = AXIS2_PLACEMENT_3D ( 'NONE', #157, #160, #154 ) ;
#14 =( NAMED_UNIT ( * ) SI_UNIT ( $, .STERADIAN. ) SOLID_ANGLE_UNIT ( ) );
#15 = EDGE_CURVE ( 'NONE', #104, #134, #155, .T. ) ;
#16 = DIRECTION ( 'NONE',  ( -0.000000000000000000, -1.000000000000000000, -0.000000000000000000 ) ) ;
#17 = SURFACE_STYLE_USAGE ( .BOTH. , #296 ) ;
#18 = FACE_OUTER_BOUND ( 'NONE', #24, .T. ) ;
#19 = PLANE ( 'NONE',  #286 ) ;
#20 = SURFACE_SIDE_STYLE ('',( #276 ) ) ;
#21 = ADVANCED_FACE ( 'NONE', ( #289 ), #9, .T. ) ;
#22 = CIRCLE ( 'NONE', #109, 0.1875000000000000278 ) ;
#23 = AXIS2_PLACEMENT_3D ( 'NONE', #41, #16, #137 ) ;
#24 = EDGE_LOOP ( 'NONE', ( #172, #54, #153, #241 ) ) ;
#25 = ORIENTED_EDGE ( 'NONE', *, *, #40, .F. ) ;
#26 = STYLED_ITEM ( 'NONE', ( #274 ), #64 ) ;
#27 = AXIS2_PLACEMENT_3D ( 'NONE', #303, #96, #117 ) ;
#28 = LINE ( 'NONE', #132, #208 ) ;
#29 = EDGE_LOOP ( 'NONE', ( #10, #211, #98, #221 ) ) ;
#30 = ORIENTED_EDGE ( 'NONE', *, *, #40, .T. ) ;
#31 = DIRECTION ( 'NONE',  ( 0.000000000000000000, 0.000000000000000000, -1.000000000000000000 ) ) ;
#32 = CARTESIAN_POINT ( 'NONE',  ( -0.1874999999999996669, 2.000000000000000000, 0.000000000000000000 ) ) ;
#33 = ORIENTED_EDGE ( 'NONE', *, *, #265, .F. ) ;
#34 = UNCERTAINTY_MEASURE_WITH_UNIT (LENGTH_MEASURE( 1.000000000000000082E-05 ), #119, 'distance_accuracy_value', 'NONE');
#35 =( NAMED_UNIT ( * ) SI_UNIT ( $, .STERADIAN. ) SOLID_ANGLE_UNIT ( ) );
#36 = PRESENTATION_LAYER_ASSIGNMENT (  '', '', ( #26 ) ) ;
#37 = PRESENTATION_LAYER_ASSIGNMENT (  '', '', ( #156 ) ) ;
#38 = DIRECTION ( 'NONE',  ( -1.000000000000000000, 0.000000000000000000, 0.000000000000000000 ) ) ;
#39 = EDGE_CURVE ( 'NONE', #134, #70, #180, .T. ) ;
#40 = EDGE_CURVE ( 'NONE', #123, #213, #22, .T. ) ;
#41 = CARTESIAN_POINT ( 'NONE',  ( 0.000000000000000000, 0.000000000000000000, 0.000000000000000000 ) ) ;
#42 = CARTESIAN_POINT ( 'NONE',  ( 0.000000000000000000, 0.000000000000000000, 0.000000000000000000 ) ) ;
#43 = APPLICATION_PROTOCOL_DEFINITION ( 'draft international standard', 'automotive_design', 1998, #151 ) ;
#44 =( CONVERSION_BASED_UNIT ( 'INCH', #207 ) LENGTH_UNIT ( ) NAMED_UNIT ( #126 ) );
#45 = VECTOR ( 'NONE', #194, 39.37007874015748143 ) ;
#46 = DIRECTION ( 'NONE',  ( 1.632862398863137774E-16, 1.000000000000000000, -0.000000000000000000 ) ) ;
#47 =( NAMED_UNIT ( * ) PLANE_ANGLE_UNIT ( ) SI_UNIT ( $, .RADIAN. ) );
#48 =( GEOMETRIC_REPRESENTATION_CONTEXT ( 3 ) GLOBAL_UNCERTAINTY_ASSIGNED_CONTEXT ( ( #292 ) ) GLOBAL_UNIT_ASSIGNED_CONTEXT ( ( #44, #73, #259 ) ) REPRESENTATION_CONTEXT ( 'NONE', 'WORKASPACE' ) );
#49 = CIRCLE ( 'NONE', #23, 0.1875000000000000278 ) ;
#50 = VERTEX_POINT ( 'NONE', #268 ) ;
#51 = ORIENTED_EDGE ( 'NONE', *, *, #242, .T. ) ;
#52 = ADVANCED_FACE ( 'NONE', ( #159 ), #246, .T. ) ;
#53 = STYLED_ITEM ( 'NONE', ( #63 ), #68 ) ;
#54 = ORIENTED_EDGE ( 'NONE', *, *, #145, .T. ) ;
#55 = ORIENTED_EDGE ( 'NONE', *, *, #145, .F. ) ;
#56 = FILL_AREA_STYLE ('',( #266 ) ) ;
#57 =( LENGTH_UNIT ( ) NAMED_UNIT ( * ) SI_UNIT ( $, .METRE. ) );
#58 = CYLINDRICAL_SURFACE ( 'NONE', #142, 0.1874999999999999167 ) ;
#59 = AXIS2_PLACEMENT_3D ( 'NONE', #133, #177, #31 ) ;
#60 = AXIS2_PLACEMENT_3D ( 'NONE', #42, #300, #143 ) ;
#61 = SURFACE_STYLE_USAGE ( .BOTH. , #294 ) ;
#62 = FILL_AREA_STYLE ('',( #251 ) ) ;
#63 = PRESENTATION_STYLE_ASSIGNMENT (( #61 ) ) ;
#64 = MANIFOLD_SOLID_BREP ( 'Revolve - Tool Body (Straight Shanked)', #88 ) ;
#65 = CIRCLE ( 'NONE', #205, 0.1875000000000000278 ) ;
#66 =( LENGTH_UNIT ( ) NAMED_UNIT ( * ) SI_UNIT ( $, .METRE. ) );
#67 = EDGE_CURVE ( 'NONE', #50, #264, #278, .T. ) ;
#68 = MANIFOLD_SOLID_BREP ( 'Revolve - Cutting Edge', #285 ) ;
#69 = AXIS2_PLACEMENT_3D ( 'NONE', #202, #167, #138 ) ;
#70 = VERTEX_POINT ( 'NONE', #182 ) ;
#71 = ORIENTED_EDGE ( 'NONE', *, *, #226, .T. ) ;
#72 = DIRECTION ( 'NONE',  ( -0.000000000000000000, -1.000000000000000000, -0.000000000000000000 ) ) ;
#73 =( NAMED_UNIT ( * ) PLANE_ANGLE_UNIT ( ) SI_UNIT ( $, .RADIAN. ) );
#74 = EDGE_LOOP ( 'NONE', ( #71, #190, #6, #261 ) ) ;
#75 = MECHANICAL_DESIGN_GEOMETRIC_PRESENTATION_REPRESENTATION (  '', ( #170 ), #186 ) ;
#76 = DIRECTION ( 'NONE',  ( 1.632862398863137774E-16, 1.000000000000000000, -0.000000000000000000 ) ) ;
#77 = AXIS2_PLACEMENT_3D ( 'NONE', #267, #201, #224 ) ;
#78 = PRODUCT ( '03330', '03330', '', ( #189 ) ) ;
#79 = ADVANCED_BREP_SHAPE_REPRESENTATION ( '03330', ( #68, #64, #273 ), #100 ) ;
#80 = SURFACE_STYLE_USAGE ( .BOTH. , #103 ) ;
#81 = DIMENSIONAL_EXPONENTS ( 1.000000000000000000, 0.000000000000000000, 0.000000000000000000, 0.000000000000000000, 0.000000000000000000, 0.000000000000000000, 0.000000000000000000 ) ;
#82 = PRESENTATION_LAYER_ASSIGNMENT (  '', '', ( #170 ) ) ;
#83 = CIRCLE ( 'NONE', #298, 0.1875000000000000278 ) ;
#84 = DIMENSIONAL_EXPONENTS ( 1.000000000000000000, 0.000000000000000000, 0.000000000000000000, 0.000000000000000000, 0.000000000000000000, 0.000000000000000000, 0.000000000000000000 ) ;
#85 = ORIENTED_EDGE ( 'NONE', *, *, #226, .F. ) ;
#86 = SURFACE_STYLE_FILL_AREA ( #62 ) ;
#87 =( LENGTH_UNIT ( ) NAMED_UNIT ( * ) SI_UNIT ( $, .METRE. ) );
#88 = CLOSED_SHELL ( 'NONE', ( #176, #306, #152, #94 ) ) ;
#89 = FILL_AREA_STYLE ('',( #232 ) ) ;
#90 = VECTOR ( 'NONE', #72, 39.37007874015748143 ) ;
#91 = DIRECTION ( 'NONE',  ( -0.000000000000000000, -1.000000000000000000, -0.000000000000000000 ) ) ;
#92 =( CONVERSION_BASED_UNIT ( 'INCH', #304 ) LENGTH_UNIT ( ) NAMED_UNIT ( #200 ) );
#93 =( CONVERSION_BASED_UNIT ( 'INCH', #302 ) LENGTH_UNIT ( ) NAMED_UNIT ( #305 ) );
#94 = ADVANCED_FACE ( 'NONE', ( #218 ), #101, .F. ) ;
#95 = FILL_AREA_STYLE_COLOUR ( '', #247 ) ;
#96 = DIRECTION ( 'NONE',  ( 0.000000000000000000, 1.000000000000000000, 0.000000000000000000 ) ) ;
#97 =( NAMED_UNIT ( * ) PLANE_ANGLE_UNIT ( ) SI_UNIT ( $, .RADIAN. ) );
#98 = ORIENTED_EDGE ( 'NONE', *, *, #15, .T. ) ;
#99 = PRESENTATION_LAYER_ASSIGNMENT (  '', '', ( #149 ) ) ;
#100 =( GEOMETRIC_REPRESENTATION_CONTEXT ( 3 ) GLOBAL_UNCERTAINTY_ASSIGNED_CONTEXT ( ( #34 ) ) GLOBAL_UNIT_ASSIGNED_CONTEXT ( ( #119, #233, #275 ) ) REPRESENTATION_CONTEXT ( 'NONE', 'WORKASPACE' ) );
#101 = PLANE ( 'NONE',  #8 ) ;
#102 = MECHANICAL_DESIGN_GEOMETRIC_PRESENTATION_REPRESENTATION (  '', ( #53 ), #146 ) ;
#103 = SURFACE_SIDE_STYLE ('',( #129 ) ) ;
#104 = VERTEX_POINT ( 'NONE', #150 ) ;
#105 = CARTESIAN_POINT ( 'NONE',  ( 2.296212748401287726E-17, 0.000000000000000000, 0.1875000000000000278 ) ) ;
#106 = DIRECTION ( 'NONE',  ( -0.000000000000000000, -1.000000000000000000, -0.000000000000000000 ) ) ;
#107 = DIMENSIONAL_EXPONENTS ( 1.000000000000000000, 0.000000000000000000, 0.000000000000000000, 0.000000000000000000, 0.000000000000000000, 0.000000000000000000, 0.000000000000000000 ) ;
#108 = FILL_AREA_STYLE_COLOUR ( '', #212 ) ;
#109 = AXIS2_PLACEMENT_3D ( 'NONE', #11, #106, #197 ) ;
#110 = LENGTH_MEASURE_WITH_UNIT ( LENGTH_MEASURE( 0.02539999999999999897 ), #87 );
#111 =( NAMED_UNIT ( * ) PLANE_ANGLE_UNIT ( ) SI_UNIT ( $, .RADIAN. ) );
#112 =( NAMED_UNIT ( * ) SI_UNIT ( $, .STERADIAN. ) SOLID_ANGLE_UNIT ( ) );
#113 = DIRECTION ( 'NONE',  ( 0.000000000000000000, 0.000000000000000000, -1.000000000000000000 ) ) ;
#114 =( LENGTH_UNIT ( ) NAMED_UNIT ( * ) SI_UNIT ( $, .METRE. ) );
#115 =( GEOMETRIC_REPRESENTATION_CONTEXT ( 3 ) GLOBAL_UNCERTAINTY_ASSIGNED_CONTEXT ( ( #262 ) ) GLOBAL_UNIT_ASSIGNED_CONTEXT ( ( #168, #47, #112 ) ) REPRESENTATION_CONTEXT ( 'NONE', 'WORKASPACE' ) );
#116 =( NAMED_UNIT ( * ) PLANE_ANGLE_UNIT ( ) SI_UNIT ( $, .RADIAN. ) );
#117 = DIRECTION ( 'NONE',  ( 0.000000000000000000, -0.000000000000000000, 1.000000000000000000 ) ) ;
#118 = SURFACE_STYLE_USAGE ( .BOTH. , #297 ) ;
#119 =( CONVERSION_BASED_UNIT ( 'INCH', #301 ) LENGTH_UNIT ( ) NAMED_UNIT ( #107 ) );
#120 = MECHANICAL_DESIGN_GEOMETRIC_PRESENTATION_REPRESENTATION (  '', ( #26 ), #253 ) ;
#121 = PRESENTATION_LAYER_ASSIGNMENT (  '', '', ( #147 ) ) ;
#122 = EDGE_LOOP ( 'NONE', ( #3, #33 ) ) ;
#123 = VERTEX_POINT ( 'NONE', #243 ) ;
#124 = COLOUR_RGB ( '',0.7921568627450980005, 0.8196078431372548767, 0.9333333333333333481 ) ;
#125 = COLOUR_RGB ( '',1.000000000000000000, 0.000000000000000000, 0.000000000000000000 ) ;
#126 = DIMENSIONAL_EXPONENTS ( 1.000000000000000000, 0.000000000000000000, 0.000000000000000000, 0.000000000000000000, 0.000000000000000000, 0.000000000000000000, 0.000000000000000000 ) ;
#127 = DIRECTION ( 'NONE',  ( -0.000000000000000000, -1.000000000000000000, -0.000000000000000000 ) ) ;
#128 = EDGE_LOOP ( 'NONE', ( #85, #260 ) ) ;
#129 = SURFACE_STYLE_FILL_AREA ( #56 ) ;
#130 = CARTESIAN_POINT ( 'NONE',  ( 2.296212748401287726E-17, 0.5000000000000001110, 0.1875000000000000278 ) ) ;
#131 = CIRCLE ( 'NONE', #254, 0.1875000000000000278 ) ;
#132 = CARTESIAN_POINT ( 'NONE',  ( 0.000000000000000000, 0.000000000000000000, -0.1875000000000000278 ) ) ;
#133 = CARTESIAN_POINT ( 'NONE',  ( 0.000000000000000000, 0.000000000000000000, 0.000000000000000000 ) ) ;
#134 = VERTEX_POINT ( 'NONE', #283 ) ;
#135 = DIRECTION ( 'NONE',  ( 0.000000000000000000, 0.000000000000000000, -1.000000000000000000 ) ) ;
#136 = CARTESIAN_POINT ( 'NONE',  ( 0.000000000000000000, 0.5000000000000001110, 0.000000000000000000 ) ) ;
#137 = DIRECTION ( 'NONE',  ( 0.000000000000000000, 0.000000000000000000, -1.000000000000000000 ) ) ;
#138 = DIRECTION ( 'NONE',  ( 0.000000000000000000, 0.000000000000000000, -1.000000000000000000 ) ) ;
#139 = APPLICATION_CONTEXT ( 'automotive_design' ) ;
#140 = PRESENTATION_STYLE_ASSIGNMENT (( #248 ) ) ;
#141 = SURFACE_STYLE_FILL_AREA ( #89 ) ;
#142 = AXIS2_PLACEMENT_3D ( 'NONE', #263, #245, #38 ) ;
#143 = DIRECTION ( 'NONE',  ( 0.000000000000000000, 0.000000000000000000, -1.000000000000000000 ) ) ;
#144 = PRODUCT_DEFINITION ( 'UNKNOWN', '', #291, #158 ) ;
#145 = EDGE_CURVE ( 'NONE', #264, #123, #288, .T. ) ;
#146 =( GEOMETRIC_REPRESENTATION_CONTEXT ( 3 ) GLOBAL_UNCERTAINTY_ASSIGNED_CONTEXT ( ( #222 ) ) GLOBAL_UNIT_ASSIGNED_CONTEXT ( ( #271, #12, #35 ) ) REPRESENTATION_CONTEXT ( 'NONE', 'WORKASPACE' ) );
#147 = STYLED_ITEM ( 'NONE', ( #279 ), #272 ) ;
#148 = EDGE_LOOP ( 'NONE', ( #55, #1, #196, #25 ) ) ;
#149 = STYLED_ITEM ( 'NONE', ( #214 ), #21 ) ;
#150 = CARTESIAN_POINT ( 'NONE',  ( -0.1875000000000000278, 0.5000000000000001110, 0.000000000000000000 ) ) ;
#151 = APPLICATION_CONTEXT ( 'automotive_design' ) ;
#152 = ADVANCED_FACE ( 'NONE', ( #290 ), #178, .T. ) ;
#153 = ORIENTED_EDGE ( 'NONE', *, *, #228, .F. ) ;
#154 = DIRECTION ( 'NONE',  ( -1.000000000000000000, 0.000000000000000000, 0.000000000000000000 ) ) ;
#155 = LINE ( 'NONE', #32, #45 ) ;
#156 = STYLED_ITEM ( 'NONE', ( #184 ), #280 ) ;
#157 = CARTESIAN_POINT ( 'NONE',  ( 2.449293598294706414E-16, 2.000000000000000000, 0.000000000000000000 ) ) ;
#158 = PRODUCT_DEFINITION_CONTEXT ( 'detailed design', #151, 'design' ) ;
#159 = FACE_OUTER_BOUND ( 'NONE', #148, .T. ) ;
#160 = DIRECTION ( 'NONE',  ( 1.632862398863137774E-16, 1.000000000000000000, -0.000000000000000000 ) ) ;
#161 = UNCERTAINTY_MEASURE_WITH_UNIT (LENGTH_MEASURE( 1.000000000000000082E-05 ), #166, 'distance_accuracy_value', 'NONE');
#162 = AXIS2_PLACEMENT_3D ( 'NONE', #136, #91, #135 ) ;
#163 = SURFACE_STYLE_USAGE ( .BOTH. , #20 ) ;
#164 = LINE ( 'NONE', #216, #191 ) ;
#165 =( LENGTH_UNIT ( ) NAMED_UNIT ( * ) SI_UNIT ( $, .METRE. ) );
#166 =( CONVERSION_BASED_UNIT ( 'INCH', #110 ) LENGTH_UNIT ( ) NAMED_UNIT ( #256 ) );
#167 = DIRECTION ( 'NONE',  ( -0.000000000000000000, -1.000000000000000000, -0.000000000000000000 ) ) ;
#168 =( CONVERSION_BASED_UNIT ( 'INCH', #203 ) LENGTH_UNIT ( ) NAMED_UNIT ( #81 ) );
#169 = DIRECTION ( 'NONE',  ( 0.000000000000000000, 0.000000000000000000, 1.000000000000000000 ) ) ;
#170 = STYLED_ITEM ( 'NONE', ( #140 ), #52 ) ;
#171 = MECHANICAL_DESIGN_GEOMETRIC_PRESENTATION_REPRESENTATION (  '', ( #156 ), #231 ) ;
#172 = ORIENTED_EDGE ( 'NONE', *, *, #67, .T. ) ;
#173 = FACE_OUTER_BOUND ( 'NONE', #74, .T. ) ;
#174 = EDGE_LOOP ( 'NONE', ( #217, #51 ) ) ;
#175 = COLOUR_RGB ( '',1.000000000000000000, 0.000000000000000000, 0.000000000000000000 ) ;
#176 = ADVANCED_FACE ( 'NONE', ( #173 ), #58, .T. ) ;
#177 = DIRECTION ( 'NONE',  ( 0.000000000000000000, -1.000000000000000000, -0.000000000000000000 ) ) ;
#178 = CYLINDRICAL_SURFACE ( 'NONE', #77, 0.1874999999999999167 ) ;
#179 = DIRECTION ( 'NONE',  ( 1.632862398863137774E-16, 1.000000000000000000, -0.000000000000000000 ) ) ;
#180 = CIRCLE ( 'NONE', #13, 0.1874999999999997780 ) ;
#181 = FILL_AREA_STYLE_COLOUR ( '', #124 ) ;
#182 = CARTESIAN_POINT ( 'NONE',  ( 0.1875000000000000278, 2.000000000000000000, 2.296212748401286493E-17 ) ) ;
#183 =( NAMED_UNIT ( * ) SI_UNIT ( $, .STERADIAN. ) SOLID_ANGLE_UNIT ( ) );
#184 = PRESENTATION_STYLE_ASSIGNMENT (( #118 ) ) ;
#185 = CARTESIAN_POINT ( 'NONE',  ( 0.000000000000000000, 0.5000000000000001110, 0.000000000000000000 ) ) ;
#186 =( GEOMETRIC_REPRESENTATION_CONTEXT ( 3 ) GLOBAL_UNCERTAINTY_ASSIGNED_CONTEXT ( ( #161 ) ) GLOBAL_UNIT_ASSIGNED_CONTEXT ( ( #166, #111, #183 ) ) REPRESENTATION_CONTEXT ( 'NONE', 'WORKASPACE' ) );
#187 = CIRCLE ( 'NONE', #2, 0.1874999999999997780 ) ;
#188 = EDGE_CURVE ( 'NONE', #50, #213, #28, .T. ) ;
#189 = PRODUCT_CONTEXT ( 'NONE', #139, 'mechanical' ) ;
#190 = ORIENTED_EDGE ( 'NONE', *, *, #238, .T. ) ;
#191 = VECTOR ( 'NONE', #179, 39.37007874015748143 ) ;
#192 = CARTESIAN_POINT ( 'NONE',  ( 0.1875000000000000278, 2.000000000000000000, 0.000000000000000000 ) ) ;
#193 = DIRECTION ( 'NONE',  ( 1.000000000000000000, -1.632862398863137774E-16, 0.000000000000000000 ) ) ;
#194 = DIRECTION ( 'NONE',  ( 1.632862398863137774E-16, 1.000000000000000000, -0.000000000000000000 ) ) ;
#195 = DIRECTION ( 'NONE',  ( -1.000000000000000000, 0.000000000000000000, 0.000000000000000000 ) ) ;
#196 = ORIENTED_EDGE ( 'NONE', *, *, #188, .T. ) ;
#197 = DIRECTION ( 'NONE',  ( 0.000000000000000000, 0.000000000000000000, -1.000000000000000000 ) ) ;
#198 = FILL_AREA_STYLE ('',( #108 ) ) ;
#199 = SURFACE_STYLE_FILL_AREA ( #198 ) ;
#200 = DIMENSIONAL_EXPONENTS ( 1.000000000000000000, 0.000000000000000000, 0.000000000000000000, 0.000000000000000000, 0.000000000000000000, 0.000000000000000000, 0.000000000000000000 ) ;
#201 = DIRECTION ( 'NONE',  ( 1.632862398863137774E-16, 1.000000000000000000, -0.000000000000000000 ) ) ;
#202 = CARTESIAN_POINT ( 'NONE',  ( 0.000000000000000000, 0.000000000000000000, 0.000000000000000000 ) ) ;
#203 = LENGTH_MEASURE_WITH_UNIT ( LENGTH_MEASURE( 0.02539999999999999897 ), #66 );
#204 = DIRECTION ( 'NONE',  ( 1.000000000000000000, 0.000000000000000000, 0.000000000000000000 ) ) ;
#205 = AXIS2_PLACEMENT_3D ( 'NONE', #185, #230, #309 ) ;
#206 = PLANE ( 'NONE',  #27 ) ;
#207 = LENGTH_MEASURE_WITH_UNIT ( LENGTH_MEASURE( 0.02539999999999999897 ), #57 );
#208 = VECTOR ( 'NONE', #127, 39.37007874015748143 ) ;
#209 = DIRECTION ( 'NONE',  ( -1.000000000000000000, 1.632862398863137774E-16, 0.000000000000000000 ) ) ;
#210 = PRODUCT_RELATED_PRODUCT_CATEGORY ( 'part', '', ( #78 ) ) ;
#211 = ORIENTED_EDGE ( 'NONE', *, *, #308, .T. ) ;
#212 = COLOUR_RGB ( '',1.000000000000000000, 0.000000000000000000, 0.000000000000000000 ) ;
#213 = VERTEX_POINT ( 'NONE', #215 ) ;
#214 = PRESENTATION_STYLE_ASSIGNMENT (( #80 ) ) ;
#215 = CARTESIAN_POINT ( 'NONE',  ( 0.000000000000000000, 0.000000000000000000, -0.1875000000000000278 ) ) ;
#216 = CARTESIAN_POINT ( 'NONE',  ( 0.1875000000000001388, 2.000000000000000000, 2.296212748401286185E-17 ) ) ;
#217 = ORIENTED_EDGE ( 'NONE', *, *, #39, .T. ) ;
#218 = FACE_OUTER_BOUND ( 'NONE', #174, .T. ) ;
#219 = MECHANICAL_DESIGN_GEOMETRIC_PRESENTATION_REPRESENTATION (  '', ( #149 ), #48 ) ;
#220 = CARTESIAN_POINT ( 'NONE',  ( 0.000000000000000000, 0.5000000000000001110, 0.000000000000000000 ) ) ;
#221 = ORIENTED_EDGE ( 'NONE', *, *, #242, .F. ) ;
#222 = UNCERTAINTY_MEASURE_WITH_UNIT (LENGTH_MEASURE( 1.000000000000000082E-05 ), #271, 'distance_accuracy_value', 'NONE');
#223 = LENGTH_MEASURE_WITH_UNIT ( LENGTH_MEASURE( 0.02539999999999999897 ), #114 );
#224 = DIRECTION ( 'NONE',  ( -1.000000000000000000, 0.000000000000000000, 0.000000000000000000 ) ) ;
#225 = FILL_AREA_STYLE ('',( #181 ) ) ;
#226 = EDGE_CURVE ( 'NONE', #104, #236, #131, .T. ) ;
#227 = SURFACE_SIDE_STYLE ('',( #199 ) ) ;
#228 = EDGE_CURVE ( 'NONE', #213, #123, #49, .T. ) ;
#229 = CARTESIAN_POINT ( 'NONE',  ( 0.1875000000000000278, 0.5000000000000001110, 2.296212748401286493E-17 ) ) ;
#230 = DIRECTION ( 'NONE',  ( 1.632862398863137774E-16, 1.000000000000000000, -0.000000000000000000 ) ) ;
#231 =( GEOMETRIC_REPRESENTATION_CONTEXT ( 3 ) GLOBAL_UNCERTAINTY_ASSIGNED_CONTEXT ( ( #240 ) ) GLOBAL_UNIT_ASSIGNED_CONTEXT ( ( #92, #116, #14 ) ) REPRESENTATION_CONTEXT ( 'NONE', 'WORKASPACE' ) );
#232 = FILL_AREA_STYLE_COLOUR ( '', #125 ) ;
#233 =( NAMED_UNIT ( * ) PLANE_ANGLE_UNIT ( ) SI_UNIT ( $, .RADIAN. ) );
#234 = FILL_AREA_STYLE ('',( #95 ) ) ;
#235 = DIRECTION ( 'NONE',  ( -0.000000000000000000, -1.000000000000000000, -0.000000000000000000 ) ) ;
#236 = VERTEX_POINT ( 'NONE', #229 ) ;
#237 = PRESENTATION_LAYER_ASSIGNMENT (  '', '', ( #53 ) ) ;
#238 = EDGE_CURVE ( 'NONE', #236, #70, #164, .T. ) ;
#239 = ORIENTED_EDGE ( 'NONE', *, *, #228, .T. ) ;
#240 = UNCERTAINTY_MEASURE_WITH_UNIT (LENGTH_MEASURE( 1.000000000000000082E-05 ), #92, 'distance_accuracy_value', 'NONE');
#241 = ORIENTED_EDGE ( 'NONE', *, *, #188, .F. ) ;
#242 = EDGE_CURVE ( 'NONE', #70, #134, #187, .T. ) ;
#243 = CARTESIAN_POINT ( 'NONE',  ( 2.296212748401287726E-17, 0.000000000000000000, 0.1875000000000000278 ) ) ;
#244 = DIRECTION ( 'NONE',  ( 1.632862398863137774E-16, 1.000000000000000000, -0.000000000000000000 ) ) ;
#245 = DIRECTION ( 'NONE',  ( 1.632862398863137774E-16, 1.000000000000000000, -0.000000000000000000 ) ) ;
#246 = CYLINDRICAL_SURFACE ( 'NONE', #69, 0.1875000000000000278 ) ;
#247 = COLOUR_RGB ( '',1.000000000000000000, 0.000000000000000000, 0.000000000000000000 ) ;
#248 = SURFACE_STYLE_USAGE ( .BOTH. , #227 ) ;
#249 = CYLINDRICAL_SURFACE ( 'NONE', #60, 0.1875000000000000278 ) ;
#250 = DIRECTION ( 'NONE',  ( -1.000000000000000000, 0.000000000000000000, 0.000000000000000000 ) ) ;
#251 = FILL_AREA_STYLE_COLOUR ( '', #269 ) ;
#252 = APPLICATION_PROTOCOL_DEFINITION ( 'draft international standard', 'automotive_design', 1998, #139 ) ;
#253 =( GEOMETRIC_REPRESENTATION_CONTEXT ( 3 ) GLOBAL_UNCERTAINTY_ASSIGNED_CONTEXT ( ( #284 ) ) GLOBAL_UNIT_ASSIGNED_CONTEXT ( ( #93, #97, #258 ) ) REPRESENTATION_CONTEXT ( 'NONE', 'WORKASPACE' ) );
#254 = AXIS2_PLACEMENT_3D ( 'NONE', #5, #76, #250 ) ;
#255 =( LENGTH_UNIT ( ) NAMED_UNIT ( * ) SI_UNIT ( $, .METRE. ) );
#256 = DIMENSIONAL_EXPONENTS ( 1.000000000000000000, 0.000000000000000000, 0.000000000000000000, 0.000000000000000000, 0.000000000000000000, 0.000000000000000000, 0.000000000000000000 ) ;
#257 = FACE_OUTER_BOUND ( 'NONE', #128, .T. ) ;
#258 =( NAMED_UNIT ( * ) SI_UNIT ( $, .STERADIAN. ) SOLID_ANGLE_UNIT ( ) );
#259 =( NAMED_UNIT ( * ) SI_UNIT ( $, .STERADIAN. ) SOLID_ANGLE_UNIT ( ) );
#260 = ORIENTED_EDGE ( 'NONE', *, *, #308, .F. ) ;
#261 = ORIENTED_EDGE ( 'NONE', *, *, #15, .F. ) ;
#262 = UNCERTAINTY_MEASURE_WITH_UNIT (LENGTH_MEASURE( 1.000000000000000082E-05 ), #168, 'distance_accuracy_value', 'NONE');
#263 = CARTESIAN_POINT ( 'NONE',  ( 2.449293598294706414E-16, 2.000000000000000000, 0.000000000000000000 ) ) ;
#264 = VERTEX_POINT ( 'NONE', #130 ) ;
#265 = EDGE_CURVE ( 'NONE', #264, #50, #83, .T. ) ;
#266 = FILL_AREA_STYLE_COLOUR ( '', #175 ) ;
#267 = CARTESIAN_POINT ( 'NONE',  ( 2.449293598294706414E-16, 2.000000000000000000, 0.000000000000000000 ) ) ;
#268 = CARTESIAN_POINT ( 'NONE',  ( 0.000000000000000000, 0.5000000000000001110, -0.1875000000000000278 ) ) ;
#269 = COLOUR_RGB ( '',0.7921568627450980005, 0.8196078431372548767, 0.9333333333333333481 ) ;
#270 = CARTESIAN_POINT ( 'NONE',  ( 2.449293598294706414E-16, 2.000000000000000000, 0.000000000000000000 ) ) ;
#271 =( CONVERSION_BASED_UNIT ( 'INCH', #223 ) LENGTH_UNIT ( ) NAMED_UNIT ( #84 ) );
#272 = ADVANCED_FACE ( 'NONE', ( #18 ), #249, .T. ) ;
#273 = AXIS2_PLACEMENT_3D ( 'NONE', #281, #169, #204 ) ;
#274 = PRESENTATION_STYLE_ASSIGNMENT (( #17 ) ) ;
#275 =( NAMED_UNIT ( * ) SI_UNIT ( $, .STERADIAN. ) SOLID_ANGLE_UNIT ( ) );
#276 = SURFACE_STYLE_FILL_AREA ( #234 ) ;
#277 =( LENGTH_UNIT ( ) NAMED_UNIT ( * ) SI_UNIT ( $, .METRE. ) );
#278 = CIRCLE ( 'NONE', #162, 0.1875000000000000278 ) ;
#279 = PRESENTATION_STYLE_ASSIGNMENT (( #163 ) ) ;
#280 = ADVANCED_FACE ( 'NONE', ( #295 ), #206, .T. ) ;
#281 = CARTESIAN_POINT ( 'NONE',  ( 0.000000000000000000, 0.000000000000000000, 0.000000000000000000 ) ) ;
#282 = EDGE_LOOP ( 'NONE', ( #239, #30 ) ) ;
#283 = CARTESIAN_POINT ( 'NONE',  ( -0.1874999999999995282, 2.000000000000000000, 0.000000000000000000 ) ) ;
#284 = UNCERTAINTY_MEASURE_WITH_UNIT (LENGTH_MEASURE( 1.000000000000000082E-05 ), #93, 'distance_accuracy_value', 'NONE');
#285 = CLOSED_SHELL ( 'NONE', ( #272, #280, #52, #21 ) ) ;
#286 = AXIS2_PLACEMENT_3D ( 'NONE', #307, #46, #209 ) ;
#287 = MECHANICAL_DESIGN_GEOMETRIC_PRESENTATION_REPRESENTATION (  '', ( #147 ), #115 ) ;
#288 = LINE ( 'NONE', #105, #90 ) ;
#289 = FACE_OUTER_BOUND ( 'NONE', #282, .T. ) ;
#290 = FACE_OUTER_BOUND ( 'NONE', #29, .T. ) ;
#291 = PRODUCT_DEFINITION_FORMATION_WITH_SPECIFIED_SOURCE ( 'ANY', '', #78, .NOT_KNOWN. ) ;
#292 = UNCERTAINTY_MEASURE_WITH_UNIT (LENGTH_MEASURE( 1.000000000000000082E-05 ), #44, 'distance_accuracy_value', 'NONE');
#293 = SURFACE_STYLE_FILL_AREA ( #225 ) ;
#294 = SURFACE_SIDE_STYLE ('',( #293 ) ) ;
#295 = FACE_OUTER_BOUND ( 'NONE', #122, .T. ) ;
#296 = SURFACE_SIDE_STYLE ('',( #86 ) ) ;
#297 = SURFACE_SIDE_STYLE ('',( #141 ) ) ;
#298 = AXIS2_PLACEMENT_3D ( 'NONE', #220, #235, #113 ) ;
#299 = SHAPE_DEFINITION_REPRESENTATION ( #4, #79 ) ;
#300 = DIRECTION ( 'NONE',  ( -0.000000000000000000, -1.000000000000000000, -0.000000000000000000 ) ) ;
#301 = LENGTH_MEASURE_WITH_UNIT ( LENGTH_MEASURE( 0.02539999999999999897 ), #277 );
#302 = LENGTH_MEASURE_WITH_UNIT ( LENGTH_MEASURE( 0.02539999999999999897 ), #165 );
#303 = CARTESIAN_POINT ( 'NONE',  ( 0.000000000000000000, 0.5000000000000001110, 0.000000000000000000 ) ) ;
#304 = LENGTH_MEASURE_WITH_UNIT ( LENGTH_MEASURE( 0.02539999999999999897 ), #255 );
#305 = DIMENSIONAL_EXPONENTS ( 1.000000000000000000, 0.000000000000000000, 0.000000000000000000, 0.000000000000000000, 0.000000000000000000, 0.000000000000000000, 0.000000000000000000 ) ;
#306 = ADVANCED_FACE ( 'NONE', ( #257 ), #19, .F. ) ;
#307 = CARTESIAN_POINT ( 'NONE',  ( 2.499599637769763364E-33, 0.5000000000000001110, 0.000000000000000000 ) ) ;
#308 = EDGE_CURVE ( 'NONE', #236, #104, #65, .T. ) ;
#309 = DIRECTION ( 'NONE',  ( -1.000000000000000000, 0.000000000000000000, 0.000000000000000000 ) ) ;
ENDSEC;
END-ISO-10303-21;
