ISO-10303-21;
HEADER;
FILE_DESCRIPTION (( 'STEP AP214' ),
    '1' );
FILE_NAME ('Micro_AECM-0810-2.STEP',
    '2021-09-03T16:58:02',
    ( '' ),
    ( '' ),
    'SwSTEP 2.0',
    'SolidWorks 2020',
    '' );
FILE_SCHEMA (( 'AUTOMOTIVE_DESIGN' ));
ENDSEC;

DATA;
#1 = CARTESIAN_POINT ( 'NONE',  ( 0.0000000000000000000, 0.0000000000000000000, 2.480315000000000047 ) ) ;
#2 = CARTESIAN_POINT ( 'NONE',  ( 0.0000000000000000000, 0.0000000000000000000, 2.480315000000000047 ) ) ;
#3 = PRODUCT_DEFINITION ( 'UNKNOWN', '', #82, #179 ) ;
#4 = SURFACE_STYLE_USAGE ( .BOTH. , #275 ) ;
#5 = ORIENTED_EDGE ( 'NONE', *, *, #258, .T. ) ;
#6 = AXIS2_PLACEMENT_3D ( 'NONE', #192, #79, #237 ) ;
#7 = FACE_OUTER_BOUND ( 'NONE', #152, .T. ) ;
#8 = ORIENTED_EDGE ( 'NONE', *, *, #168, .T. ) ;
#9 = VECTOR ( 'NONE', #320, 39.37007874015747433 ) ;
#10 = PRODUCT_CONTEXT ( 'NONE', #98, 'mechanical' ) ;
#11 = ORIENTED_EDGE ( 'NONE', *, *, #173, .T. ) ;
#12 = DIRECTION ( 'NONE',  ( 0.0000000000000000000, 0.0000000000000000000, 1.000000000000000000 ) ) ;
#13 = EDGE_CURVE ( 'NONE', #167, #221, #154, .T. ) ;
#14 = LENGTH_MEASURE_WITH_UNIT ( LENGTH_MEASURE( 0.02539999999999999897 ), #71 );
#15 = ORIENTED_EDGE ( 'NONE', *, *, #13, .T. ) ;
#16 = CIRCLE ( 'NONE', #162, 0.1573230194999999942 ) ;
#17 = STYLED_ITEM ( 'NONE', ( #313 ), #95 ) ;
#18 = ORIENTED_EDGE ( 'NONE', *, *, #215, .F. ) ;
#19 = ORIENTED_EDGE ( 'NONE', *, *, #326, .F. ) ;
#20 = DIRECTION ( 'NONE',  ( -1.000000000000000000, 0.0000000000000000000, 0.0000000000000000000 ) ) ;
#21 = LINE ( 'NONE', #240, #238 ) ;
#22 = CIRCLE ( 'NONE', #340, 0.1573230194999999942 ) ;
#23 = DIMENSIONAL_EXPONENTS ( 1.000000000000000000, 0.0000000000000000000, 0.0000000000000000000, 0.0000000000000000000, 0.0000000000000000000, 0.0000000000000000000, 0.0000000000000000000 ) ;
#24 = CARTESIAN_POINT ( 'NONE',  ( 0.0000000000000000000, 0.0000000000000000000, 0.0000000000000000000 ) ) ;
#25 = CYLINDRICAL_SURFACE ( 'NONE', #102, 0.1574804999999999955 ) ;
#26 = DIRECTION ( 'NONE',  ( 1.000000000000000000, 0.0000000000000000000, 0.0000000000000000000 ) ) ;
#27 = AXIS2_PLACEMENT_3D ( 'NONE', #349, #216, #47 ) ;
#28 =( GEOMETRIC_REPRESENTATION_CONTEXT ( 3 ) GLOBAL_UNCERTAINTY_ASSIGNED_CONTEXT ( ( #122 ) ) GLOBAL_UNIT_ASSIGNED_CONTEXT ( ( #35, #307, #121 ) ) REPRESENTATION_CONTEXT ( 'NONE', 'WORKASPACE' ) );
#29 = EDGE_CURVE ( 'NONE', #182, #146, #133, .T. ) ;
#30 = CARTESIAN_POINT ( 'NONE',  ( 1.061811779920977231E-16, 0.0000000000000000000, 0.8670351162965941327 ) ) ;
#31 = CARTESIAN_POINT ( 'NONE',  ( 0.0000000000000000000, 0.0000000000000000000, 2.465314999999999923 ) ) ;
#32 = ORIENTED_EDGE ( 'NONE', *, *, #215, .T. ) ;
#33 = DIRECTION ( 'NONE',  ( -1.000000000000000000, 0.0000000000000000000, 0.0000000000000000000 ) ) ;
#34 = ORIENTED_EDGE ( 'NONE', *, *, #123, .T. ) ;
#35 =( CONVERSION_BASED_UNIT ( 'INCH', #281 ) LENGTH_UNIT ( ) NAMED_UNIT ( #23 ) );
#36 = EDGE_CURVE ( 'NONE', #159, #221, #172, .T. ) ;
#37 = FACE_OUTER_BOUND ( 'NONE', #184, .T. ) ;
#38 = ORIENTED_EDGE ( 'NONE', *, *, #52, .T. ) ;
#39 = CIRCLE ( 'NONE', #6, 0.1179530194999999920 ) ;
#40 = EDGE_CURVE ( 'NONE', #288, #159, #194, .T. ) ;
#41 = ORIENTED_EDGE ( 'NONE', *, *, #66, .F. ) ;
#42 = CARTESIAN_POINT ( 'NONE',  ( 0.1179530194999999920, 0.0000000000000000000, 0.03937000000000000222 ) ) ;
#43 = TOROIDAL_SURFACE ( 'NONE', #301, 0.1179530194999999920, 0.03937000000000000222 ) ;
#44 = ORIENTED_EDGE ( 'NONE', *, *, #318, .F. ) ;
#45 = DIRECTION ( 'NONE',  ( 1.000000000000000000, 0.0000000000000000000, 0.0000000000000000000 ) ) ;
#46 = CARTESIAN_POINT ( 'NONE',  ( -0.1573230194999999110, 1.926651322628716627E-17, 0.8661419999999999675 ) ) ;
#47 = DIRECTION ( 'NONE',  ( 1.000000000000000000, 0.0000000000000000000, 0.0000000000000000000 ) ) ;
#48 = CIRCLE ( 'NONE', #229, 0.1574804999999999955 ) ;
#49 = DIMENSIONAL_EXPONENTS ( 1.000000000000000000, 0.0000000000000000000, 0.0000000000000000000, 0.0000000000000000000, 0.0000000000000000000, 0.0000000000000000000, 0.0000000000000000000 ) ;
#50 = CARTESIAN_POINT ( 'NONE',  ( 4.821434448243129254E-18, 0.0000000000000000000, 0.03937000000000000222 ) ) ;
#51 = CARTESIAN_POINT ( 'NONE',  ( -0.1574804999999999955, 0.0000000000000000000, 2.465314999999999923 ) ) ;
#52 = EDGE_CURVE ( 'NONE', #146, #65, #289, .T. ) ;
#53 = DIRECTION ( 'NONE',  ( 0.0000000000000000000, 0.0000000000000000000, -1.000000000000000000 ) ) ;
#54 = ORIENTED_EDGE ( 'NONE', *, *, #269, .T. ) ;
#55 = PRESENTATION_LAYER_ASSIGNMENT (  '', '', ( #17 ) ) ;
#56 = SURFACE_STYLE_FILL_AREA ( #302 ) ;
#57 = DIRECTION ( 'NONE',  ( 0.0000000000000000000, 0.0000000000000000000, 1.000000000000000000 ) ) ;
#58 = ADVANCED_FACE ( 'NONE', ( #338 ), #101, .T. ) ;
#59 = CARTESIAN_POINT ( 'NONE',  ( 0.1179530194999999920, 0.0000000000000000000, 0.0000000000000000000 ) ) ;
#60 = EDGE_CURVE ( 'NONE', #227, #159, #341, .T. ) ;
#61 = TOROIDAL_SURFACE ( 'NONE', #158, 0.1179530194999999920, 0.03937000000000000222 ) ;
#62 = COLOUR_RGB ( '',0.7921568627450980005, 0.8196078431372548767, 0.9333333333333333481 ) ;
#63 = CARTESIAN_POINT ( 'NONE',  ( 0.0000000000000000000, 0.0000000000000000000, 2.480315000000000047 ) ) ;
#64 = DIRECTION ( 'NONE',  ( 1.000000000000000000, 0.0000000000000000000, 0.0000000000000000000 ) ) ;
#65 = VERTEX_POINT ( 'NONE', #293 ) ;
#66 = EDGE_CURVE ( 'NONE', #212, #182, #207, .T. ) ;
#67 =( NAMED_UNIT ( * ) SI_UNIT ( $, .STERADIAN. ) SOLID_ANGLE_UNIT ( ) );
#68 = EDGE_CURVE ( 'NONE', #167, #227, #16, .T. ) ;
#69 = CARTESIAN_POINT ( 'NONE',  ( -0.1573230194999999942, 0.0000000000000000000, 1.926651322628716627E-17 ) ) ;
#70 = AXIS2_PLACEMENT_3D ( 'NONE', #337, #156, #151 ) ;
#71 =( LENGTH_UNIT ( ) NAMED_UNIT ( * ) SI_UNIT ( $, .METRE. ) );
#72 = CARTESIAN_POINT ( 'NONE',  ( -0.1574804999999999955, 0.0000000000000000000, 2.480315000000000047 ) ) ;
#73 = EDGE_LOOP ( 'NONE', ( #305, #18, #204, #5 ) ) ;
#74 = SURFACE_STYLE_USAGE ( .BOTH. , #209 ) ;
#75 = ORIENTED_EDGE ( 'NONE', *, *, #245, .F. ) ;
#76 = AXIS2_PLACEMENT_3D ( 'NONE', #63, #53, #304 ) ;
#77 =( GEOMETRIC_REPRESENTATION_CONTEXT ( 3 ) GLOBAL_UNCERTAINTY_ASSIGNED_CONTEXT ( ( #232 ) ) GLOBAL_UNIT_ASSIGNED_CONTEXT ( ( #335, #309, #211 ) ) REPRESENTATION_CONTEXT ( 'NONE', 'WORKASPACE' ) );
#78 = DIRECTION ( 'NONE',  ( 0.0000000000000000000, 0.0000000000000000000, 1.000000000000000000 ) ) ;
#79 = DIRECTION ( 'NONE',  ( -0.0000000000000000000, -0.0000000000000000000, -1.000000000000000000 ) ) ;
#80 = CARTESIAN_POINT ( 'NONE',  ( 0.0000000000000000000, 0.0000000000000000000, 2.465314999999999923 ) ) ;
#81 = DIRECTION ( 'NONE',  ( -0.0000000000000000000, -0.0000000000000000000, -1.000000000000000000 ) ) ;
#82 = PRODUCT_DEFINITION_FORMATION_WITH_SPECIFIED_SOURCE ( 'ANY', '', #279, .NOT_KNOWN. ) ;
#83 = CARTESIAN_POINT ( 'NONE',  ( 1.061811779920977231E-16, 0.0000000000000000000, 0.8670351162965941327 ) ) ;
#84 = CYLINDRICAL_SURFACE ( 'NONE', #251, 0.1573230194999999942 ) ;
#85 = DIRECTION ( 'NONE',  ( -1.224646799147353207E-16, -0.0000000000000000000, -1.000000000000000000 ) ) ;
#86 = EDGE_LOOP ( 'NONE', ( #336, #94, #181, #44 ) ) ;
#87 = AXIS2_PLACEMENT_3D ( 'NONE', #319, #294, #188 ) ;
#88 = AXIS2_PLACEMENT_3D ( 'NONE', #332, #333, #327 ) ;
#89 = DIRECTION ( 'NONE',  ( -0.0000000000000000000, -0.0000000000000000000, -1.000000000000000000 ) ) ;
#90 = EDGE_CURVE ( 'NONE', #167, #65, #141, .T. ) ;
#91 = ORIENTED_EDGE ( 'NONE', *, *, #110, .T. ) ;
#92 = ADVANCED_FACE ( 'NONE', ( #111 ), #25, .T. ) ;
#93 = FILL_AREA_STYLE_COLOUR ( '', #342 ) ;
#94 = ORIENTED_EDGE ( 'NONE', *, *, #173, .F. ) ;
#95 = ADVANCED_BREP_SHAPE_REPRESENTATION ( 'Micro_AECM-0810-2', ( #321, #239 ), #103 ) ;
#96 = AXIS2_PLACEMENT_3D ( 'NONE', #2, #282, #33 ) ;
#97 = CIRCLE ( 'NONE', #70, 0.03937000000000000915 ) ;
#98 = APPLICATION_CONTEXT ( 'automotive_design' ) ;
#99 = EDGE_LOOP ( 'NONE', ( #286, #91, #38, #174 ) ) ;
#100 = APPLICATION_PROTOCOL_DEFINITION ( 'draft international standard', 'automotive_design', 1998, #298 ) ;
#101 = CYLINDRICAL_SURFACE ( 'NONE', #265, 0.1574804999999999955 ) ;
#102 = AXIS2_PLACEMENT_3D ( 'NONE', #136, #81, #165 ) ;
#103 =( GEOMETRIC_REPRESENTATION_CONTEXT ( 3 ) GLOBAL_UNCERTAINTY_ASSIGNED_CONTEXT ( ( #330 ) ) GLOBAL_UNIT_ASSIGNED_CONTEXT ( ( #175, #129, #67 ) ) REPRESENTATION_CONTEXT ( 'NONE', 'WORKASPACE' ) );
#104 = CARTESIAN_POINT ( 'NONE',  ( 0.1573230194999999942, 1.926651322628716627E-17, -1.926651322628716627E-17 ) ) ;
#105 = CARTESIAN_POINT ( 'NONE',  ( 0.0000000000000000000, 0.0000000000000000000, 0.0000000000000000000 ) ) ;
#106 = ORIENTED_EDGE ( 'NONE', *, *, #90, .T. ) ;
#107 = CARTESIAN_POINT ( 'NONE',  ( 0.1573230194999999942, 1.926651322628716627E-17, 0.03937000000000000915 ) ) ;
#108 = AXIS2_PLACEMENT_3D ( 'NONE', #30, #195, #248 ) ;
#109 = FACE_OUTER_BOUND ( 'NONE', #256, .T. ) ;
#110 = EDGE_CURVE ( 'NONE', #266, #146, #48, .T. ) ;
#111 = FACE_OUTER_BOUND ( 'NONE', #99, .T. ) ;
#112 = DIRECTION ( 'NONE',  ( -1.000000000000000000, 0.0000000000000000000, 0.0000000000000000000 ) ) ;
#113 = FACE_OUTER_BOUND ( 'NONE', #203, .T. ) ;
#114 = DIRECTION ( 'NONE',  ( 1.000000000000000000, 0.0000000000000000000, 0.0000000000000000000 ) ) ;
#115 = PRESENTATION_STYLE_ASSIGNMENT (( #4 ) ) ;
#116 = ORIENTED_EDGE ( 'NONE', *, *, #68, .T. ) ;
#117 = CONICAL_SURFACE ( 'NONE', #76, 0.1424804999999990940, 0.7853981633974699283 ) ;
#118 = CONICAL_SURFACE ( 'NONE', #280, 0.1573230194999999942, 0.1745329251994338637 ) ;
#119 = EDGE_CURVE ( 'NONE', #182, #212, #148, .T. ) ;
#120 = DIRECTION ( 'NONE',  ( 1.000000000000000000, 0.0000000000000000000, 0.0000000000000000000 ) ) ;
#121 =( NAMED_UNIT ( * ) SI_UNIT ( $, .STERADIAN. ) SOLID_ANGLE_UNIT ( ) );
#122 = UNCERTAINTY_MEASURE_WITH_UNIT (LENGTH_MEASURE( 1.000000000000000082E-05 ), #35, 'distance_accuracy_value', 'NONE');
#123 = EDGE_CURVE ( 'NONE', #127, #288, #39, .T. ) ;
#124 = ORIENTED_EDGE ( 'NONE', *, *, #283, .T. ) ;
#125 = VECTOR ( 'NONE', #210, 39.37007874015748143 ) ;
#126 = SHAPE_DEFINITION_REPRESENTATION ( #225, #95 ) ;
#127 = VERTEX_POINT ( 'NONE', #346 ) ;
#128 = DIRECTION ( 'NONE',  ( 1.000000000000000000, 0.0000000000000000000, 0.0000000000000000000 ) ) ;
#129 =( NAMED_UNIT ( * ) PLANE_ANGLE_UNIT ( ) SI_UNIT ( $, .RADIAN. ) );
#130 = DIRECTION ( 'NONE',  ( -1.224646799147353207E-16, -0.0000000000000000000, -1.000000000000000000 ) ) ;
#131 = AXIS2_PLACEMENT_3D ( 'NONE', #246, #316, #270 ) ;
#132 = PRODUCT_RELATED_PRODUCT_CATEGORY ( 'part', '', ( #279 ) ) ;
#133 = LINE ( 'NONE', #177, #178 ) ;
#134 = ADVANCED_FACE ( 'NONE', ( #189 ), #61, .T. ) ;
#135 = ORIENTED_EDGE ( 'NONE', *, *, #326, .T. ) ;
#136 = CARTESIAN_POINT ( 'NONE',  ( 0.0000000000000000000, 0.0000000000000000000, 2.480315000000000047 ) ) ;
#137 = ADVANCED_FACE ( 'NONE', ( #109 ), #217, .F. ) ;
#138 = AXIS2_PLACEMENT_3D ( 'NONE', #193, #325, #144 ) ;
#139 = DIRECTION ( 'NONE',  ( 1.000000000000000000, 0.0000000000000000000, -0.0000000000000000000 ) ) ;
#140 = CARTESIAN_POINT ( 'NONE',  ( 1.060718027907086782E-16, 0.0000000000000000000, 0.8661419999999999675 ) ) ;
#141 = LINE ( 'NONE', #46, #9 ) ;
#142 = CLOSED_SHELL ( 'NONE', ( #252, #277, #297, #260, #58, #92, #292, #267, #180, #317, #137, #134 ) ) ;
#143 = DIRECTION ( 'NONE',  ( 1.000000000000000000, 0.0000000000000000000, 0.0000000000000000000 ) ) ;
#144 = DIRECTION ( 'NONE',  ( -1.000000000000000000, 0.0000000000000000000, 1.224646799147353454E-16 ) ) ;
#145 = FACE_OUTER_BOUND ( 'NONE', #171, .T. ) ;
#146 = VERTEX_POINT ( 'NONE', #51 ) ;
#147 = LINE ( 'NONE', #199, #328 ) ;
#148 = CIRCLE ( 'NONE', #306, 0.1424804999999990940 ) ;
#149 = AXIS2_PLACEMENT_3D ( 'NONE', #31, #339, #230 ) ;
#150 = CARTESIAN_POINT ( 'NONE',  ( 0.1574804999999999955, 1.928579902531247412E-17, 2.465314999999999923 ) ) ;
#151 = DIRECTION ( 'NONE',  ( -1.000000000000000000, 1.224646799147352961E-16, 0.0000000000000000000 ) ) ;
#152 = EDGE_LOOP ( 'NONE', ( #343, #106, #54, #75 ) ) ;
#153 = AXIS2_PLACEMENT_3D ( 'NONE', #24, #78, #139 ) ;
#154 = LINE ( 'NONE', #69, #347 ) ;
#155 = CARTESIAN_POINT ( 'NONE',  ( 4.821434448243130025E-18, 0.0000000000000000000, 0.03937000000000000915 ) ) ;
#156 = DIRECTION ( 'NONE',  ( 1.224646799147353207E-16, 1.000000000000000000, -0.0000000000000000000 ) ) ;
#157 = EDGE_LOOP ( 'NONE', ( #231, #259, #201, #176 ) ) ;
#158 = AXIS2_PLACEMENT_3D ( 'NONE', #50, #191, #143 ) ;
#159 = VERTEX_POINT ( 'NONE', #107 ) ;
#160 = CARTESIAN_POINT ( 'NONE',  ( 1.060718027907086782E-16, 0.0000000000000000000, 0.8661419999999999675 ) ) ;
#161 = FACE_OUTER_BOUND ( 'NONE', #73, .T. ) ;
#162 = AXIS2_PLACEMENT_3D ( 'NONE', #160, #322, #20 ) ;
#163 = CARTESIAN_POINT ( 'NONE',  ( 0.1424804999999990940, 1.836731392595189962E-17, 2.480315000000000047 ) ) ;
#164 = CARTESIAN_POINT ( 'NONE',  ( 0.1573230195000001053, 0.0000000000000000000, 0.8661419999999999675 ) ) ;
#165 = DIRECTION ( 'NONE',  ( -1.000000000000000000, 0.0000000000000000000, 0.0000000000000000000 ) ) ;
#166 = FACE_OUTER_BOUND ( 'NONE', #157, .T. ) ;
#167 = VERTEX_POINT ( 'NONE', #214 ) ;
#168 = EDGE_CURVE ( 'NONE', #212, #266, #21, .T. ) ;
#169 = CYLINDRICAL_SURFACE ( 'NONE', #138, 0.1573230194999999942 ) ;
#170 = ORIENTED_EDGE ( 'NONE', *, *, #66, .T. ) ;
#171 = EDGE_LOOP ( 'NONE', ( #223, #170 ) ) ;
#172 = CIRCLE ( 'NONE', #290, 0.1573230194999999942 ) ;
#173 = EDGE_CURVE ( 'NONE', #288, #127, #295, .T. ) ;
#174 = ORIENTED_EDGE ( 'NONE', *, *, #258, .F. ) ;
#175 =( CONVERSION_BASED_UNIT ( 'INCH', #14 ) LENGTH_UNIT ( ) NAMED_UNIT ( #244 ) );
#176 = ORIENTED_EDGE ( 'NONE', *, *, #110, .F. ) ;
#177 = CARTESIAN_POINT ( 'NONE',  ( -0.1424804999999990940, 0.0000000000000000000, 2.480315000000000047 ) ) ;
#178 = VECTOR ( 'NONE', #262, 39.37007874015748854 ) ;
#179 = PRODUCT_DEFINITION_CONTEXT ( 'detailed design', #298, 'design' ) ;
#180 = ADVANCED_FACE ( 'NONE', ( #161 ), #351, .T. ) ;
#181 = ORIENTED_EDGE ( 'NONE', *, *, #40, .T. ) ;
#182 = VERTEX_POINT ( 'NONE', #291 ) ;
#183 =( LENGTH_UNIT ( ) NAMED_UNIT ( * ) SI_UNIT ( $, .METRE. ) );
#184 = EDGE_LOOP ( 'NONE', ( #116, #344, #234, #303 ) ) ;
#185 = CIRCLE ( 'NONE', #108, 0.1574804999999999955 ) ;
#186 = PRESENTATION_LAYER_ASSIGNMENT (  '', '', ( #348 ) ) ;
#187 = DIRECTION ( 'NONE',  ( 0.7071067811865627828, 8.659560562355118980E-17, -0.7071067811865321406 ) ) ;
#188 = DIRECTION ( 'NONE',  ( 1.000000000000000000, 0.0000000000000000000, 0.0000000000000000000 ) ) ;
#189 = FACE_OUTER_BOUND ( 'NONE', #86, .T. ) ;
#190 = AXIS2_PLACEMENT_3D ( 'NONE', #1, #278, #226 ) ;
#191 = DIRECTION ( 'NONE',  ( 0.0000000000000000000, 0.0000000000000000000, 1.000000000000000000 ) ) ;
#192 = CARTESIAN_POINT ( 'NONE',  ( 4.821434448243129254E-18, 0.0000000000000000000, 0.0000000000000000000 ) ) ;
#193 = CARTESIAN_POINT ( 'NONE',  ( 0.0000000000000000000, 0.0000000000000000000, 0.0000000000000000000 ) ) ;
#194 = CIRCLE ( 'NONE', #323, 0.03937000000000000222 ) ;
#195 = DIRECTION ( 'NONE',  ( -1.224646799147353207E-16, -0.0000000000000000000, -1.000000000000000000 ) ) ;
#196 = CARTESIAN_POINT ( 'NONE',  ( 1.060718027907086782E-16, 0.0000000000000000000, 0.8661419999999999675 ) ) ;
#197 =( LENGTH_UNIT ( ) NAMED_UNIT ( * ) SI_UNIT ( $, .METRE. ) );
#198 = EDGE_LOOP ( 'NONE', ( #41, #8, #19, #311 ) ) ;
#199 = CARTESIAN_POINT ( 'NONE',  ( 0.1574804999999999955, 1.928579902531247412E-17, 2.480315000000000047 ) ) ;
#200 = CIRCLE ( 'NONE', #243, 0.1574804999999999955 ) ;
#201 = ORIENTED_EDGE ( 'NONE', *, *, #29, .T. ) ;
#202 = DIRECTION ( 'NONE',  ( 0.0000000000000000000, 0.0000000000000000000, 1.000000000000000000 ) ) ;
#203 = EDGE_LOOP ( 'NONE', ( #264, #32, #15, #276 ) ) ;
#204 = ORIENTED_EDGE ( 'NONE', *, *, #245, .T. ) ;
#205 = FILL_AREA_STYLE_COLOUR ( '', #62 ) ;
#206 = CARTESIAN_POINT ( 'NONE',  ( 0.0000000000000000000, 0.0000000000000000000, 2.480315000000000047 ) ) ;
#207 = CIRCLE ( 'NONE', #131, 0.1424804999999990940 ) ;
#208 = MECHANICAL_DESIGN_GEOMETRIC_PRESENTATION_REPRESENTATION (  '', ( #17 ), #77 ) ;
#209 = SURFACE_SIDE_STYLE ('',( #228 ) ) ;
#210 = DIRECTION ( 'NONE',  ( -1.224646799147353207E-16, -0.0000000000000000000, -1.000000000000000000 ) ) ;
#211 =( NAMED_UNIT ( * ) SI_UNIT ( $, .STERADIAN. ) SOLID_ANGLE_UNIT ( ) );
#212 = VERTEX_POINT ( 'NONE', #163 ) ;
#213 = DIRECTION ( 'NONE',  ( 0.0000000000000000000, 0.0000000000000000000, 1.000000000000000000 ) ) ;
#214 = CARTESIAN_POINT ( 'NONE',  ( -0.1573230194999999110, 1.927615612579982019E-17, 0.8661419999999999675 ) ) ;
#215 = EDGE_CURVE ( 'NONE', #227, #167, #22, .T. ) ;
#216 = DIRECTION ( 'NONE',  ( 1.224646799147353207E-16, 0.0000000000000000000, 1.000000000000000000 ) ) ;
#217 = PLANE ( 'NONE',  #153 ) ;
#218 = CIRCLE ( 'NONE', #88, 0.1573230194999999942 ) ;
#219 = FACE_OUTER_BOUND ( 'NONE', #274, .T. ) ;
#220 = CARTESIAN_POINT ( 'NONE',  ( 0.0000000000000000000, 0.0000000000000000000, 0.0000000000000000000 ) ) ;
#221 = VERTEX_POINT ( 'NONE', #296 ) ;
#222 = VECTOR ( 'NONE', #350, 39.37007874015748143 ) ;
#223 = ORIENTED_EDGE ( 'NONE', *, *, #119, .T. ) ;
#224 = DIRECTION ( 'NONE',  ( 1.224646799147353207E-16, 0.0000000000000000000, 1.000000000000000000 ) ) ;
#225 = PRODUCT_DEFINITION_SHAPE ( 'NONE', 'NONE',  #3 ) ;
#226 = DIRECTION ( 'NONE',  ( 1.000000000000000000, 0.0000000000000000000, -0.0000000000000000000 ) ) ;
#227 = VERTEX_POINT ( 'NONE', #164 ) ;
#228 = SURFACE_STYLE_FILL_AREA ( #261 ) ;
#229 = AXIS2_PLACEMENT_3D ( 'NONE', #80, #268, #45 ) ;
#230 = DIRECTION ( 'NONE',  ( 1.000000000000000000, 0.0000000000000000000, 0.0000000000000000000 ) ) ;
#231 = ORIENTED_EDGE ( 'NONE', *, *, #168, .F. ) ;
#232 = UNCERTAINTY_MEASURE_WITH_UNIT (LENGTH_MEASURE( 1.000000000000000082E-05 ), #335, 'distance_accuracy_value', 'NONE');
#233 = DIRECTION ( 'NONE',  ( -0.0000000000000000000, -0.0000000000000000000, -1.000000000000000000 ) ) ;
#234 = ORIENTED_EDGE ( 'NONE', *, *, #36, .T. ) ;
#235 = DIRECTION ( 'NONE',  ( 0.0000000000000000000, -1.000000000000000000, 0.0000000000000000000 ) ) ;
#236 = EDGE_LOOP ( 'NONE', ( #135, #124, #254, #308 ) ) ;
#237 = DIRECTION ( 'NONE',  ( 1.000000000000000000, 0.0000000000000000000, 0.0000000000000000000 ) ) ;
#238 = VECTOR ( 'NONE', #187, 39.37007874015748854 ) ;
#239 = AXIS2_PLACEMENT_3D ( 'NONE', #105, #202, #64 ) ;
#240 = CARTESIAN_POINT ( 'NONE',  ( 0.1424804999999990940, 1.744882882659133128E-17, 2.480315000000000047 ) ) ;
#241 = DIRECTION ( 'NONE',  ( -1.224646799147353207E-16, -0.0000000000000000000, -1.000000000000000000 ) ) ;
#242 = CARTESIAN_POINT ( 'NONE',  ( 0.1573230195000001053, 0.0000000000000000000, 0.8661419999999999675 ) ) ;
#243 = AXIS2_PLACEMENT_3D ( 'NONE', #83, #85, #329 ) ;
#244 = DIMENSIONAL_EXPONENTS ( 1.000000000000000000, 0.0000000000000000000, 0.0000000000000000000, 0.0000000000000000000, 0.0000000000000000000, 0.0000000000000000000, 0.0000000000000000000 ) ;
#245 = EDGE_CURVE ( 'NONE', #227, #284, #271, .T. ) ;
#246 = CARTESIAN_POINT ( 'NONE',  ( 0.0000000000000000000, 0.0000000000000000000, 2.480315000000000047 ) ) ;
#247 = CARTESIAN_POINT ( 'NONE',  ( 0.1574805000000000788, 1.928579902531248645E-17, 0.8670351162965941327 ) ) ;
#248 = DIRECTION ( 'NONE',  ( 1.000000000000000000, 0.0000000000000000000, 0.0000000000000000000 ) ) ;
#249 = ORIENTED_EDGE ( 'NONE', *, *, #40, .F. ) ;
#250 = PLANE ( 'NONE',  #190 ) ;
#251 = AXIS2_PLACEMENT_3D ( 'NONE', #220, #300, #253 ) ;
#252 = ADVANCED_FACE ( 'NONE', ( #219 ), #43, .T. ) ;
#253 = DIRECTION ( 'NONE',  ( -1.000000000000000000, 0.0000000000000000000, 1.224646799147353454E-16 ) ) ;
#254 = ORIENTED_EDGE ( 'NONE', *, *, #269, .F. ) ;
#255 = LENGTH_MEASURE_WITH_UNIT ( LENGTH_MEASURE( 0.02539999999999999897 ), #183 );
#256 = EDGE_LOOP ( 'NONE', ( #11, #34 ) ) ;
#257 = APPLICATION_PROTOCOL_DEFINITION ( 'draft international standard', 'automotive_design', 1998, #98 ) ;
#258 = EDGE_CURVE ( 'NONE', #284, #65, #200, .T. ) ;
#259 = ORIENTED_EDGE ( 'NONE', *, *, #119, .F. ) ;
#260 = ADVANCED_FACE ( 'NONE', ( #273 ), #117, .T. ) ;
#261 = FILL_AREA_STYLE ('',( #205 ) ) ;
#262 = DIRECTION ( 'NONE',  ( -0.7071067811865627828, 0.0000000000000000000, -0.7071067811865321406 ) ) ;
#263 = DIRECTION ( 'NONE',  ( -1.000000000000000000, 0.0000000000000000000, 0.0000000000000000000 ) ) ;
#264 = ORIENTED_EDGE ( 'NONE', *, *, #60, .F. ) ;
#265 = AXIS2_PLACEMENT_3D ( 'NONE', #206, #287, #263 ) ;
#266 = VERTEX_POINT ( 'NONE', #150 ) ;
#267 = ADVANCED_FACE ( 'NONE', ( #166 ), #285, .T. ) ;
#268 = DIRECTION ( 'NONE',  ( 0.0000000000000000000, 0.0000000000000000000, -1.000000000000000000 ) ) ;
#269 = EDGE_CURVE ( 'NONE', #65, #284, #185, .T. ) ;
#270 = DIRECTION ( 'NONE',  ( 1.000000000000000000, 0.0000000000000000000, 0.0000000000000000000 ) ) ;
#271 = LINE ( 'NONE', #242, #222 ) ;
#272 = CARTESIAN_POINT ( 'NONE',  ( 0.0000000000000000000, 0.0000000000000000000, 2.480315000000000047 ) ) ;
#273 = FACE_OUTER_BOUND ( 'NONE', #198, .T. ) ;
#274 = EDGE_LOOP ( 'NONE', ( #314, #331, #310, #249 ) ) ;
#275 = SURFACE_SIDE_STYLE ('',( #56 ) ) ;
#276 = ORIENTED_EDGE ( 'NONE', *, *, #318, .T. ) ;
#277 = ADVANCED_FACE ( 'NONE', ( #37 ), #169, .T. ) ;
#278 = DIRECTION ( 'NONE',  ( 0.0000000000000000000, 0.0000000000000000000, 1.000000000000000000 ) ) ;
#279 = PRODUCT ( 'Micro_AECM-0810-2', 'Micro_AECM-0810-2', '', ( #10 ) ) ;
#280 = AXIS2_PLACEMENT_3D ( 'NONE', #196, #224, #114 ) ;
#281 = LENGTH_MEASURE_WITH_UNIT ( LENGTH_MEASURE( 0.02539999999999999897 ), #197 );
#282 = DIRECTION ( 'NONE',  ( 0.0000000000000000000, 0.0000000000000000000, -1.000000000000000000 ) ) ;
#283 = EDGE_CURVE ( 'NONE', #266, #284, #147, .T. ) ;
#284 = VERTEX_POINT ( 'NONE', #247 ) ;
#285 = CONICAL_SURFACE ( 'NONE', #96, 0.1424804999999990940, 0.7853981633974699283 ) ;
#286 = ORIENTED_EDGE ( 'NONE', *, *, #283, .F. ) ;
#287 = DIRECTION ( 'NONE',  ( -0.0000000000000000000, -0.0000000000000000000, -1.000000000000000000 ) ) ;
#288 = VERTEX_POINT ( 'NONE', #59 ) ;
#289 = LINE ( 'NONE', #72, #334 ) ;
#290 = AXIS2_PLACEMENT_3D ( 'NONE', #155, #12, #128 ) ;
#291 = CARTESIAN_POINT ( 'NONE',  ( -0.1424804999999990940, 0.0000000000000000000, 2.480315000000000047 ) ) ;
#292 = ADVANCED_FACE ( 'NONE', ( #145 ), #250, .T. ) ;
#293 = CARTESIAN_POINT ( 'NONE',  ( -0.1574804999999998845, 0.0000000000000000000, 0.8670351162965941327 ) ) ;
#294 = DIRECTION ( 'NONE',  ( -0.0000000000000000000, -0.0000000000000000000, -1.000000000000000000 ) ) ;
#295 = CIRCLE ( 'NONE', #87, 0.1179530194999999920 ) ;
#296 = CARTESIAN_POINT ( 'NONE',  ( -0.1573230194999999942, 0.0000000000000000000, 0.03937000000000000915 ) ) ;
#297 = ADVANCED_FACE ( 'NONE', ( #7 ), #118, .T. ) ;
#298 = APPLICATION_CONTEXT ( 'automotive_design' ) ;
#299 = CARTESIAN_POINT ( 'NONE',  ( 4.821434448243129254E-18, 0.0000000000000000000, 0.03937000000000000222 ) ) ;
#300 = DIRECTION ( 'NONE',  ( -1.224646799147353207E-16, -0.0000000000000000000, -1.000000000000000000 ) ) ;
#301 = AXIS2_PLACEMENT_3D ( 'NONE', #299, #57, #120 ) ;
#302 = FILL_AREA_STYLE ('',( #93 ) ) ;
#303 = ORIENTED_EDGE ( 'NONE', *, *, #13, .F. ) ;
#304 = DIRECTION ( 'NONE',  ( -1.000000000000000000, 0.0000000000000000000, 0.0000000000000000000 ) ) ;
#305 = ORIENTED_EDGE ( 'NONE', *, *, #90, .F. ) ;
#306 = AXIS2_PLACEMENT_3D ( 'NONE', #272, #213, #26 ) ;
#307 =( NAMED_UNIT ( * ) PLANE_ANGLE_UNIT ( ) SI_UNIT ( $, .RADIAN. ) );
#308 = ORIENTED_EDGE ( 'NONE', *, *, #52, .F. ) ;
#309 =( NAMED_UNIT ( * ) PLANE_ANGLE_UNIT ( ) SI_UNIT ( $, .RADIAN. ) );
#310 = ORIENTED_EDGE ( 'NONE', *, *, #36, .F. ) ;
#311 = ORIENTED_EDGE ( 'NONE', *, *, #29, .F. ) ;
#312 = CIRCLE ( 'NONE', #149, 0.1574804999999999955 ) ;
#313 = PRESENTATION_STYLE_ASSIGNMENT (( #74 ) ) ;
#314 = ORIENTED_EDGE ( 'NONE', *, *, #123, .F. ) ;
#315 = DIRECTION ( 'NONE',  ( 0.0000000000000000000, 0.0000000000000000000, -1.000000000000000000 ) ) ;
#316 = DIRECTION ( 'NONE',  ( 0.0000000000000000000, 0.0000000000000000000, 1.000000000000000000 ) ) ;
#317 = ADVANCED_FACE ( 'NONE', ( #113 ), #84, .T. ) ;
#318 = EDGE_CURVE ( 'NONE', #221, #159, #218, .T. ) ;
#319 = CARTESIAN_POINT ( 'NONE',  ( 4.821434448243129254E-18, 0.0000000000000000000, 0.0000000000000000000 ) ) ;
#320 = DIRECTION ( 'NONE',  ( -0.1736481776669311639, 2.126576849575783008E-17, 0.9848077530122080203 ) ) ;
#321 = MANIFOLD_SOLID_BREP ( 'Fillet1', #142 ) ;
#322 = DIRECTION ( 'NONE',  ( -1.224646799147353207E-16, -0.0000000000000000000, -1.000000000000000000 ) ) ;
#323 = AXIS2_PLACEMENT_3D ( 'NONE', #42, #235, #315 ) ;
#324 = MECHANICAL_DESIGN_GEOMETRIC_PRESENTATION_REPRESENTATION (  '', ( #348 ), #28 ) ;
#325 = DIRECTION ( 'NONE',  ( -1.224646799147353207E-16, -0.0000000000000000000, -1.000000000000000000 ) ) ;
#326 = EDGE_CURVE ( 'NONE', #146, #266, #312, .T. ) ;
#327 = DIRECTION ( 'NONE',  ( 1.000000000000000000, 0.0000000000000000000, 0.0000000000000000000 ) ) ;
#328 = VECTOR ( 'NONE', #89, 39.37007874015748143 ) ;
#329 = DIRECTION ( 'NONE',  ( 1.000000000000000000, 0.0000000000000000000, 0.0000000000000000000 ) ) ;
#330 = UNCERTAINTY_MEASURE_WITH_UNIT (LENGTH_MEASURE( 1.000000000000000082E-05 ), #175, 'distance_accuracy_value', 'NONE');
#331 = ORIENTED_EDGE ( 'NONE', *, *, #345, .T. ) ;
#332 = CARTESIAN_POINT ( 'NONE',  ( 4.821434448243130025E-18, 0.0000000000000000000, 0.03937000000000000915 ) ) ;
#333 = DIRECTION ( 'NONE',  ( 0.0000000000000000000, 0.0000000000000000000, 1.000000000000000000 ) ) ;
#334 = VECTOR ( 'NONE', #233, 39.37007874015748143 ) ;
#335 =( CONVERSION_BASED_UNIT ( 'INCH', #255 ) LENGTH_UNIT ( ) NAMED_UNIT ( #49 ) );
#336 = ORIENTED_EDGE ( 'NONE', *, *, #345, .F. ) ;
#337 = CARTESIAN_POINT ( 'NONE',  ( -0.1179530194999999920, 1.444507877804403085E-17, 0.03937000000000000222 ) ) ;
#338 = FACE_OUTER_BOUND ( 'NONE', #236, .T. ) ;
#339 = DIRECTION ( 'NONE',  ( 0.0000000000000000000, 0.0000000000000000000, -1.000000000000000000 ) ) ;
#340 = AXIS2_PLACEMENT_3D ( 'NONE', #140, #241, #112 ) ;
#341 = LINE ( 'NONE', #104, #125 ) ;
#342 = COLOUR_RGB ( '',0.7921568627450980005, 0.8196078431372548767, 0.9333333333333333481 ) ;
#343 = ORIENTED_EDGE ( 'NONE', *, *, #68, .F. ) ;
#344 = ORIENTED_EDGE ( 'NONE', *, *, #60, .T. ) ;
#345 = EDGE_CURVE ( 'NONE', #127, #221, #97, .T. ) ;
#346 = CARTESIAN_POINT ( 'NONE',  ( -0.1179530194999999920, 1.685579600216560010E-17, 0.0000000000000000000 ) ) ;
#347 = VECTOR ( 'NONE', #130, 39.37007874015748143 ) ;
#348 = STYLED_ITEM ( 'NONE', ( #115 ), #321 ) ;
#349 = CARTESIAN_POINT ( 'NONE',  ( 1.060718027907086782E-16, 0.0000000000000000000, 0.8661419999999999675 ) ) ;
#350 = DIRECTION ( 'NONE',  ( 0.1736481776669313581, 0.0000000000000000000, 0.9848077530122077983 ) ) ;
#351 = CONICAL_SURFACE ( 'NONE', #27, 0.1573230194999999942, 0.1745329251994338637 ) ;
ENDSEC;
END-ISO-10303-21;
