ISO-10303-21;
HEADER;
FILE_DESCRIPTION (( 'STEP AP214' ),
    '1' );
FILE_NAME ('Micro_SBMM-080-424X.STEP',
    '2021-09-02T17:18:45',
    ( '' ),
    ( '' ),
    'SwSTEP 2.0',
    'SolidWorks 2020',
    '' );
FILE_SCHEMA (( 'AUTOMOTIVE_DESIGN' ));
ENDSEC;

DATA;
#1 = ORIENTED_EDGE ( 'NONE', *, *, #45, .F. ) ;
#2 = CARTESIAN_POINT ( 'NONE',  ( -0.1574804999999999955, 0.0000000000000000000, 1.535432999999999826 ) ) ;
#3 = VERTEX_POINT ( 'NONE', #334 ) ;
#4 = SURFACE_STYLE_FILL_AREA ( #228 ) ;
#5 = EDGE_CURVE ( 'NONE', #56, #80, #16, .T. ) ;
#6 = ORIENTED_EDGE ( 'NONE', *, *, #71, .T. ) ;
#7 = EDGE_CURVE ( 'NONE', #139, #322, #174, .T. ) ;
#8 = ORIENTED_EDGE ( 'NONE', *, *, #63, .F. ) ;
#9 = FACE_OUTER_BOUND ( 'NONE', #323, .T. ) ;
#10 = CIRCLE ( 'NONE', #117, 0.1424805000000004540 ) ;
#11 = DIRECTION ( 'NONE',  ( 1.000000000000000000, 1.224646799147353207E-16, -0.0000000000000000000 ) ) ;
#12 = EDGE_CURVE ( 'NONE', #91, #109, #64, .T. ) ;
#13 = APPLICATION_PROTOCOL_DEFINITION ( 'draft international standard', 'automotive_design', 1998, #177 ) ;
#14 = DIRECTION ( 'NONE',  ( -1.224646799147352961E-16, 1.000000000000000000, 0.0000000000000000000 ) ) ;
#15 = PLANE ( 'NONE',  #176 ) ;
#16 = LINE ( 'NONE', #282, #110 ) ;
#17 = EDGE_CURVE ( 'NONE', #136, #317, #302, .T. ) ;
#18 = SURFACE_STYLE_FILL_AREA ( #180 ) ;
#19 =( CONVERSION_BASED_UNIT ( 'INCH', #150 ) LENGTH_UNIT ( ) NAMED_UNIT ( #294 ) );
#20 = DIRECTION ( 'NONE',  ( 0.0000000000000000000, 0.0000000000000000000, -1.000000000000000000 ) ) ;
#21 = DIRECTION ( 'NONE',  ( 0.0000000000000000000, 0.0000000000000000000, 1.000000000000000000 ) ) ;
#22 = ADVANCED_FACE ( 'NONE', ( #276 ), #287, .T. ) ;
#23 = CIRCLE ( 'NONE', #123, 0.1062989999999998797 ) ;
#24 = DIRECTION ( 'NONE',  ( -1.000000000000000000, 0.0000000000000000000, 0.0000000000000000000 ) ) ;
#25 = APPLICATION_CONTEXT ( 'automotive_design' ) ;
#26 = CARTESIAN_POINT ( 'NONE',  ( 0.0000000000000000000, 0.0000000000000000000, 3.922008000000000827 ) ) ;
#27 = VECTOR ( 'NONE', #131, 39.37007874015748143 ) ;
#28 = ORIENTED_EDGE ( 'NONE', *, *, #316, .F. ) ;
#29 = FACE_OUTER_BOUND ( 'NONE', #164, .T. ) ;
#30 = ORIENTED_EDGE ( 'NONE', *, *, #152, .T. ) ;
#31 = AXIS2_PLACEMENT_3D ( 'NONE', #103, #210, #261 ) ;
#32 = DIMENSIONAL_EXPONENTS ( 1.000000000000000000, 0.0000000000000000000, 0.0000000000000000000, 0.0000000000000000000, 0.0000000000000000000, 0.0000000000000000000, 0.0000000000000000000 ) ;
#33 = ORIENTED_EDGE ( 'NONE', *, *, #161, .T. ) ;
#34 = CARTESIAN_POINT ( 'NONE',  ( 0.0000000000000000000, 0.0000000000000000000, 0.2736715358320045977 ) ) ;
#35 = ORIENTED_EDGE ( 'NONE', *, *, #316, .T. ) ;
#36 = CARTESIAN_POINT ( 'NONE',  ( 0.0000000000000000000, 0.0000000000000000000, 1.535432999999999826 ) ) ;
#37 = FACE_OUTER_BOUND ( 'NONE', #170, .T. ) ;
#38 = DIRECTION ( 'NONE',  ( 0.0000000000000000000, 0.0000000000000000000, 1.000000000000000000 ) ) ;
#39 = DIRECTION ( 'NONE',  ( 1.000000000000000000, 0.0000000000000000000, 0.0000000000000000000 ) ) ;
#40 = DIRECTION ( 'NONE',  ( -0.0000000000000000000, -0.0000000000000000000, -1.000000000000000000 ) ) ;
#41 = CARTESIAN_POINT ( 'NONE',  ( -0.1574804999999999955, 0.0000000000000000000, 3.922008000000000827 ) ) ;
#42 =( NAMED_UNIT ( * ) SI_UNIT ( $, .STERADIAN. ) SOLID_ANGLE_UNIT ( ) );
#43 = LENGTH_MEASURE_WITH_UNIT ( LENGTH_MEASURE( 0.02539999999999999897 ), #178 );
#44 = DIRECTION ( 'NONE',  ( -1.000000000000000000, 0.0000000000000000000, 0.0000000000000000000 ) ) ;
#45 = EDGE_CURVE ( 'NONE', #109, #139, #205, .T. ) ;
#46 = DIRECTION ( 'NONE',  ( -0.0000000000000000000, -0.0000000000000000000, -1.000000000000000000 ) ) ;
#47 = DIRECTION ( 'NONE',  ( 1.000000000000000000, 0.0000000000000000000, 0.0000000000000000000 ) ) ;
#48 = CONICAL_SURFACE ( 'NONE', #258, 0.1732285499999997036, 0.08645134638073882771 ) ;
#49 = DIRECTION ( 'NONE',  ( 1.000000000000000000, 0.0000000000000000000, 0.0000000000000000000 ) ) ;
#50 = EDGE_CURVE ( 'NONE', #179, #56, #68, .T. ) ;
#51 = CYLINDRICAL_SURFACE ( 'NONE', #224, 0.1062989999999999352 ) ;
#52 = COLOUR_RGB ( '',0.7921568627450980005, 0.8196078431372548767, 0.9333333333333333481 ) ;
#53 = ORIENTED_EDGE ( 'NONE', *, *, #221, .T. ) ;
#54 = MANIFOLD_SOLID_BREP ( 'Cut-Revolve3', #106 ) ;
#55 = ORIENTED_EDGE ( 'NONE', *, *, #289, .F. ) ;
#56 = VERTEX_POINT ( 'NONE', #41 ) ;
#57 = LINE ( 'NONE', #92, #78 ) ;
#58 = AXIS2_PLACEMENT_3D ( 'NONE', #26, #105, #315 ) ;
#59 = ORIENTED_EDGE ( 'NONE', *, *, #5, .F. ) ;
#60 = ADVANCED_BREP_SHAPE_REPRESENTATION ( 'Micro_SBMM-080-424X', ( #54, #259 ), #186 ) ;
#61 = ORIENTED_EDGE ( 'NONE', *, *, #17, .F. ) ;
#62 = DIRECTION ( 'NONE',  ( 0.0000000000000000000, 0.0000000000000000000, 1.000000000000000000 ) ) ;
#63 = EDGE_CURVE ( 'NONE', #215, #136, #254, .T. ) ;
#64 = LINE ( 'NONE', #125, #153 ) ;
#65 = SPHERICAL_SURFACE ( 'NONE', #82, 0.1574799999999999811 ) ;
#66 = CIRCLE ( 'NONE', #157, 0.1424805000000004540 ) ;
#67 = CIRCLE ( 'NONE', #253, 0.1574804999999999955 ) ;
#68 = LINE ( 'NONE', #204, #268 ) ;
#69 = ADVANCED_FACE ( 'NONE', ( #37 ), #145, .T. ) ;
#70 = DIRECTION ( 'NONE',  ( 0.0000000000000000000, 0.0000000000000000000, 1.000000000000000000 ) ) ;
#71 = EDGE_CURVE ( 'NONE', #91, #191, #23, .T. ) ;
#72 = CIRCLE ( 'NONE', #314, 0.1062989999999999768 ) ;
#73 = CARTESIAN_POINT ( 'NONE',  ( 0.1424805000000004540, 1.744882882659150076E-17, 3.937007999999999619 ) ) ;
#74 = CARTESIAN_POINT ( 'NONE',  ( 1.301787301025644282E-17, -0.1062989999999999491, 0.2736715358320045977 ) ) ;
#75 = CARTESIAN_POINT ( 'NONE',  ( 0.1574804999999999955, 1.928579902531247412E-17, 3.922008000000000827 ) ) ;
#76 = CYLINDRICAL_SURFACE ( 'NONE', #337, 0.1574804999999999955 ) ;
#77 =( GEOMETRIC_REPRESENTATION_CONTEXT ( 3 ) GLOBAL_UNCERTAINTY_ASSIGNED_CONTEXT ( ( #209 ) ) GLOBAL_UNIT_ASSIGNED_CONTEXT ( ( #307, #229, #122 ) ) REPRESENTATION_CONTEXT ( 'NONE', 'WORKASPACE' ) );
#78 = VECTOR ( 'NONE', #250, 39.37007874015748143 ) ;
#79 = CARTESIAN_POINT ( 'NONE',  ( 0.1424805000000004540, 1.836731392595198898E-17, 3.937007999999999619 ) ) ;
#80 = VERTEX_POINT ( 'NONE', #2 ) ;
#81 = VECTOR ( 'NONE', #330, 39.37007874015748143 ) ;
#82 = AXIS2_PLACEMENT_3D ( 'NONE', #331, #192, #267 ) ;
#83 = DIRECTION ( 'NONE',  ( 1.000000000000000000, 0.0000000000000000000, 0.0000000000000000000 ) ) ;
#84 = ORIENTED_EDGE ( 'NONE', *, *, #7, .T. ) ;
#85 = CARTESIAN_POINT ( 'NONE',  ( 0.0000000000000000000, 0.0000000000000000000, 0.9448819999999999997 ) ) ;
#86 = EDGE_LOOP ( 'NONE', ( #114, #33 ) ) ;
#87 = DIRECTION ( 'NONE',  ( -1.000000000000000000, 0.0000000000000000000, 0.0000000000000000000 ) ) ;
#88 = STYLED_ITEM ( 'NONE', ( #199 ), #60 ) ;
#89 = ORIENTED_EDGE ( 'NONE', *, *, #284, .F. ) ;
#90 = EDGE_CURVE ( 'NONE', #3, #322, #318, .T. ) ;
#91 = VERTEX_POINT ( 'NONE', #241 ) ;
#92 = CARTESIAN_POINT ( 'NONE',  ( -0.1062989999999999352, 0.0000000000000000000, 0.0000000000000000000 ) ) ;
#93 = SURFACE_SIDE_STYLE ('',( #18 ) ) ;
#94 = ADVANCED_FACE ( 'NONE', ( #343 ), #51, .T. ) ;
#95 = PRESENTATION_STYLE_ASSIGNMENT (( #151 ) ) ;
#96 = DIRECTION ( 'NONE',  ( -1.000000000000000000, 0.0000000000000000000, 0.0000000000000000000 ) ) ;
#97 =( LENGTH_UNIT ( ) NAMED_UNIT ( * ) SI_UNIT ( $, .METRE. ) );
#98 = CONICAL_SURFACE ( 'NONE', #242, 0.1424805000000004540, 0.7853981633974608245 ) ;
#99 = DIRECTION ( 'NONE',  ( 0.0000000000000000000, 0.0000000000000000000, -1.000000000000000000 ) ) ;
#100 = PRESENTATION_LAYER_ASSIGNMENT (  '', '', ( #88 ) ) ;
#101 = PRODUCT_CONTEXT ( 'NONE', #177, 'mechanical' ) ;
#102 = DIRECTION ( 'NONE',  ( -1.000000000000000000, 0.0000000000000000000, 0.0000000000000000000 ) ) ;
#103 = CARTESIAN_POINT ( 'NONE',  ( 0.0000000000000000000, 0.0000000000000000000, 1.535432999999999826 ) ) ;
#104 = ADVANCED_FACE ( 'NONE', ( #342 ), #217, .T. ) ;
#105 = DIRECTION ( 'NONE',  ( 0.0000000000000000000, 0.0000000000000000000, -1.000000000000000000 ) ) ;
#106 = CLOSED_SHELL ( 'NONE', ( #104, #291, #22, #132, #115, #69, #218, #182, #120, #281, #94 ) ) ;
#107 = VECTOR ( 'NONE', #194, 39.37007874015748143 ) ;
#108 = PRODUCT_DEFINITION ( 'UNKNOWN', '', #196, #237 ) ;
#109 = VERTEX_POINT ( 'NONE', #260 ) ;
#110 = VECTOR ( 'NONE', #328, 39.37007874015748143 ) ;
#111 = DIRECTION ( 'NONE',  ( -1.000000000000000000, 0.0000000000000000000, 0.0000000000000000000 ) ) ;
#112 = ORIENTED_EDGE ( 'NONE', *, *, #284, .T. ) ;
#113 = DIRECTION ( 'NONE',  ( 0.0000000000000000000, 0.0000000000000000000, -1.000000000000000000 ) ) ;
#114 = ORIENTED_EDGE ( 'NONE', *, *, #128, .T. ) ;
#115 = ADVANCED_FACE ( 'NONE', ( #312 ), #76, .T. ) ;
#116 = VERTEX_POINT ( 'NONE', #208 ) ;
#117 = AXIS2_PLACEMENT_3D ( 'NONE', #288, #156, #49 ) ;
#118 = DIRECTION ( 'NONE',  ( -1.000000000000000000, 0.0000000000000000000, 0.0000000000000000000 ) ) ;
#119 = FILL_AREA_STYLE_COLOUR ( '', #263 ) ;
#120 = ADVANCED_FACE ( 'NONE', ( #29 ), #48, .T. ) ;
#121 =( LENGTH_UNIT ( ) NAMED_UNIT ( * ) SI_UNIT ( $, .METRE. ) );
#122 =( NAMED_UNIT ( * ) SI_UNIT ( $, .STERADIAN. ) SOLID_ANGLE_UNIT ( ) );
#123 = AXIS2_PLACEMENT_3D ( 'NONE', #311, #158, #102 ) ;
#124 = AXIS2_PLACEMENT_3D ( 'NONE', #36, #38, #271 ) ;
#125 = CARTESIAN_POINT ( 'NONE',  ( 0.1062989999999999352, 1.301787301025644282E-17, 0.0000000000000000000 ) ) ;
#126 = DIRECTION ( 'NONE',  ( 0.7071067811865563435, 8.659560562355041327E-17, -0.7071067811865386910 ) ) ;
#127 = CARTESIAN_POINT ( 'NONE',  ( 0.0000000000000000000, 0.0000000000000000000, 3.937007999999999619 ) ) ;
#128 = EDGE_CURVE ( 'NONE', #179, #215, #66, .T. ) ;
#129 = VECTOR ( 'NONE', #126, 39.37007874015748143 ) ;
#130 = DIRECTION ( 'NONE',  ( -0.0000000000000000000, -0.0000000000000000000, -1.000000000000000000 ) ) ;
#131 = DIRECTION ( 'NONE',  ( -0.08634369942813718835, 1.057405351312093567E-17, 0.9962654092003110362 ) ) ;
#132 = ADVANCED_FACE ( 'NONE', ( #255 ), #332, .T. ) ;
#133 = CARTESIAN_POINT ( 'NONE',  ( 0.0000000000000000000, 0.0000000000000000000, 0.2736715358320045977 ) ) ;
#134 = AXIS2_PLACEMENT_3D ( 'NONE', #231, #279, #96 ) ;
#135 = EDGE_CURVE ( 'NONE', #191, #80, #283, .T. ) ;
#136 = VERTEX_POINT ( 'NONE', #75 ) ;
#137 = ORIENTED_EDGE ( 'NONE', *, *, #161, .F. ) ;
#138 = DIRECTION ( 'NONE',  ( 0.0000000000000000000, 0.0000000000000000000, 1.000000000000000000 ) ) ;
#139 = VERTEX_POINT ( 'NONE', #74 ) ;
#140 = AXIS2_PLACEMENT_3D ( 'NONE', #290, #111, #21 ) ;
#141 = EDGE_LOOP ( 'NONE', ( #137, #345, #251, #246 ) ) ;
#142 = CARTESIAN_POINT ( 'NONE',  ( 0.0000000000000000000, 9.642868896486256968E-18, 3.414809992080329023E-17 ) ) ;
#143 = ORIENTED_EDGE ( 'NONE', *, *, #310, .F. ) ;
#144 = DIRECTION ( 'NONE',  ( 1.000000000000000000, 0.0000000000000000000, 0.0000000000000000000 ) ) ;
#145 = CYLINDRICAL_SURFACE ( 'NONE', #277, 0.1574804999999999955 ) ;
#146 = DIRECTION ( 'NONE',  ( -1.000000000000000000, 0.0000000000000000000, 0.0000000000000000000 ) ) ;
#147 = ORIENTED_EDGE ( 'NONE', *, *, #289, .T. ) ;
#148 = CARTESIAN_POINT ( 'NONE',  ( 0.0000000000000000000, 0.0000000000000000000, 0.1574800000000000089 ) ) ;
#149 = CARTESIAN_POINT ( 'NONE',  ( 0.0000000000000000000, 0.0000000000000000000, 3.937007999999999619 ) ) ;
#150 = LENGTH_MEASURE_WITH_UNIT ( LENGTH_MEASURE( 0.02539999999999999897 ), #97 );
#151 = SURFACE_STYLE_USAGE ( .BOTH. , #93 ) ;
#152 = EDGE_CURVE ( 'NONE', #3, #109, #72, .T. ) ;
#153 = VECTOR ( 'NONE', #200, 39.37007874015748143 ) ;
#154 = CARTESIAN_POINT ( 'NONE',  ( 0.0000000000000000000, 0.0000000000000000000, 0.2736715358320045977 ) ) ;
#155 = DIRECTION ( 'NONE',  ( 1.000000000000000000, 0.0000000000000000000, 0.0000000000000000000 ) ) ;
#156 = DIRECTION ( 'NONE',  ( 0.0000000000000000000, 0.0000000000000000000, 1.000000000000000000 ) ) ;
#157 = AXIS2_PLACEMENT_3D ( 'NONE', #206, #238, #47 ) ;
#158 = DIRECTION ( 'NONE',  ( -0.0000000000000000000, -0.0000000000000000000, -1.000000000000000000 ) ) ;
#159 = UNCERTAINTY_MEASURE_WITH_UNIT (LENGTH_MEASURE( 1.000000000000000082E-05 ), #19, 'distance_accuracy_value', 'NONE');
#160 = CARTESIAN_POINT ( 'NONE',  ( 0.0000000000000000000, 0.0000000000000000000, 1.717139801784820952 ) ) ;
#161 = EDGE_CURVE ( 'NONE', #215, #179, #10, .T. ) ;
#162 = PRODUCT ( 'Micro_SBMM-080-424X', 'Micro_SBMM-080-424X', '', ( #101 ) ) ;
#163 = CIRCLE ( 'NONE', #248, 0.1062989999999999768 ) ;
#164 = EDGE_LOOP ( 'NONE', ( #272, #266, #53, #214 ) ) ;
#165 = CARTESIAN_POINT ( 'NONE',  ( 0.0000000000000000000, 0.0000000000000000000, 0.0000000000000000000 ) ) ;
#166 = ORIENTED_EDGE ( 'NONE', *, *, #310, .T. ) ;
#167 = CARTESIAN_POINT ( 'NONE',  ( 0.1574804999999999955, 1.928579902531247412E-17, 1.535432999999999826 ) ) ;
#168 = EDGE_CURVE ( 'NONE', #139, #116, #163, .T. ) ;
#169 = LINE ( 'NONE', #175, #107 ) ;
#170 = EDGE_LOOP ( 'NONE', ( #61, #112, #219, #274 ) ) ;
#171 =( NAMED_UNIT ( * ) SI_UNIT ( $, .STERADIAN. ) SOLID_ANGLE_UNIT ( ) );
#172 = EDGE_LOOP ( 'NONE', ( #326, #301, #230, #59 ) ) ;
#173 = CARTESIAN_POINT ( 'NONE',  ( 0.1574804999999999955, 1.928579902531247412E-17, 3.937007999999999619 ) ) ;
#174 = CIRCLE ( 'NONE', #234, 0.1574799999999999811 ) ;
#175 = CARTESIAN_POINT ( 'NONE',  ( 0.1732285499999997036, 0.0000000000000000000, 1.717139801784820952 ) ) ;
#176 = AXIS2_PLACEMENT_3D ( 'NONE', #225, #62, #303 ) ;
#177 = APPLICATION_CONTEXT ( 'automotive_design' ) ;
#178 =( LENGTH_UNIT ( ) NAMED_UNIT ( * ) SI_UNIT ( $, .METRE. ) );
#179 = VERTEX_POINT ( 'NONE', #286 ) ;
#180 = FILL_AREA_STYLE ('',( #203 ) ) ;
#181 = FACE_OUTER_BOUND ( 'NONE', #269, .T. ) ;
#182 = ADVANCED_FACE ( 'NONE', ( #181 ), #98, .T. ) ;
#183 = DIRECTION ( 'NONE',  ( -0.0000000000000000000, -0.0000000000000000000, -1.000000000000000000 ) ) ;
#184 = CIRCLE ( 'NONE', #31, 0.1574804999999999955 ) ;
#185 = DIRECTION ( 'NONE',  ( -1.000000000000000000, 0.0000000000000000000, 0.0000000000000000000 ) ) ;
#186 =( GEOMETRIC_REPRESENTATION_CONTEXT ( 3 ) GLOBAL_UNCERTAINTY_ASSIGNED_CONTEXT ( ( #341 ) ) GLOBAL_UNIT_ASSIGNED_CONTEXT ( ( #300, #197, #171 ) ) REPRESENTATION_CONTEXT ( 'NONE', 'WORKASPACE' ) );
#187 = FACE_OUTER_BOUND ( 'NONE', #86, .T. ) ;
#188 = AXIS2_PLACEMENT_3D ( 'NONE', #304, #70, #39 ) ;
#189 = ORIENTED_EDGE ( 'NONE', *, *, #135, .T. ) ;
#190 = CIRCLE ( 'NONE', #216, 0.1062989999999998797 ) ;
#191 = VERTEX_POINT ( 'NONE', #236 ) ;
#192 = DIRECTION ( 'NONE',  ( 1.000000000000000000, 0.0000000000000000000, 0.0000000000000000000 ) ) ;
#193 = ORIENTED_EDGE ( 'NONE', *, *, #90, .F. ) ;
#194 = DIRECTION ( 'NONE',  ( 0.08634369942813718835, 0.0000000000000000000, 0.9962654092003110362 ) ) ;
#195 = EDGE_LOOP ( 'NONE', ( #55, #189, #240, #293 ) ) ;
#196 = PRODUCT_DEFINITION_FORMATION_WITH_SPECIFIED_SOURCE ( 'ANY', '', #162, .NOT_KNOWN. ) ;
#197 =( NAMED_UNIT ( * ) PLANE_ANGLE_UNIT ( ) SI_UNIT ( $, .RADIAN. ) );
#198 = ORIENTED_EDGE ( 'NONE', *, *, #128, .F. ) ;
#199 = PRESENTATION_STYLE_ASSIGNMENT (( #220 ) ) ;
#200 = DIRECTION ( 'NONE',  ( -0.0000000000000000000, -0.0000000000000000000, -1.000000000000000000 ) ) ;
#201 = AXIS2_PLACEMENT_3D ( 'NONE', #127, #20, #185 ) ;
#202 = SHAPE_DEFINITION_REPRESENTATION ( #344, #60 ) ;
#203 = FILL_AREA_STYLE_COLOUR ( '', #52 ) ;
#204 = CARTESIAN_POINT ( 'NONE',  ( -0.1424805000000004540, 0.0000000000000000000, 3.937007999999999619 ) ) ;
#205 = CIRCLE ( 'NONE', #134, 0.1062989999999999768 ) ;
#206 = CARTESIAN_POINT ( 'NONE',  ( 0.0000000000000000000, 0.0000000000000000000, 3.937007999999999619 ) ) ;
#207 = EDGE_CURVE ( 'NONE', #80, #317, #184, .T. ) ;
#208 = CARTESIAN_POINT ( 'NONE',  ( -0.1062989999999999491, 0.0000000000000000000, 0.2736715358320045977 ) ) ;
#209 = UNCERTAINTY_MEASURE_WITH_UNIT (LENGTH_MEASURE( 1.000000000000000082E-05 ), #307, 'distance_accuracy_value', 'NONE');
#210 = DIRECTION ( 'NONE',  ( 0.0000000000000000000, 0.0000000000000000000, 1.000000000000000000 ) ) ;
#211 = CIRCLE ( 'NONE', #58, 0.1574804999999999955 ) ;
#212 = DIRECTION ( 'NONE',  ( -0.0000000000000000000, -0.0000000000000000000, -1.000000000000000000 ) ) ;
#213 = EDGE_CURVE ( 'NONE', #56, #136, #211, .T. ) ;
#214 = ORIENTED_EDGE ( 'NONE', *, *, #207, .F. ) ;
#215 = VERTEX_POINT ( 'NONE', #79 ) ;
#216 = AXIS2_PLACEMENT_3D ( 'NONE', #85, #40, #87 ) ;
#217 = CYLINDRICAL_SURFACE ( 'NONE', #305, 0.1062989999999999352 ) ;
#218 = ADVANCED_FACE ( 'NONE', ( #187 ), #15, .T. ) ;
#219 = ORIENTED_EDGE ( 'NONE', *, *, #5, .T. ) ;
#220 = SURFACE_STYLE_USAGE ( .BOTH. , #329 ) ;
#221 = EDGE_CURVE ( 'NONE', #91, #317, #169, .T. ) ;
#222 = DIRECTION ( 'NONE',  ( 1.000000000000000000, 0.0000000000000000000, 0.0000000000000000000 ) ) ;
#223 = ORIENTED_EDGE ( 'NONE', *, *, #45, .T. ) ;
#224 = AXIS2_PLACEMENT_3D ( 'NONE', #257, #130, #235 ) ;
#225 = CARTESIAN_POINT ( 'NONE',  ( 0.0000000000000000000, 0.0000000000000000000, 3.937007999999999619 ) ) ;
#226 = ORIENTED_EDGE ( 'NONE', *, *, #90, .T. ) ;
#227 = PRODUCT_RELATED_PRODUCT_CATEGORY ( 'part', '', ( #162 ) ) ;
#228 = FILL_AREA_STYLE ('',( #119 ) ) ;
#229 =( NAMED_UNIT ( * ) PLANE_ANGLE_UNIT ( ) SI_UNIT ( $, .RADIAN. ) );
#230 = ORIENTED_EDGE ( 'NONE', *, *, #280, .T. ) ;
#231 = CARTESIAN_POINT ( 'NONE',  ( 0.0000000000000000000, 0.0000000000000000000, 0.2736715358320045977 ) ) ;
#232 = CARTESIAN_POINT ( 'NONE',  ( -0.1732285499999997036, 2.121437892784368764E-17, 1.717139801784820952 ) ) ;
#233 = DIRECTION ( 'NONE',  ( 0.0000000000000000000, 0.0000000000000000000, 1.000000000000000000 ) ) ;
#234 = AXIS2_PLACEMENT_3D ( 'NONE', #335, #11, #14 ) ;
#235 = DIRECTION ( 'NONE',  ( -1.000000000000000000, 0.0000000000000000000, 0.0000000000000000000 ) ) ;
#236 = CARTESIAN_POINT ( 'NONE',  ( -0.1062989999999998797, 1.615183601778445462E-17, 0.9448819999999999997 ) ) ;
#237 = PRODUCT_DEFINITION_CONTEXT ( 'detailed design', #25, 'design' ) ;
#238 = DIRECTION ( 'NONE',  ( 0.0000000000000000000, 0.0000000000000000000, 1.000000000000000000 ) ) ;
#239 = MECHANICAL_DESIGN_GEOMETRIC_PRESENTATION_REPRESENTATION (  '', ( #262 ), #77 ) ;
#240 = ORIENTED_EDGE ( 'NONE', *, *, #280, .F. ) ;
#241 = CARTESIAN_POINT ( 'NONE',  ( 0.1062989999999998797, 0.0000000000000000000, 0.9448819999999999997 ) ) ;
#242 = AXIS2_PLACEMENT_3D ( 'NONE', #285, #99, #24 ) ;
#243 = ORIENTED_EDGE ( 'NONE', *, *, #50, .T. ) ;
#244 = ORIENTED_EDGE ( 'NONE', *, *, #12, .T. ) ;
#245 = LENGTH_MEASURE_WITH_UNIT ( LENGTH_MEASURE( 0.02539999999999999897 ), #121 );
#246 = ORIENTED_EDGE ( 'NONE', *, *, #50, .F. ) ;
#247 = DIRECTION ( 'NONE',  ( -0.0000000000000000000, -0.0000000000000000000, -1.000000000000000000 ) ) ;
#248 = AXIS2_PLACEMENT_3D ( 'NONE', #154, #46, #336 ) ;
#249 = DIRECTION ( 'NONE',  ( -0.7071067811865563435, 0.0000000000000000000, -0.7071067811865386910 ) ) ;
#250 = DIRECTION ( 'NONE',  ( -0.0000000000000000000, -0.0000000000000000000, -1.000000000000000000 ) ) ;
#251 = ORIENTED_EDGE ( 'NONE', *, *, #213, .F. ) ;
#252 = EDGE_LOOP ( 'NONE', ( #320, #6, #166, #264, #1 ) ) ;
#253 = AXIS2_PLACEMENT_3D ( 'NONE', #273, #113, #144 ) ;
#254 = LINE ( 'NONE', #73, #129 ) ;
#255 = FACE_OUTER_BOUND ( 'NONE', #141, .T. ) ;
#256 = APPLICATION_PROTOCOL_DEFINITION ( 'draft international standard', 'automotive_design', 1998, #25 ) ;
#257 = CARTESIAN_POINT ( 'NONE',  ( 0.0000000000000000000, 0.0000000000000000000, 0.0000000000000000000 ) ) ;
#258 = AXIS2_PLACEMENT_3D ( 'NONE', #160, #138, #83 ) ;
#259 = AXIS2_PLACEMENT_3D ( 'NONE', #339, #233, #155 ) ;
#260 = CARTESIAN_POINT ( 'NONE',  ( 0.1062989999999999491, 1.301787301025644591E-17, 0.2736715358320045977 ) ) ;
#261 = DIRECTION ( 'NONE',  ( 1.000000000000000000, 0.0000000000000000000, 0.0000000000000000000 ) ) ;
#262 = STYLED_ITEM ( 'NONE', ( #95 ), #54 ) ;
#263 = COLOUR_RGB ( '',0.7921568627450980005, 0.8196078431372548767, 0.9333333333333333481 ) ;
#264 = ORIENTED_EDGE ( 'NONE', *, *, #168, .F. ) ;
#265 = CARTESIAN_POINT ( 'NONE',  ( 0.0000000000000000000, 0.0000000000000000000, 3.937007999999999619 ) ) ;
#266 = ORIENTED_EDGE ( 'NONE', *, *, #71, .F. ) ;
#267 = DIRECTION ( 'NONE',  ( 0.0000000000000000000, 1.000000000000000000, 0.0000000000000000000 ) ) ;
#268 = VECTOR ( 'NONE', #249, 39.37007874015748143 ) ;
#269 = EDGE_LOOP ( 'NONE', ( #8, #198, #243, #89 ) ) ;
#270 = CIRCLE ( 'NONE', #319, 0.1062989999999999768 ) ;
#271 = DIRECTION ( 'NONE',  ( 1.000000000000000000, 0.0000000000000000000, 0.0000000000000000000 ) ) ;
#272 = ORIENTED_EDGE ( 'NONE', *, *, #135, .F. ) ;
#273 = CARTESIAN_POINT ( 'NONE',  ( 0.0000000000000000000, 0.0000000000000000000, 3.922008000000000827 ) ) ;
#274 = ORIENTED_EDGE ( 'NONE', *, *, #207, .T. ) ;
#275 = DIRECTION ( 'NONE',  ( 0.0000000000000000000, 1.000000000000000000, 0.0000000000000000000 ) ) ;
#276 = FACE_OUTER_BOUND ( 'NONE', #195, .T. ) ;
#277 = AXIS2_PLACEMENT_3D ( 'NONE', #149, #247, #118 ) ;
#278 = SPHERICAL_SURFACE ( 'NONE', #299, 0.1574799999999999811 ) ;
#279 = DIRECTION ( 'NONE',  ( -0.0000000000000000000, -0.0000000000000000000, -1.000000000000000000 ) ) ;
#280 = EDGE_CURVE ( 'NONE', #317, #80, #338, .T. ) ;
#281 = ADVANCED_FACE ( 'NONE', ( #9 ), #65, .T. ) ;
#282 = CARTESIAN_POINT ( 'NONE',  ( -0.1574804999999999955, 0.0000000000000000000, 3.937007999999999619 ) ) ;
#283 = LINE ( 'NONE', #232, #27 ) ;
#284 = EDGE_CURVE ( 'NONE', #136, #56, #67, .T. ) ;
#285 = CARTESIAN_POINT ( 'NONE',  ( 0.0000000000000000000, 0.0000000000000000000, 3.937007999999999619 ) ) ;
#286 = CARTESIAN_POINT ( 'NONE',  ( -0.1424805000000004540, 0.0000000000000000000, 3.937007999999999619 ) ) ;
#287 = CONICAL_SURFACE ( 'NONE', #188, 0.1732285499999997036, 0.08645134638073882771 ) ;
#288 = CARTESIAN_POINT ( 'NONE',  ( 0.0000000000000000000, 0.0000000000000000000, 3.937007999999999619 ) ) ;
#289 = EDGE_CURVE ( 'NONE', #191, #91, #190, .T. ) ;
#290 = CARTESIAN_POINT ( 'NONE',  ( 0.0000000000000000000, 0.0000000000000000000, 0.1574800000000000089 ) ) ;
#291 = ADVANCED_FACE ( 'NONE', ( #296 ), #278, .T. ) ;
#292 = ORIENTED_EDGE ( 'NONE', *, *, #168, .T. ) ;
#293 = ORIENTED_EDGE ( 'NONE', *, *, #221, .F. ) ;
#294 = DIMENSIONAL_EXPONENTS ( 1.000000000000000000, 0.0000000000000000000, 0.0000000000000000000, 0.0000000000000000000, 0.0000000000000000000, 0.0000000000000000000, 0.0000000000000000000 ) ;
#295 = EDGE_LOOP ( 'NONE', ( #147, #244, #309, #28, #143 ) ) ;
#296 = FACE_OUTER_BOUND ( 'NONE', #306, .T. ) ;
#297 = PRESENTATION_LAYER_ASSIGNMENT (  '', '', ( #262 ) ) ;
#298 = ORIENTED_EDGE ( 'NONE', *, *, #7, .F. ) ;
#299 = AXIS2_PLACEMENT_3D ( 'NONE', #148, #222, #275 ) ;
#300 =( CONVERSION_BASED_UNIT ( 'INCH', #245 ) LENGTH_UNIT ( ) NAMED_UNIT ( #324 ) );
#301 = ORIENTED_EDGE ( 'NONE', *, *, #17, .T. ) ;
#302 = LINE ( 'NONE', #173, #81 ) ;
#303 = DIRECTION ( 'NONE',  ( 1.000000000000000000, 0.0000000000000000000, -0.0000000000000000000 ) ) ;
#304 = CARTESIAN_POINT ( 'NONE',  ( 0.0000000000000000000, 0.0000000000000000000, 1.717139801784820952 ) ) ;
#305 = AXIS2_PLACEMENT_3D ( 'NONE', #165, #321, #313 ) ;
#306 = EDGE_LOOP ( 'NONE', ( #30, #223, #84, #193 ) ) ;
#307 =( CONVERSION_BASED_UNIT ( 'INCH', #43 ) LENGTH_UNIT ( ) NAMED_UNIT ( #32 ) );
#308 =( NAMED_UNIT ( * ) PLANE_ANGLE_UNIT ( ) SI_UNIT ( $, .RADIAN. ) );
#309 = ORIENTED_EDGE ( 'NONE', *, *, #152, .F. ) ;
#310 = EDGE_CURVE ( 'NONE', #191, #116, #57, .T. ) ;
#311 = CARTESIAN_POINT ( 'NONE',  ( 0.0000000000000000000, 0.0000000000000000000, 0.9448819999999999997 ) ) ;
#312 = FACE_OUTER_BOUND ( 'NONE', #172, .T. ) ;
#313 = DIRECTION ( 'NONE',  ( -1.000000000000000000, 0.0000000000000000000, 0.0000000000000000000 ) ) ;
#314 = AXIS2_PLACEMENT_3D ( 'NONE', #133, #183, #44 ) ;
#315 = DIRECTION ( 'NONE',  ( 1.000000000000000000, 0.0000000000000000000, 0.0000000000000000000 ) ) ;
#316 = EDGE_CURVE ( 'NONE', #116, #3, #270, .T. ) ;
#317 = VERTEX_POINT ( 'NONE', #167 ) ;
#318 = CIRCLE ( 'NONE', #140, 0.1574799999999999256 ) ;
#319 = AXIS2_PLACEMENT_3D ( 'NONE', #34, #325, #146 ) ;
#320 = ORIENTED_EDGE ( 'NONE', *, *, #12, .F. ) ;
#321 = DIRECTION ( 'NONE',  ( -0.0000000000000000000, -0.0000000000000000000, -1.000000000000000000 ) ) ;
#322 = VERTEX_POINT ( 'NONE', #142 ) ;
#323 = EDGE_LOOP ( 'NONE', ( #298, #292, #35, #226 ) ) ;
#324 = DIMENSIONAL_EXPONENTS ( 1.000000000000000000, 0.0000000000000000000, 0.0000000000000000000, 0.0000000000000000000, 0.0000000000000000000, 0.0000000000000000000, 0.0000000000000000000 ) ;
#325 = DIRECTION ( 'NONE',  ( -0.0000000000000000000, -0.0000000000000000000, -1.000000000000000000 ) ) ;
#326 = ORIENTED_EDGE ( 'NONE', *, *, #213, .T. ) ;
#327 =( GEOMETRIC_REPRESENTATION_CONTEXT ( 3 ) GLOBAL_UNCERTAINTY_ASSIGNED_CONTEXT ( ( #159 ) ) GLOBAL_UNIT_ASSIGNED_CONTEXT ( ( #19, #308, #42 ) ) REPRESENTATION_CONTEXT ( 'NONE', 'WORKASPACE' ) );
#328 = DIRECTION ( 'NONE',  ( -0.0000000000000000000, -0.0000000000000000000, -1.000000000000000000 ) ) ;
#329 = SURFACE_SIDE_STYLE ('',( #4 ) ) ;
#330 = DIRECTION ( 'NONE',  ( -0.0000000000000000000, -0.0000000000000000000, -1.000000000000000000 ) ) ;
#331 = CARTESIAN_POINT ( 'NONE',  ( 0.0000000000000000000, 0.0000000000000000000, 0.1574800000000000089 ) ) ;
#332 = CONICAL_SURFACE ( 'NONE', #201, 0.1424805000000004540, 0.7853981633974608245 ) ;
#333 = MECHANICAL_DESIGN_GEOMETRIC_PRESENTATION_REPRESENTATION (  '', ( #88 ), #327 ) ;
#334 = CARTESIAN_POINT ( 'NONE',  ( 0.0000000000000000000, 0.1062989999999999491, 0.2736715358320045977 ) ) ;
#335 = CARTESIAN_POINT ( 'NONE',  ( 0.0000000000000000000, 0.0000000000000000000, 0.1574800000000000089 ) ) ;
#336 = DIRECTION ( 'NONE',  ( -1.000000000000000000, 0.0000000000000000000, 0.0000000000000000000 ) ) ;
#337 = AXIS2_PLACEMENT_3D ( 'NONE', #265, #212, #340 ) ;
#338 = CIRCLE ( 'NONE', #124, 0.1574804999999999955 ) ;
#339 = CARTESIAN_POINT ( 'NONE',  ( 0.0000000000000000000, 0.0000000000000000000, 0.0000000000000000000 ) ) ;
#340 = DIRECTION ( 'NONE',  ( -1.000000000000000000, 0.0000000000000000000, 0.0000000000000000000 ) ) ;
#341 = UNCERTAINTY_MEASURE_WITH_UNIT (LENGTH_MEASURE( 1.000000000000000082E-05 ), #300, 'distance_accuracy_value', 'NONE');
#342 = FACE_OUTER_BOUND ( 'NONE', #295, .T. ) ;
#343 = FACE_OUTER_BOUND ( 'NONE', #252, .T. ) ;
#344 = PRODUCT_DEFINITION_SHAPE ( 'NONE', 'NONE',  #108 ) ;
#345 = ORIENTED_EDGE ( 'NONE', *, *, #63, .T. ) ;
ENDSEC;
END-ISO-10303-21;
