ISO-10303-21;
HEADER;
FILE_DESCRIPTION (( 'STEP AP214' ),
    '1' );
FILE_NAME ('Micro_SEM-187-04.STEP',
    '2021-09-02T02:10:33',
    ( '' ),
    ( '' ),
    'SwSTEP 2.0',
    'SolidWorks 2020',
    '' );
FILE_SCHEMA (( 'AUTOMOTIVE_DESIGN' ));
ENDSEC;

DATA;
#1 = ADVANCED_FACE ( 'NONE', ( #171 ), #189, .T. ) ;
#2 = EDGE_LOOP ( 'NONE', ( #252, #162, #255, #64 ) ) ;
#3 = AXIS2_PLACEMENT_3D ( 'NONE', #36, #179, #228 ) ;
#4 = CARTESIAN_POINT ( 'NONE',  ( 0.0000000000000000000, 0.0000000000000000000, 1.500000000000000222 ) ) ;
#5 = CARTESIAN_POINT ( 'NONE',  ( 0.09365625000000003808, 0.0000000000000000000, 0.3750000000000000555 ) ) ;
#6 = EDGE_CURVE ( 'NONE', #193, #213, #75, .T. ) ;
#7 = ORIENTED_EDGE ( 'NONE', *, *, #39, .T. ) ;
#8 = CARTESIAN_POINT ( 'NONE',  ( 0.09375000000000001388, 1.148106374200643401E-17, 1.500000000000000222 ) ) ;
#9 = CIRCLE ( 'NONE', #202, 0.09375000000000001388 ) ;
#10 =( GEOMETRIC_REPRESENTATION_CONTEXT ( 3 ) GLOBAL_UNCERTAINTY_ASSIGNED_CONTEXT ( ( #284 ) ) GLOBAL_UNIT_ASSIGNED_CONTEXT ( ( #124, #225, #190 ) ) REPRESENTATION_CONTEXT ( 'NONE', 'WORKASPACE' ) );
#11 = ORIENTED_EDGE ( 'NONE', *, *, #158, .F. ) ;
#12 = CARTESIAN_POINT ( 'NONE',  ( 0.09365624999999999645, 1.146958267826442798E-17, 0.0000000000000000000 ) ) ;
#13 = DIRECTION ( 'NONE',  ( 1.000000000000000000, 0.0000000000000000000, 0.0000000000000000000 ) ) ;
#14 =( CONVERSION_BASED_UNIT ( 'INCH', #17 ) LENGTH_UNIT ( ) NAMED_UNIT ( #264 ) );
#15 = CONICAL_SURFACE ( 'NONE', #231, 0.07875000000000061118, 0.7853981633974562726 ) ;
#16 = FACE_OUTER_BOUND ( 'NONE', #2, .T. ) ;
#17 = LENGTH_MEASURE_WITH_UNIT ( LENGTH_MEASURE( 0.02539999999999999897 ), #227 );
#18 = CARTESIAN_POINT ( 'NONE',  ( -0.09365624999999999645, 0.0000000000000000000, 1.146958267826443260E-17 ) ) ;
#19 = SURFACE_SIDE_STYLE ('',( #293 ) ) ;
#20 = CIRCLE ( 'NONE', #195, 0.09375000000000001388 ) ;
#21 = ORIENTED_EDGE ( 'NONE', *, *, #158, .T. ) ;
#22 = ORIENTED_EDGE ( 'NONE', *, *, #166, .F. ) ;
#23 = EDGE_CURVE ( 'NONE', #62, #238, #9, .T. ) ;
#24 = DIRECTION ( 'NONE',  ( -0.0000000000000000000, -0.0000000000000000000, -1.000000000000000000 ) ) ;
#25 = STYLED_ITEM ( 'NONE', ( #151 ), #199 ) ;
#26 = APPLICATION_PROTOCOL_DEFINITION ( 'draft international standard', 'automotive_design', 1998, #106 ) ;
#27 = CARTESIAN_POINT ( 'NONE',  ( -0.09375000000000001388, 0.0000000000000000000, 1.485000000000000986 ) ) ;
#28 = ORIENTED_EDGE ( 'NONE', *, *, #295, .T. ) ;
#29 = DIRECTION ( 'NONE',  ( 0.0000000000000000000, 0.0000000000000000000, 1.000000000000000000 ) ) ;
#30 = ORIENTED_EDGE ( 'NONE', *, *, #289, .T. ) ;
#31 = AXIS2_PLACEMENT_3D ( 'NONE', #222, #191, #281 ) ;
#32 = DIRECTION ( 'NONE',  ( -0.7071067811865531239, 0.0000000000000000000, -0.7071067811865419106 ) ) ;
#33 = DIRECTION ( 'NONE',  ( 1.000000000000000000, 0.0000000000000000000, 0.0000000000000000000 ) ) ;
#34 = DIRECTION ( 'NONE',  ( 0.0000000000000000000, 0.0000000000000000000, -1.000000000000000000 ) ) ;
#35 = DIRECTION ( 'NONE',  ( -1.224646799147353454E-16, -0.0000000000000000000, -1.000000000000000000 ) ) ;
#36 = CARTESIAN_POINT ( 'NONE',  ( 0.0000000000000000000, 0.0000000000000000000, 0.0000000000000000000 ) ) ;
#37 = CIRCLE ( 'NONE', #157, 0.09375000000000001388 ) ;
#38 =( LENGTH_UNIT ( ) NAMED_UNIT ( * ) SI_UNIT ( $, .METRE. ) );
#39 = EDGE_CURVE ( 'NONE', #238, #213, #140, .T. ) ;
#40 = EDGE_LOOP ( 'NONE', ( #122, #78, #7, #286 ) ) ;
#41 = VECTOR ( 'NONE', #206, 39.37007874015748143 ) ;
#42 = EDGE_LOOP ( 'NONE', ( #11, #69, #28, #133 ) ) ;
#43 = DIRECTION ( 'NONE',  ( 0.0000000000000000000, 0.0000000000000000000, -1.000000000000000000 ) ) ;
#44 = PRODUCT_CONTEXT ( 'NONE', #88, 'mechanical' ) ;
#45 = DIRECTION ( 'NONE',  ( -1.000000000000000000, 0.0000000000000000000, 0.0000000000000000000 ) ) ;
#46 = EDGE_LOOP ( 'NONE', ( #224, #119, #261, #22 ) ) ;
#47 = AXIS2_PLACEMENT_3D ( 'NONE', #270, #288, #33 ) ;
#48 = LINE ( 'NONE', #240, #61 ) ;
#49 = EDGE_LOOP ( 'NONE', ( #112, #131 ) ) ;
#50 = CARTESIAN_POINT ( 'NONE',  ( 0.0000000000000000000, 0.0000000000000000000, 1.485000000000000986 ) ) ;
#51 = ORIENTED_EDGE ( 'NONE', *, *, #289, .F. ) ;
#52 = FACE_OUTER_BOUND ( 'NONE', #49, .T. ) ;
#53 = DIRECTION ( 'NONE',  ( -1.000000000000000000, 0.0000000000000000000, 0.0000000000000000000 ) ) ;
#54 = CIRCLE ( 'NONE', #169, 0.07875000000000061118 ) ;
#55 = FACE_OUTER_BOUND ( 'NONE', #40, .T. ) ;
#56 = DIRECTION ( 'NONE',  ( -1.000000000000000000, 0.0000000000000000000, 1.224646799147353454E-16 ) ) ;
#57 = EDGE_CURVE ( 'NONE', #116, #219, #54, .T. ) ;
#58 = SURFACE_STYLE_USAGE ( .BOTH. , #294 ) ;
#59 = ADVANCED_FACE ( 'NONE', ( #95 ), #196, .T. ) ;
#60 = CARTESIAN_POINT ( 'NONE',  ( 1.404618771449246621E-33, 0.0000000000000000000, 1.146958267826443260E-17 ) ) ;
#61 = VECTOR ( 'NONE', #32, 39.37007874015748143 ) ;
#62 = VERTEX_POINT ( 'NONE', #73 ) ;
#63 = CIRCLE ( 'NONE', #68, 0.09365624999999999645 ) ;
#64 = ORIENTED_EDGE ( 'NONE', *, *, #254, .F. ) ;
#65 =( NAMED_UNIT ( * ) PLANE_ANGLE_UNIT ( ) SI_UNIT ( $, .RADIAN. ) );
#66 = EDGE_CURVE ( 'NONE', #62, #250, #258, .T. ) ;
#67 = CARTESIAN_POINT ( 'NONE',  ( 4.592425496802576068E-17, 0.0000000000000000000, 0.3750000000000000555 ) ) ;
#68 = AXIS2_PLACEMENT_3D ( 'NONE', #85, #89, #185 ) ;
#69 = ORIENTED_EDGE ( 'NONE', *, *, #57, .F. ) ;
#70 = DIMENSIONAL_EXPONENTS ( 1.000000000000000000, 0.0000000000000000000, 0.0000000000000000000, 0.0000000000000000000, 0.0000000000000000000, 0.0000000000000000000, 0.0000000000000000000 ) ;
#71 = ADVANCED_FACE ( 'NONE', ( #149 ), #15, .T. ) ;
#72 = DIRECTION ( 'NONE',  ( 1.000000000000000000, 0.0000000000000000000, 0.0000000000000000000 ) ) ;
#73 = CARTESIAN_POINT ( 'NONE',  ( 0.09375000000000001388, 1.148106374200643401E-17, 1.485000000000000986 ) ) ;
#74 = CARTESIAN_POINT ( 'NONE',  ( 0.0000000000000000000, 0.0000000000000000000, 1.500000000000000222 ) ) ;
#75 = LINE ( 'NONE', #165, #134 ) ;
#76 = MECHANICAL_DESIGN_GEOMETRIC_PRESENTATION_REPRESENTATION (  '', ( #25 ), #203 ) ;
#77 = DIRECTION ( 'NONE',  ( 1.000000000000000000, 0.0000000000000000000, 0.0000000000000000000 ) ) ;
#78 = ORIENTED_EDGE ( 'NONE', *, *, #23, .T. ) ;
#79 = CARTESIAN_POINT ( 'NONE',  ( 4.598936731609567916E-17, 0.0000000000000000000, 0.3755316826705892841 ) ) ;
#80 = CARTESIAN_POINT ( 'NONE',  ( 4.598936731609567916E-17, 0.0000000000000000000, 0.3755316826705892841 ) ) ;
#81 = DIRECTION ( 'NONE',  ( -1.224646799147353454E-16, -0.0000000000000000000, -1.000000000000000000 ) ) ;
#82 = DIRECTION ( 'NONE',  ( 1.224646799147353454E-16, 0.0000000000000000000, 1.000000000000000000 ) ) ;
#83 = ADVANCED_FACE ( 'NONE', ( #230 ), #260, .T. ) ;
#84 = FILL_AREA_STYLE ('',( #177 ) ) ;
#85 = CARTESIAN_POINT ( 'NONE',  ( 4.592425496802576068E-17, 0.0000000000000000000, 0.3750000000000000555 ) ) ;
#86 = PRODUCT_DEFINITION_SHAPE ( 'NONE', 'NONE',  #159 ) ;
#87 =( CONVERSION_BASED_UNIT ( 'INCH', #139 ) LENGTH_UNIT ( ) NAMED_UNIT ( #70 ) );
#88 = APPLICATION_CONTEXT ( 'automotive_design' ) ;
#89 = DIRECTION ( 'NONE',  ( -1.224646799147353454E-16, -0.0000000000000000000, -1.000000000000000000 ) ) ;
#90 = ADVANCED_FACE ( 'NONE', ( #198 ), #207, .T. ) ;
#91 = AXIS2_PLACEMENT_3D ( 'NONE', #290, #82, #13 ) ;
#92 = ORIENTED_EDGE ( 'NONE', *, *, #117, .F. ) ;
#93 = DIRECTION ( 'NONE',  ( 1.000000000000000000, 0.0000000000000000000, 0.0000000000000000000 ) ) ;
#94 = CARTESIAN_POINT ( 'NONE',  ( 0.0000000000000000000, 0.0000000000000000000, 0.0000000000000000000 ) ) ;
#95 = FACE_OUTER_BOUND ( 'NONE', #283, .T. ) ;
#96 = CARTESIAN_POINT ( 'NONE',  ( 0.09365625000000003808, 0.0000000000000000000, 0.3750000000000000555 ) ) ;
#97 = ADVANCED_FACE ( 'NONE', ( #16 ), #291, .T. ) ;
#98 = CARTESIAN_POINT ( 'NONE',  ( 0.0000000000000000000, 0.0000000000000000000, 1.500000000000000222 ) ) ;
#99 = EDGE_LOOP ( 'NONE', ( #161, #110, #145, #173 ) ) ;
#100 = APPLICATION_PROTOCOL_DEFINITION ( 'draft international standard', 'automotive_design', 1998, #88 ) ;
#101 = DIRECTION ( 'NONE',  ( -1.224646799147353454E-16, -0.0000000000000000000, -1.000000000000000000 ) ) ;
#102 = VECTOR ( 'NONE', #226, 39.37007874015748143 ) ;
#103 = DIRECTION ( 'NONE',  ( -1.000000000000000000, 0.0000000000000000000, 1.224646799147353454E-16 ) ) ;
#104 = PRODUCT_RELATED_PRODUCT_CATEGORY ( 'part', '', ( #107 ) ) ;
#105 = SURFACE_STYLE_FILL_AREA ( #84 ) ;
#106 = APPLICATION_CONTEXT ( 'automotive_design' ) ;
#107 = PRODUCT ( 'Micro_SEM-187-04', 'Micro_SEM-187-04', '', ( #44 ) ) ;
#108 = PRODUCT_DEFINITION_CONTEXT ( 'detailed design', #106, 'design' ) ;
#109 = CLOSED_SHELL ( 'NONE', ( #90, #97, #251, #1, #221, #59, #71, #83, #136, #233 ) ) ;
#110 = ORIENTED_EDGE ( 'NONE', *, *, #212, .F. ) ;
#111 = DIRECTION ( 'NONE',  ( -1.224646799147353454E-16, -0.0000000000000000000, -1.000000000000000000 ) ) ;
#112 = ORIENTED_EDGE ( 'NONE', *, *, #154, .T. ) ;
#113 = AXIS2_PLACEMENT_3D ( 'NONE', #181, #266, #125 ) ;
#114 = DIRECTION ( 'NONE',  ( -0.1736481776669313026, 2.126576849575784549E-17, 0.9848077530122077983 ) ) ;
#115 = UNCERTAINTY_MEASURE_WITH_UNIT (LENGTH_MEASURE( 1.000000000000000082E-05 ), #87, 'distance_accuracy_value', 'NONE');
#116 = VERTEX_POINT ( 'NONE', #247 ) ;
#117 = EDGE_CURVE ( 'NONE', #277, #160, #272, .T. ) ;
#118 = EDGE_CURVE ( 'NONE', #160, #275, #248, .T. ) ;
#119 = ORIENTED_EDGE ( 'NONE', *, *, #117, .T. ) ;
#120 = DIRECTION ( 'NONE',  ( 0.0000000000000000000, 0.0000000000000000000, 1.000000000000000000 ) ) ;
#121 = PRESENTATION_LAYER_ASSIGNMENT (  '', '', ( #216 ) ) ;
#122 = ORIENTED_EDGE ( 'NONE', *, *, #66, .F. ) ;
#123 = PRODUCT_DEFINITION_FORMATION_WITH_SPECIFIED_SOURCE ( 'ANY', '', #107, .NOT_KNOWN. ) ;
#124 =( CONVERSION_BASED_UNIT ( 'INCH', #220 ) LENGTH_UNIT ( ) NAMED_UNIT ( #167 ) );
#125 = DIRECTION ( 'NONE',  ( -1.000000000000000000, 0.0000000000000000000, 1.224646799147353454E-16 ) ) ;
#126 = CYLINDRICAL_SURFACE ( 'NONE', #3, 0.09365624999999999645 ) ;
#127 = DIRECTION ( 'NONE',  ( -1.224646799147353454E-16, -0.0000000000000000000, -1.000000000000000000 ) ) ;
#128 = CONICAL_SURFACE ( 'NONE', #244, 0.07875000000000061118, 0.7853981633974562726 ) ;
#129 = CARTESIAN_POINT ( 'NONE',  ( -0.09365624999999994094, 1.147532321013543253E-17, 0.3750000000000000555 ) ) ;
#130 =( NAMED_UNIT ( * ) PLANE_ANGLE_UNIT ( ) SI_UNIT ( $, .RADIAN. ) );
#131 = ORIENTED_EDGE ( 'NONE', *, *, #118, .T. ) ;
#132 = AXIS2_PLACEMENT_3D ( 'NONE', #94, #192, #194 ) ;
#133 = ORIENTED_EDGE ( 'NONE', *, *, #23, .F. ) ;
#134 = VECTOR ( 'NONE', #114, 39.37007874015748143 ) ;
#135 = DIRECTION ( 'NONE',  ( -1.000000000000000000, 0.0000000000000000000, 0.0000000000000000000 ) ) ;
#136 = ADVANCED_FACE ( 'NONE', ( #174 ), #126, .T. ) ;
#137 = ORIENTED_EDGE ( 'NONE', *, *, #269, .T. ) ;
#138 = SHAPE_DEFINITION_REPRESENTATION ( #86, #297 ) ;
#139 = LENGTH_MEASURE_WITH_UNIT ( LENGTH_MEASURE( 0.02539999999999999897 ), #38 );
#140 = LINE ( 'NONE', #236, #298 ) ;
#141 =( LENGTH_UNIT ( ) NAMED_UNIT ( * ) SI_UNIT ( $, .METRE. ) );
#142 = AXIS2_PLACEMENT_3D ( 'NONE', #246, #153, #56 ) ;
#143 = EDGE_LOOP ( 'NONE', ( #30, #242, #256, #187 ) ) ;
#144 = CARTESIAN_POINT ( 'NONE',  ( -0.09374999999999995837, 0.0000000000000000000, 0.3755316826705892841 ) ) ;
#145 = ORIENTED_EDGE ( 'NONE', *, *, #254, .T. ) ;
#146 = DIRECTION ( 'NONE',  ( 0.0000000000000000000, 0.0000000000000000000, -1.000000000000000000 ) ) ;
#147 = ORIENTED_EDGE ( 'NONE', *, *, #295, .F. ) ;
#148 = DIRECTION ( 'NONE',  ( -0.0000000000000000000, -0.0000000000000000000, -1.000000000000000000 ) ) ;
#149 = FACE_OUTER_BOUND ( 'NONE', #42, .T. ) ;
#150 = CARTESIAN_POINT ( 'NONE',  ( 0.0000000000000000000, 0.0000000000000000000, 1.500000000000000222 ) ) ;
#151 = PRESENTATION_STYLE_ASSIGNMENT (( #58 ) ) ;
#152 = PRESENTATION_STYLE_ASSIGNMENT (( #180 ) ) ;
#153 = DIRECTION ( 'NONE',  ( -1.224646799147353454E-16, -0.0000000000000000000, -1.000000000000000000 ) ) ;
#154 = EDGE_CURVE ( 'NONE', #275, #160, #249, .T. ) ;
#155 = CIRCLE ( 'NONE', #176, 0.07875000000000061118 ) ;
#156 = EDGE_LOOP ( 'NONE', ( #235, #21, #51, #147 ) ) ;
#157 = AXIS2_PLACEMENT_3D ( 'NONE', #80, #127, #292 ) ;
#158 = EDGE_CURVE ( 'NONE', #219, #62, #204, .T. ) ;
#159 = PRODUCT_DEFINITION ( 'UNKNOWN', '', #123, #108 ) ;
#160 = VERTEX_POINT ( 'NONE', #12 ) ;
#161 = ORIENTED_EDGE ( 'NONE', *, *, #6, .F. ) ;
#162 = ORIENTED_EDGE ( 'NONE', *, *, #6, .T. ) ;
#163 = UNCERTAINTY_MEASURE_WITH_UNIT (LENGTH_MEASURE( 1.000000000000000082E-05 ), #14, 'distance_accuracy_value', 'NONE');
#164 = CARTESIAN_POINT ( 'NONE',  ( 0.07875000000000061118, 1.056257864264595965E-17, 1.500000000000000222 ) ) ;
#165 = CARTESIAN_POINT ( 'NONE',  ( -0.09365624999999994094, 1.146958267826442798E-17, 0.3750000000000000555 ) ) ;
#166 = EDGE_CURVE ( 'NONE', #193, #275, #296, .T. ) ;
#167 = DIMENSIONAL_EXPONENTS ( 1.000000000000000000, 0.0000000000000000000, 0.0000000000000000000, 0.0000000000000000000, 0.0000000000000000000, 0.0000000000000000000, 0.0000000000000000000 ) ;
#168 = DIRECTION ( 'NONE',  ( 1.000000000000000000, 0.0000000000000000000, 0.0000000000000000000 ) ) ;
#169 = AXIS2_PLACEMENT_3D ( 'NONE', #4, #29, #93 ) ;
#170 = AXIS2_PLACEMENT_3D ( 'NONE', #239, #120, #197 ) ;
#171 = FACE_OUTER_BOUND ( 'NONE', #143, .T. ) ;
#172 = CARTESIAN_POINT ( 'NONE',  ( 0.0000000000000000000, 0.0000000000000000000, 1.500000000000000222 ) ) ;
#173 = ORIENTED_EDGE ( 'NONE', *, *, #186, .T. ) ;
#174 = FACE_OUTER_BOUND ( 'NONE', #232, .T. ) ;
#175 = FACE_OUTER_BOUND ( 'NONE', #156, .T. ) ;
#176 = AXIS2_PLACEMENT_3D ( 'NONE', #74, #262, #168 ) ;
#177 = FILL_AREA_STYLE_COLOUR ( '', #209 ) ;
#178 =( NAMED_UNIT ( * ) SI_UNIT ( $, .STERADIAN. ) SOLID_ANGLE_UNIT ( ) );
#179 = DIRECTION ( 'NONE',  ( -1.224646799147353454E-16, -0.0000000000000000000, -1.000000000000000000 ) ) ;
#180 = SURFACE_STYLE_USAGE ( .BOTH. , #19 ) ;
#181 = CARTESIAN_POINT ( 'NONE',  ( 1.404618771449246621E-33, 0.0000000000000000000, 1.146958267826443260E-17 ) ) ;
#182 = COLOUR_RGB ( '',0.7921568627450980005, 0.8196078431372548767, 0.9333333333333333481 ) ;
#183 =( GEOMETRIC_REPRESENTATION_CONTEXT ( 3 ) GLOBAL_UNCERTAINTY_ASSIGNED_CONTEXT ( ( #163 ) ) GLOBAL_UNIT_ASSIGNED_CONTEXT ( ( #14, #130, #178 ) ) REPRESENTATION_CONTEXT ( 'NONE', 'WORKASPACE' ) );
#184 = ORIENTED_EDGE ( 'NONE', *, *, #57, .T. ) ;
#185 = DIRECTION ( 'NONE',  ( -1.000000000000000000, 0.0000000000000000000, 0.0000000000000000000 ) ) ;
#186 = EDGE_CURVE ( 'NONE', #250, #213, #37, .T. ) ;
#187 = ORIENTED_EDGE ( 'NONE', *, *, #39, .F. ) ;
#188 = VECTOR ( 'NONE', #201, 39.37007874015748143 ) ;
#189 = CYLINDRICAL_SURFACE ( 'NONE', #273, 0.09375000000000001388 ) ;
#190 =( NAMED_UNIT ( * ) SI_UNIT ( $, .STERADIAN. ) SOLID_ANGLE_UNIT ( ) );
#191 = DIRECTION ( 'NONE',  ( 0.0000000000000000000, 0.0000000000000000000, 1.000000000000000000 ) ) ;
#192 = DIRECTION ( 'NONE',  ( 0.0000000000000000000, 0.0000000000000000000, 1.000000000000000000 ) ) ;
#193 = VERTEX_POINT ( 'NONE', #129 ) ;
#194 = DIRECTION ( 'NONE',  ( 1.000000000000000000, 0.0000000000000000000, -0.0000000000000000000 ) ) ;
#195 = AXIS2_PLACEMENT_3D ( 'NONE', #50, #146, #243 ) ;
#196 = PLANE ( 'NONE',  #31 ) ;
#197 = DIRECTION ( 'NONE',  ( 1.000000000000000000, 0.0000000000000000000, 0.0000000000000000000 ) ) ;
#198 = FACE_OUTER_BOUND ( 'NONE', #46, .T. ) ;
#199 = MANIFOLD_SOLID_BREP ( 'Cut-Revolve1', #109 ) ;
#200 = PLANE ( 'NONE',  #132 ) ;
#201 = DIRECTION ( 'NONE',  ( -0.0000000000000000000, -0.0000000000000000000, -1.000000000000000000 ) ) ;
#202 = AXIS2_PLACEMENT_3D ( 'NONE', #279, #43, #72 ) ;
#203 =( GEOMETRIC_REPRESENTATION_CONTEXT ( 3 ) GLOBAL_UNCERTAINTY_ASSIGNED_CONTEXT ( ( #115 ) ) GLOBAL_UNIT_ASSIGNED_CONTEXT ( ( #87, #65, #210 ) ) REPRESENTATION_CONTEXT ( 'NONE', 'WORKASPACE' ) );
#204 = LINE ( 'NONE', #271, #102 ) ;
#205 = EDGE_CURVE ( 'NONE', #193, #277, #63, .T. ) ;
#206 = DIRECTION ( 'NONE',  ( -1.224646799147353454E-16, -0.0000000000000000000, -1.000000000000000000 ) ) ;
#207 = CYLINDRICAL_SURFACE ( 'NONE', #142, 0.09365624999999999645 ) ;
#208 = AXIS2_PLACEMENT_3D ( 'NONE', #67, #111, #135 ) ;
#209 = COLOUR_RGB ( '',0.7921568627450980005, 0.8196078431372548767, 0.9333333333333333481 ) ;
#210 =( NAMED_UNIT ( * ) SI_UNIT ( $, .STERADIAN. ) SOLID_ANGLE_UNIT ( ) );
#211 = ORIENTED_EDGE ( 'NONE', *, *, #166, .T. ) ;
#212 = EDGE_CURVE ( 'NONE', #277, #193, #234, .T. ) ;
#213 = VERTEX_POINT ( 'NONE', #144 ) ;
#215 = EDGE_CURVE ( 'NONE', #213, #250, #274, .T. ) ;
#214 = FILL_AREA_STYLE_COLOUR ( '', #182 ) ;
#216 = STYLED_ITEM ( 'NONE', ( #152 ), #297 ) ;
#217 = DIRECTION ( 'NONE',  ( -1.000000000000000000, 0.0000000000000000000, 0.0000000000000000000 ) ) ;
#218 = DIRECTION ( 'NONE',  ( 0.1736481776669315247, 0.0000000000000000000, 0.9848077530122077983 ) ) ;
#219 = VERTEX_POINT ( 'NONE', #164 ) ;
#220 = LENGTH_MEASURE_WITH_UNIT ( LENGTH_MEASURE( 0.02539999999999999897 ), #141 );
#221 = ADVANCED_FACE ( 'NONE', ( #55 ), #257, .T. ) ;
#222 = CARTESIAN_POINT ( 'NONE',  ( 0.0000000000000000000, 0.0000000000000000000, 1.500000000000000222 ) ) ;
#223 = PRESENTATION_LAYER_ASSIGNMENT (  '', '', ( #25 ) ) ;
#224 = ORIENTED_EDGE ( 'NONE', *, *, #205, .T. ) ;
#225 =( NAMED_UNIT ( * ) PLANE_ANGLE_UNIT ( ) SI_UNIT ( $, .RADIAN. ) );
#226 = DIRECTION ( 'NONE',  ( 0.7071067811865531239, 8.659560562355003116E-17, -0.7071067811865419106 ) ) ;
#227 =( LENGTH_UNIT ( ) NAMED_UNIT ( * ) SI_UNIT ( $, .METRE. ) );
#228 = DIRECTION ( 'NONE',  ( -1.000000000000000000, 0.0000000000000000000, 1.224646799147353454E-16 ) ) ;
#229 = CARTESIAN_POINT ( 'NONE',  ( 0.09365624999999999645, 1.146958267826442798E-17, -1.146958267826443260E-17 ) ) ;
#230 = FACE_OUTER_BOUND ( 'NONE', #99, .T. ) ;
#231 = AXIS2_PLACEMENT_3D ( 'NONE', #150, #245, #53 ) ;
#232 = EDGE_LOOP ( 'NONE', ( #92, #263, #211, #276 ) ) ;
#233 = ADVANCED_FACE ( 'NONE', ( #52 ), #200, .F. ) ;
#234 = CIRCLE ( 'NONE', #208, 0.09365624999999999645 ) ;
#235 = ORIENTED_EDGE ( 'NONE', *, *, #269, .F. ) ;
#236 = CARTESIAN_POINT ( 'NONE',  ( -0.09375000000000001388, 0.0000000000000000000, 1.500000000000000222 ) ) ;
#237 = AXIS2_PLACEMENT_3D ( 'NONE', #79, #81, #77 ) ;
#238 = VERTEX_POINT ( 'NONE', #27 ) ;
#239 = CARTESIAN_POINT ( 'NONE',  ( 0.0000000000000000000, 0.0000000000000000000, 0.0000000000000000000 ) ) ;
#240 = CARTESIAN_POINT ( 'NONE',  ( -0.07875000000000061118, 0.0000000000000000000, 1.500000000000000222 ) ) ;
#241 = DIRECTION ( 'NONE',  ( -0.0000000000000000000, -0.0000000000000000000, -1.000000000000000000 ) ) ;
#242 = ORIENTED_EDGE ( 'NONE', *, *, #66, .T. ) ;
#243 = DIRECTION ( 'NONE',  ( 1.000000000000000000, 0.0000000000000000000, 0.0000000000000000000 ) ) ;
#244 = AXIS2_PLACEMENT_3D ( 'NONE', #267, #34, #287 ) ;
#245 = DIRECTION ( 'NONE',  ( 0.0000000000000000000, 0.0000000000000000000, -1.000000000000000000 ) ) ;
#246 = CARTESIAN_POINT ( 'NONE',  ( 0.0000000000000000000, 0.0000000000000000000, 0.0000000000000000000 ) ) ;
#247 = CARTESIAN_POINT ( 'NONE',  ( -0.07875000000000061118, 0.0000000000000000000, 1.500000000000000222 ) ) ;
#248 = CIRCLE ( 'NONE', #113, 0.09365624999999999645 ) ;
#249 = CIRCLE ( 'NONE', #268, 0.09365624999999999645 ) ;
#250 = VERTEX_POINT ( 'NONE', #282 ) ;
#251 = ADVANCED_FACE ( 'NONE', ( #175 ), #128, .T. ) ;
#252 = ORIENTED_EDGE ( 'NONE', *, *, #205, .F. ) ;
#253 = VECTOR ( 'NONE', #35, 39.37007874015748143 ) ;
#254 = EDGE_CURVE ( 'NONE', #277, #250, #265, .T. ) ;
#255 = ORIENTED_EDGE ( 'NONE', *, *, #215, .T. ) ;
#256 = ORIENTED_EDGE ( 'NONE', *, *, #215, .F. ) ;
#257 = CYLINDRICAL_SURFACE ( 'NONE', #285, 0.09375000000000001388 ) ;
#258 = LINE ( 'NONE', #8, #188 ) ;
#259 = CARTESIAN_POINT ( 'NONE',  ( -0.09365624999999999645, 0.0000000000000000000, 2.293916535652886521E-17 ) ) ;
#260 = CONICAL_SURFACE ( 'NONE', #91, 0.09365624999999999645, 0.1745329251994340303 ) ;
#261 = ORIENTED_EDGE ( 'NONE', *, *, #154, .F. ) ;
#262 = DIRECTION ( 'NONE',  ( 0.0000000000000000000, 0.0000000000000000000, 1.000000000000000000 ) ) ;
#263 = ORIENTED_EDGE ( 'NONE', *, *, #212, .T. ) ;
#264 = DIMENSIONAL_EXPONENTS ( 1.000000000000000000, 0.0000000000000000000, 0.0000000000000000000, 0.0000000000000000000, 0.0000000000000000000, 0.0000000000000000000, 0.0000000000000000000 ) ;
#265 = LINE ( 'NONE', #5, #278 ) ;
#266 = DIRECTION ( 'NONE',  ( -1.224646799147353454E-16, -0.0000000000000000000, -1.000000000000000000 ) ) ;
#267 = CARTESIAN_POINT ( 'NONE',  ( 0.0000000000000000000, 0.0000000000000000000, 1.500000000000000222 ) ) ;
#268 = AXIS2_PLACEMENT_3D ( 'NONE', #60, #101, #103 ) ;
#269 = EDGE_CURVE ( 'NONE', #219, #116, #155, .T. ) ;
#270 = CARTESIAN_POINT ( 'NONE',  ( 4.592425496802576068E-17, 0.0000000000000000000, 0.3750000000000000555 ) ) ;
#271 = CARTESIAN_POINT ( 'NONE',  ( 0.07875000000000061118, 9.644093543285480678E-18, 1.500000000000000222 ) ) ;
#272 = LINE ( 'NONE', #229, #253 ) ;
#273 = AXIS2_PLACEMENT_3D ( 'NONE', #98, #241, #217 ) ;
#274 = CIRCLE ( 'NONE', #237, 0.09375000000000001388 ) ;
#275 = VERTEX_POINT ( 'NONE', #259 ) ;
#276 = ORIENTED_EDGE ( 'NONE', *, *, #118, .F. ) ;
#277 = VERTEX_POINT ( 'NONE', #96 ) ;
#278 = VECTOR ( 'NONE', #218, 39.37007874015748143 ) ;
#279 = CARTESIAN_POINT ( 'NONE',  ( 0.0000000000000000000, 0.0000000000000000000, 1.485000000000000986 ) ) ;
#280 = FILL_AREA_STYLE ('',( #214 ) ) ;
#281 = DIRECTION ( 'NONE',  ( 1.000000000000000000, 0.0000000000000000000, -0.0000000000000000000 ) ) ;
#282 = CARTESIAN_POINT ( 'NONE',  ( 0.09375000000000004163, 1.148106374200644017E-17, 0.3755316826705892841 ) ) ;
#283 = EDGE_LOOP ( 'NONE', ( #184, #137 ) ) ;
#284 = UNCERTAINTY_MEASURE_WITH_UNIT (LENGTH_MEASURE( 1.000000000000000082E-05 ), #124, 'distance_accuracy_value', 'NONE');
#285 = AXIS2_PLACEMENT_3D ( 'NONE', #172, #148, #45 ) ;
#286 = ORIENTED_EDGE ( 'NONE', *, *, #186, .F. ) ;
#287 = DIRECTION ( 'NONE',  ( -1.000000000000000000, 0.0000000000000000000, 0.0000000000000000000 ) ) ;
#288 = DIRECTION ( 'NONE',  ( 1.224646799147353454E-16, 0.0000000000000000000, 1.000000000000000000 ) ) ;
#289 = EDGE_CURVE ( 'NONE', #238, #62, #20, .T. ) ;
#290 = CARTESIAN_POINT ( 'NONE',  ( 4.592425496802576068E-17, 0.0000000000000000000, 0.3750000000000000555 ) ) ;
#291 = CONICAL_SURFACE ( 'NONE', #47, 0.09365624999999999645, 0.1745329251994340303 ) ;
#292 = DIRECTION ( 'NONE',  ( 1.000000000000000000, 0.0000000000000000000, 0.0000000000000000000 ) ) ;
#293 = SURFACE_STYLE_FILL_AREA ( #280 ) ;
#294 = SURFACE_SIDE_STYLE ('',( #105 ) ) ;
#295 = EDGE_CURVE ( 'NONE', #116, #238, #48, .T. ) ;
#296 = LINE ( 'NONE', #18, #41 ) ;
#297 = ADVANCED_BREP_SHAPE_REPRESENTATION ( 'Micro_SEM-187-04', ( #199, #170 ), #10 ) ;
#298 = VECTOR ( 'NONE', #24, 39.37007874015748143 ) ;
#299 = MECHANICAL_DESIGN_GEOMETRIC_PRESENTATION_REPRESENTATION (  '', ( #216 ), #183 ) ;
ENDSEC;
END-ISO-10303-21;
