ISO-10303-21;
HEADER;
FILE_DESCRIPTION (( 'STEP AP214' ),
    '1' );
FILE_NAME ('Micro_AEMM-120-2X.STEP',
    '2022-03-15T14:31:09',
    ( '' ),
    ( '' ),
    'SwSTEP 2.0',
    'SolidWorks 2022',
    '' );
FILE_SCHEMA (( 'AUTOMOTIVE_DESIGN' ));
ENDSEC;

DATA;
#1 = ORIENTED_EDGE ( 'NONE', *, *, #104, .F. ) ;
#2 = DIRECTION ( 'NONE',  ( 0.000000000000000000, 0.000000000000000000, 1.000000000000000000 ) ) ;
#3 = PRESENTATION_LAYER_ASSIGNMENT (  '', '', ( #198 ) ) ;
#4 = CARTESIAN_POINT ( 'NONE',  ( 0.2359842795000001436, 0.000000000000000000, 1.181102000000000096 ) ) ;
#5 = CARTESIAN_POINT ( 'NONE',  ( 0.000000000000000000, 0.000000000000000000, 3.267717000000000649 ) ) ;
#6 = LENGTH_MEASURE_WITH_UNIT ( LENGTH_MEASURE( 0.02539999999999999897 ), #25 );
#7 = CARTESIAN_POINT ( 'NONE',  ( 0.000000000000000000, 0.000000000000000000, 0.000000000000000000 ) ) ;
#8 =( GEOMETRIC_REPRESENTATION_CONTEXT ( 3 ) GLOBAL_UNCERTAINTY_ASSIGNED_CONTEXT ( ( #233 ) ) GLOBAL_UNIT_ASSIGNED_CONTEXT ( ( #92, #118, #94 ) ) REPRESENTATION_CONTEXT ( 'NONE', 'WORKASPACE' ) );
#9 = DIRECTION ( 'NONE',  ( -1.224646799147353454E-16, -0.000000000000000000, -1.000000000000000000 ) ) ;
#10 = DIRECTION ( 'NONE',  ( -1.224646799147353454E-16, -0.000000000000000000, -1.000000000000000000 ) ) ;
#11 = EDGE_LOOP ( 'NONE', ( #124, #204, #156, #177 ) ) ;
#12 = CIRCLE ( 'NONE', #180, 0.2359842795000000049 ) ;
#13 = CARTESIAN_POINT ( 'NONE',  ( 0.000000000000000000, 0.000000000000000000, 0.000000000000000000 ) ) ;
#14 = EDGE_LOOP ( 'NONE', ( #159, #77, #253, #230 ) ) ;
#15 = AXIS2_PLACEMENT_3D ( 'NONE', #169, #22, #45 ) ;
#16 = ORIENTED_EDGE ( 'NONE', *, *, #210, .F. ) ;
#17 = ORIENTED_EDGE ( 'NONE', *, *, #90, .T. ) ;
#18 = CARTESIAN_POINT ( 'NONE',  ( -0.2362204999999999999, 0.000000000000000000, 3.252717000000002301 ) ) ;
#19 = ORIENTED_EDGE ( 'NONE', *, *, #27, .F. ) ;
#20 = DIRECTION ( 'NONE',  ( -1.224646799147353454E-16, -0.000000000000000000, -1.000000000000000000 ) ) ;
#21 = EDGE_CURVE ( 'NONE', #203, #216, #50, .T. ) ;
#22 = DIRECTION ( 'NONE',  ( 1.224646799147353454E-16, 0.000000000000000000, 1.000000000000000000 ) ) ;
#23 = VECTOR ( 'NONE', #292, 39.37007874015747433 ) ;
#24 = DIRECTION ( 'NONE',  ( -1.000000000000000000, 0.000000000000000000, 0.000000000000000000 ) ) ;
#25 =( LENGTH_UNIT ( ) NAMED_UNIT ( * ) SI_UNIT ( $, .METRE. ) );
#26 = DIRECTION ( 'NONE',  ( -0.000000000000000000, -0.000000000000000000, -1.000000000000000000 ) ) ;
#27 = EDGE_CURVE ( 'NONE', #108, #136, #251, .T. ) ;
#28 = CARTESIAN_POINT ( 'NONE',  ( 0.000000000000000000, 0.000000000000000000, 0.000000000000000000 ) ) ;
#29 = AXIS2_PLACEMENT_3D ( 'NONE', #87, #134, #24 ) ;
#30 = DIRECTION ( 'NONE',  ( 0.000000000000000000, 0.000000000000000000, -1.000000000000000000 ) ) ;
#31 = ORIENTED_EDGE ( 'NONE', *, *, #288, .T. ) ;
#32 = ORIENTED_EDGE ( 'NONE', *, *, #221, .F. ) ;
#33 = AXIS2_PLACEMENT_3D ( 'NONE', #278, #9, #72 ) ;
#34 = FACE_OUTER_BOUND ( 'NONE', #11, .T. ) ;
#35 = DIRECTION ( 'NONE',  ( 1.000000000000000000, 0.000000000000000000, 0.000000000000000000 ) ) ;
#36 = FACE_OUTER_BOUND ( 'NONE', #114, .T. ) ;
#37 = ORIENTED_EDGE ( 'NONE', *, *, #249, .F. ) ;
#38 = VECTOR ( 'NONE', #80, 39.37007874015748143 ) ;
#39 = PRESENTATION_LAYER_ASSIGNMENT (  '', '', ( #63 ) ) ;
#40 = VERTEX_POINT ( 'NONE', #56 ) ;
#41 = EDGE_CURVE ( 'NONE', #42, #216, #277, .T. ) ;
#42 = VERTEX_POINT ( 'NONE', #18 ) ;
#43 = PLANE ( 'NONE',  #106 ) ;
#44 = CONICAL_SURFACE ( 'NONE', #229, 0.2212205000000019295, 0.7853981633974482790 ) ;
#45 = DIRECTION ( 'NONE',  ( 1.000000000000000000, 0.000000000000000000, 0.000000000000000000 ) ) ;
#46 = CARTESIAN_POINT ( 'NONE',  ( 1.446432783766537492E-16, 0.000000000000000000, 1.181102000000000096 ) ) ;
#47 = FILL_AREA_STYLE ('',( #116 ) ) ;
#48 = ADVANCED_FACE ( 'NONE', ( #34 ), #290, .T. ) ;
#49 =( LENGTH_UNIT ( ) NAMED_UNIT ( * ) SI_UNIT ( $, .METRE. ) );
#50 = CIRCLE ( 'NONE', #285, 0.2362204999999999999 ) ;
#51 = CIRCLE ( 'NONE', #86, 0.2359842795000000049 ) ;
#52 = LENGTH_MEASURE_WITH_UNIT ( LENGTH_MEASURE( 0.02539999999999999897 ), #49 );
#53 = CYLINDRICAL_SURFACE ( 'NONE', #245, 0.2359842795000000049 ) ;
#54 = CIRCLE ( 'NONE', #119, 0.2362204999999999999 ) ;
#55 = DIRECTION ( 'NONE',  ( -1.224646799147353454E-16, -0.000000000000000000, -1.000000000000000000 ) ) ;
#56 = CARTESIAN_POINT ( 'NONE',  ( 0.2362204999999999999, 2.892866792179872647E-17, 3.252717000000002301 ) ) ;
#57 = APPLICATION_CONTEXT ( 'automotive_design' ) ;
#58 = CARTESIAN_POINT ( 'NONE',  ( 0.2359842795000001436, 0.000000000000000000, 1.181102000000000096 ) ) ;
#59 = CARTESIAN_POINT ( 'NONE',  ( 0.000000000000000000, 0.000000000000000000, 0.000000000000000000 ) ) ;
#60 = ORIENTED_EDGE ( 'NONE', *, *, #268, .F. ) ;
#61 = SHAPE_DEFINITION_REPRESENTATION ( #107, #232 ) ;
#62 = ORIENTED_EDGE ( 'NONE', *, *, #235, .F. ) ;
#63 = STYLED_ITEM ( 'NONE', ( #200 ), #232 ) ;
#64 = PRODUCT_DEFINITION_FORMATION_WITH_SPECIFIED_SOURCE ( 'ANY', '', #148, .NOT_KNOWN. ) ;
#65 = DIRECTION ( 'NONE',  ( -0.000000000000000000, -0.000000000000000000, -1.000000000000000000 ) ) ;
#66 = SURFACE_STYLE_FILL_AREA ( #47 ) ;
#67 = EDGE_CURVE ( 'NONE', #206, #203, #273, .T. ) ;
#68 = CARTESIAN_POINT ( 'NONE',  ( 0.2359842795000000049, 2.889973925387693713E-17, 0.000000000000000000 ) ) ;
#69 = AXIS2_PLACEMENT_3D ( 'NONE', #217, #194, #244 ) ;
#70 = SURFACE_SIDE_STYLE ('',( #66 ) ) ;
#71 = FACE_OUTER_BOUND ( 'NONE', #111, .T. ) ;
#72 = DIRECTION ( 'NONE',  ( 1.000000000000000000, 0.000000000000000000, 0.000000000000000000 ) ) ;
#73 =( GEOMETRIC_REPRESENTATION_CONTEXT ( 3 ) GLOBAL_UNCERTAINTY_ASSIGNED_CONTEXT ( ( #143 ) ) GLOBAL_UNIT_ASSIGNED_CONTEXT ( ( #181, #155, #225 ) ) REPRESENTATION_CONTEXT ( 'NONE', 'WORKASPACE' ) );
#74 = CARTESIAN_POINT ( 'NONE',  ( -0.2359842794999998661, 2.889973925387693713E-17, 1.181102000000000096 ) ) ;
#75 = ADVANCED_FACE ( 'NONE', ( #36 ), #157, .T. ) ;
#76 = CARTESIAN_POINT ( 'NONE',  ( -0.2359842794999998661, 2.891420358783783796E-17, 1.181102000000000096 ) ) ;
#77 = ORIENTED_EDGE ( 'NONE', *, *, #249, .T. ) ;
#78 = CARTESIAN_POINT ( 'NONE',  ( 0.000000000000000000, 0.000000000000000000, 3.252717000000002301 ) ) ;
#79 = ORIENTED_EDGE ( 'NONE', *, *, #214, .F. ) ;
#80 = DIRECTION ( 'NONE',  ( -1.224646799147353454E-16, -0.000000000000000000, -1.000000000000000000 ) ) ;
#81 = AXIS2_PLACEMENT_3D ( 'NONE', #5, #168, #256 ) ;
#82 = DIRECTION ( 'NONE',  ( 1.000000000000000000, 0.000000000000000000, 0.000000000000000000 ) ) ;
#83 = ORIENTED_EDGE ( 'NONE', *, *, #264, .T. ) ;
#84 = SURFACE_STYLE_FILL_AREA ( #222 ) ;
#85 = CARTESIAN_POINT ( 'NONE',  ( 1.446432783766537492E-16, 0.000000000000000000, 1.181102000000000096 ) ) ;
#86 = AXIS2_PLACEMENT_3D ( 'NONE', #240, #174, #218 ) ;
#87 = CARTESIAN_POINT ( 'NONE',  ( 0.000000000000000000, 0.000000000000000000, 3.267717000000000649 ) ) ;
#88 = VERTEX_POINT ( 'NONE', #68 ) ;
#89 = DIRECTION ( 'NONE',  ( 1.000000000000000000, 0.000000000000000000, 0.000000000000000000 ) ) ;
#90 = EDGE_CURVE ( 'NONE', #275, #206, #126, .T. ) ;
#91 = CARTESIAN_POINT ( 'NONE',  ( 0.000000000000000000, 0.000000000000000000, 3.267717000000000649 ) ) ;
#92 =( CONVERSION_BASED_UNIT ( 'INCH', #6 ) LENGTH_UNIT ( ) NAMED_UNIT ( #184 ) );
#93 = APPLICATION_CONTEXT ( 'automotive_design' ) ;
#94 =( NAMED_UNIT ( * ) SI_UNIT ( $, .STERADIAN. ) SOLID_ANGLE_UNIT ( ) );
#95 = VECTOR ( 'NONE', #284, 39.37007874015748854 ) ;
#96 = FACE_OUTER_BOUND ( 'NONE', #195, .T. ) ;
#97 = MANIFOLD_SOLID_BREP ( 'Cut-Revolve1', #189 ) ;
#98 = CARTESIAN_POINT ( 'NONE',  ( 0.2212205000000019295, 2.801018282243833685E-17, 3.267717000000000649 ) ) ;
#99 = DIRECTION ( 'NONE',  ( 1.000000000000000000, 0.000000000000000000, 0.000000000000000000 ) ) ;
#100 =( NAMED_UNIT ( * ) SI_UNIT ( $, .STERADIAN. ) SOLID_ANGLE_UNIT ( ) );
#101 = VECTOR ( 'NONE', #65, 39.37007874015748143 ) ;
#102 = DIRECTION ( 'NONE',  ( -0.000000000000000000, -0.000000000000000000, -1.000000000000000000 ) ) ;
#103 = CARTESIAN_POINT ( 'NONE',  ( 0.2212205000000019295, 2.709169772307794108E-17, 3.267717000000000649 ) ) ;
#104 = EDGE_CURVE ( 'NONE', #216, #203, #262, .T. ) ;
#105 = ORIENTED_EDGE ( 'NONE', *, *, #21, .T. ) ;
#106 = AXIS2_PLACEMENT_3D ( 'NONE', #91, #208, #140 ) ;
#107 = PRODUCT_DEFINITION_SHAPE ( 'NONE', 'NONE',  #202 ) ;
#108 = VERTEX_POINT ( 'NONE', #280 ) ;
#109 = CARTESIAN_POINT ( 'NONE',  ( -0.2362204999999999999, 0.000000000000000000, 3.267717000000000649 ) ) ;
#110 = FILL_AREA_STYLE_COLOUR ( '', #212 ) ;
#111 = EDGE_LOOP ( 'NONE', ( #137, #128, #1, #185 ) ) ;
#112 =( GEOMETRIC_REPRESENTATION_CONTEXT ( 3 ) GLOBAL_UNCERTAINTY_ASSIGNED_CONTEXT ( ( #250 ) ) GLOBAL_UNIT_ASSIGNED_CONTEXT ( ( #147, #265, #100 ) ) REPRESENTATION_CONTEXT ( 'NONE', 'WORKASPACE' ) );
#113 = ORIENTED_EDGE ( 'NONE', *, *, #270, .F. ) ;
#114 = EDGE_LOOP ( 'NONE', ( #293, #163, #32, #113 ) ) ;
#115 = CARTESIAN_POINT ( 'NONE',  ( 0.2362205000000001665, 2.892866792179874496E-17, 1.182441673027071039 ) ) ;
#116 = FILL_AREA_STYLE_COLOUR ( '', #272 ) ;
#117 = EDGE_CURVE ( 'NONE', #206, #88, #167, .T. ) ;
#118 =( NAMED_UNIT ( * ) PLANE_ANGLE_UNIT ( ) SI_UNIT ( $, .RADIAN. ) );
#119 = AXIS2_PLACEMENT_3D ( 'NONE', #242, #130, #82 ) ;
#120 = SURFACE_STYLE_USAGE ( .BOTH. , #70 ) ;
#121 = CARTESIAN_POINT ( 'NONE',  ( -0.2359842795000000049, 0.000000000000000000, 2.889973925387694330E-17 ) ) ;
#122 = ADVANCED_FACE ( 'NONE', ( #255 ), #260, .F. ) ;
#123 = CARTESIAN_POINT ( 'NONE',  ( 0.000000000000000000, 0.000000000000000000, 3.267717000000000649 ) ) ;
#124 = ORIENTED_EDGE ( 'NONE', *, *, #90, .F. ) ;
#125 = DIRECTION ( 'NONE',  ( -1.000000000000000000, 0.000000000000000000, 1.224646799147353454E-16 ) ) ;
#126 = CIRCLE ( 'NONE', #237, 0.2359842795000000049 ) ;
#127 = FACE_OUTER_BOUND ( 'NONE', #224, .T. ) ;
#128 = ORIENTED_EDGE ( 'NONE', *, *, #279, .T. ) ;
#129 = EDGE_CURVE ( 'NONE', #206, #275, #12, .T. ) ;
#130 = DIRECTION ( 'NONE',  ( 0.000000000000000000, 0.000000000000000000, -1.000000000000000000 ) ) ;
#131 = AXIS2_PLACEMENT_3D ( 'NONE', #78, #30, #99 ) ;
#132 = CARTESIAN_POINT ( 'NONE',  ( 0.000000000000000000, 0.000000000000000000, 3.267717000000000649 ) ) ;
#133 = APPLICATION_PROTOCOL_DEFINITION ( 'draft international standard', 'automotive_design', 1998, #57 ) ;
#134 = DIRECTION ( 'NONE',  ( 0.000000000000000000, 0.000000000000000000, -1.000000000000000000 ) ) ;
#135 =( LENGTH_UNIT ( ) NAMED_UNIT ( * ) SI_UNIT ( $, .METRE. ) );
#136 = VERTEX_POINT ( 'NONE', #98 ) ;
#137 = ORIENTED_EDGE ( 'NONE', *, *, #221, .T. ) ;
#138 = ADVANCED_FACE ( 'NONE', ( #96 ), #44, .T. ) ;
#139 = FACE_OUTER_BOUND ( 'NONE', #183, .T. ) ;
#140 = DIRECTION ( 'NONE',  ( 1.000000000000000000, 0.000000000000000000, -0.000000000000000000 ) ) ;
#141 = AXIS2_PLACEMENT_3D ( 'NONE', #7, #188, #211 ) ;
#142 = CARTESIAN_POINT ( 'NONE',  ( 0.2359842795000000049, 2.889973925387693713E-17, -2.889973925387694330E-17 ) ) ;
#143 = UNCERTAINTY_MEASURE_WITH_UNIT (LENGTH_MEASURE( 1.000000000000000082E-05 ), #181, 'distance_accuracy_value', 'NONE');
#144 = DIRECTION ( 'NONE',  ( -1.000000000000000000, 0.000000000000000000, 0.000000000000000000 ) ) ;
#145 = PRESENTATION_STYLE_ASSIGNMENT (( #120 ) ) ;
#146 = MECHANICAL_DESIGN_GEOMETRIC_PRESENTATION_REPRESENTATION (  '', ( #63 ), #73 ) ;
#147 =( CONVERSION_BASED_UNIT ( 'INCH', #52 ) LENGTH_UNIT ( ) NAMED_UNIT ( #238 ) );
#148 = PRODUCT ( 'Micro_AEMM-120-2X', 'Micro_AEMM-120-2X', '', ( #154 ) ) ;
#149 = DIRECTION ( 'NONE',  ( -1.000000000000000000, 0.000000000000000000, 0.000000000000000000 ) ) ;
#150 = DIRECTION ( 'NONE',  ( 1.000000000000000000, 0.000000000000000000, 0.000000000000000000 ) ) ;
#151 = ADVANCED_FACE ( 'NONE', ( #283 ), #43, .T. ) ;
#152 = DIRECTION ( 'NONE',  ( 0.000000000000000000, 0.000000000000000000, 1.000000000000000000 ) ) ;
#153 = CONICAL_SURFACE ( 'NONE', #15, 0.2359842795000000049, 0.1745329251994338915 ) ;
#154 = PRODUCT_CONTEXT ( 'NONE', #93, 'mechanical' ) ;
#155 =( NAMED_UNIT ( * ) PLANE_ANGLE_UNIT ( ) SI_UNIT ( $, .RADIAN. ) );
#156 = ORIENTED_EDGE ( 'NONE', *, *, #104, .T. ) ;
#157 = CONICAL_SURFACE ( 'NONE', #29, 0.2212205000000019295, 0.7853981633974482790 ) ;
#158 = ORIENTED_EDGE ( 'NONE', *, *, #270, .T. ) ;
#159 = ORIENTED_EDGE ( 'NONE', *, *, #279, .F. ) ;
#160 = LENGTH_MEASURE_WITH_UNIT ( LENGTH_MEASURE( 0.02539999999999999897 ), #135 );
#161 = ADVANCED_FACE ( 'NONE', ( #71 ), #234, .T. ) ;
#162 = ORIENTED_EDGE ( 'NONE', *, *, #27, .T. ) ;
#163 = ORIENTED_EDGE ( 'NONE', *, *, #268, .T. ) ;
#164 = DIMENSIONAL_EXPONENTS ( 1.000000000000000000, 0.000000000000000000, 0.000000000000000000, 0.000000000000000000, 0.000000000000000000, 0.000000000000000000, 0.000000000000000000 ) ;
#165 = CARTESIAN_POINT ( 'NONE',  ( 0.000000000000000000, 0.000000000000000000, 3.267717000000000649 ) ) ;
#166 = AXIS2_PLACEMENT_3D ( 'NONE', #241, #152, #150 ) ;
#167 = LINE ( 'NONE', #142, #186 ) ;
#168 = DIRECTION ( 'NONE',  ( -0.000000000000000000, -0.000000000000000000, -1.000000000000000000 ) ) ;
#169 = CARTESIAN_POINT ( 'NONE',  ( 1.446432783766537492E-16, 0.000000000000000000, 1.181102000000000096 ) ) ;
#170 = CYLINDRICAL_SURFACE ( 'NONE', #267, 0.2362204999999999999 ) ;
#171 = ADVANCED_FACE ( 'NONE', ( #139 ), #153, .T. ) ;
#172 = FACE_OUTER_BOUND ( 'NONE', #252, .T. ) ;
#173 = ORIENTED_EDGE ( 'NONE', *, *, #214, .T. ) ;
#174 = DIRECTION ( 'NONE',  ( -1.224646799147353454E-16, -0.000000000000000000, -1.000000000000000000 ) ) ;
#175 = VECTOR ( 'NONE', #247, 39.37007874015748143 ) ;
#176 = LINE ( 'NONE', #121, #38 ) ;
#177 = ORIENTED_EDGE ( 'NONE', *, *, #67, .F. ) ;
#178 = SURFACE_STYLE_USAGE ( .BOTH. , #271 ) ;
#179 = DIRECTION ( 'NONE',  ( 1.224646799147353454E-16, 0.000000000000000000, 1.000000000000000000 ) ) ;
#180 = AXIS2_PLACEMENT_3D ( 'NONE', #46, #261, #144 ) ;
#181 =( CONVERSION_BASED_UNIT ( 'INCH', #160 ) LENGTH_UNIT ( ) NAMED_UNIT ( #164 ) );
#182 = ORIENTED_EDGE ( 'NONE', *, *, #129, .T. ) ;
#183 = EDGE_LOOP ( 'NONE', ( #16, #201, #226, #105 ) ) ;
#184 = DIMENSIONAL_EXPONENTS ( 1.000000000000000000, 0.000000000000000000, 0.000000000000000000, 0.000000000000000000, 0.000000000000000000, 0.000000000000000000, 0.000000000000000000 ) ;
#185 = ORIENTED_EDGE ( 'NONE', *, *, #41, .F. ) ;
#186 = VECTOR ( 'NONE', #259, 39.37007874015748143 ) ;
#187 = LINE ( 'NONE', #74, #23 ) ;
#188 = DIRECTION ( 'NONE',  ( 0.000000000000000000, 0.000000000000000000, 1.000000000000000000 ) ) ;
#189 = CLOSED_SHELL ( 'NONE', ( #258, #48, #75, #161, #295, #151, #138, #171, #227, #122 ) ) ;
#190 = DIRECTION ( 'NONE',  ( 0.000000000000000000, 0.000000000000000000, -1.000000000000000000 ) ) ;
#191 = DIRECTION ( 'NONE',  ( -1.000000000000000000, 0.000000000000000000, 0.000000000000000000 ) ) ;
#192 = DIRECTION ( 'NONE',  ( 0.7071067811865474617, 8.659560562354932858E-17, -0.7071067811865474617 ) ) ;
#193 = VECTOR ( 'NONE', #192, 39.37007874015748854 ) ;
#194 = DIRECTION ( 'NONE',  ( -1.224646799147353454E-16, -0.000000000000000000, -1.000000000000000000 ) ) ;
#195 = EDGE_LOOP ( 'NONE', ( #60, #19, #158, #37 ) ) ;
#196 = CARTESIAN_POINT ( 'NONE',  ( -0.2359842795000000049, 0.000000000000000000, 5.779947850775388659E-17 ) ) ;
#197 = CARTESIAN_POINT ( 'NONE',  ( -0.2362204999999998611, 0.000000000000000000, 1.182441673027071039 ) ) ;
#198 = STYLED_ITEM ( 'NONE', ( #145 ), #97 ) ;
#199 = AXIS2_PLACEMENT_3D ( 'NONE', #59, #296, #35 ) ;
#200 = PRESENTATION_STYLE_ASSIGNMENT (( #178 ) ) ;
#201 = ORIENTED_EDGE ( 'NONE', *, *, #129, .F. ) ;
#202 = PRODUCT_DEFINITION ( 'UNKNOWN', '', #64, #254 ) ;
#203 = VERTEX_POINT ( 'NONE', #115 ) ;
#204 = ORIENTED_EDGE ( 'NONE', *, *, #210, .T. ) ;
#205 = CIRCLE ( 'NONE', #131, 0.2362204999999999999 ) ;
#206 = VERTEX_POINT ( 'NONE', #4 ) ;
#207 = ORIENTED_EDGE ( 'NONE', *, *, #264, .F. ) ;
#208 = DIRECTION ( 'NONE',  ( 0.000000000000000000, 0.000000000000000000, 1.000000000000000000 ) ) ;
#209 = AXIS2_PLACEMENT_3D ( 'NONE', #132, #2, #89 ) ;
#210 = EDGE_CURVE ( 'NONE', #275, #216, #187, .T. ) ;
#211 = DIRECTION ( 'NONE',  ( 1.000000000000000000, 0.000000000000000000, -0.000000000000000000 ) ) ;
#212 = COLOUR_RGB ( '',0.7921568627450980005, 0.8196078431372548767, 0.9333333333333333481 ) ;
#213 = DIRECTION ( 'NONE',  ( -1.224646799147353454E-16, -0.000000000000000000, -1.000000000000000000 ) ) ;
#214 = EDGE_CURVE ( 'NONE', #88, #274, #51, .T. ) ;
#215 = CARTESIAN_POINT ( 'NONE',  ( -0.2212205000000019295, 0.000000000000000000, 3.267717000000000649 ) ) ;
#216 = VERTEX_POINT ( 'NONE', #197 ) ;
#217 = CARTESIAN_POINT ( 'NONE',  ( 3.539197317345352573E-33, 0.000000000000000000, 2.889973925387694330E-17 ) ) ;
#218 = DIRECTION ( 'NONE',  ( -1.000000000000000000, 0.000000000000000000, 1.224646799147353454E-16 ) ) ;
#219 = ORIENTED_EDGE ( 'NONE', *, *, #117, .T. ) ;
#220 = FACE_OUTER_BOUND ( 'NONE', #14, .T. ) ;
#221 = EDGE_CURVE ( 'NONE', #42, #40, #54, .T. ) ;
#222 = FILL_AREA_STYLE ('',( #110 ) ) ;
#223 = MECHANICAL_DESIGN_GEOMETRIC_PRESENTATION_REPRESENTATION (  '', ( #198 ), #8 ) ;
#224 = EDGE_LOOP ( 'NONE', ( #269, #182, #294, #79 ) ) ;
#225 =( NAMED_UNIT ( * ) SI_UNIT ( $, .STERADIAN. ) SOLID_ANGLE_UNIT ( ) );
#226 = ORIENTED_EDGE ( 'NONE', *, *, #67, .T. ) ;
#227 = ADVANCED_FACE ( 'NONE', ( #127 ), #53, .T. ) ;
#228 = CARTESIAN_POINT ( 'NONE',  ( 1.448073410051043844E-16, 0.000000000000000000, 1.182441673027071039 ) ) ;
#229 = AXIS2_PLACEMENT_3D ( 'NONE', #165, #190, #282 ) ;
#230 = ORIENTED_EDGE ( 'NONE', *, *, #21, .F. ) ;
#231 = DIRECTION ( 'NONE',  ( 1.000000000000000000, 0.000000000000000000, 0.000000000000000000 ) ) ;
#232 = ADVANCED_BREP_SHAPE_REPRESENTATION ( 'Micro_AEMM-120-2X', ( #97, #199 ), #112 ) ;
#233 = UNCERTAINTY_MEASURE_WITH_UNIT (LENGTH_MEASURE( 1.000000000000000082E-05 ), #92, 'distance_accuracy_value', 'NONE');
#234 = CYLINDRICAL_SURFACE ( 'NONE', #81, 0.2362204999999999999 ) ;
#235 = EDGE_CURVE ( 'NONE', #275, #274, #176, .T. ) ;
#236 = CARTESIAN_POINT ( 'NONE',  ( 1.446432783766537492E-16, 0.000000000000000000, 1.181102000000000096 ) ) ;
#237 = AXIS2_PLACEMENT_3D ( 'NONE', #236, #213, #191 ) ;
#238 = DIMENSIONAL_EXPONENTS ( 1.000000000000000000, 0.000000000000000000, 0.000000000000000000, 0.000000000000000000, 0.000000000000000000, 0.000000000000000000, 0.000000000000000000 ) ;
#239 = AXIS2_PLACEMENT_3D ( 'NONE', #85, #179, #298 ) ;
#240 = CARTESIAN_POINT ( 'NONE',  ( 3.539197317345352573E-33, 0.000000000000000000, 2.889973925387694330E-17 ) ) ;
#241 = CARTESIAN_POINT ( 'NONE',  ( 0.000000000000000000, 0.000000000000000000, 3.267717000000000649 ) ) ;
#242 = CARTESIAN_POINT ( 'NONE',  ( 0.000000000000000000, 0.000000000000000000, 3.252717000000002301 ) ) ;
#243 = CARTESIAN_POINT ( 'NONE',  ( 0.2362204999999999999, 2.892866792179872647E-17, 3.267717000000000649 ) ) ;
#244 = DIRECTION ( 'NONE',  ( -1.000000000000000000, 0.000000000000000000, 1.224646799147353454E-16 ) ) ;
#245 = AXIS2_PLACEMENT_3D ( 'NONE', #28, #55, #263 ) ;
#246 = EDGE_LOOP ( 'NONE', ( #162, #31 ) ) ;
#247 = DIRECTION ( 'NONE',  ( 0.1736481776669313859, 0.000000000000000000, 0.9848077530122077983 ) ) ;
#248 = EDGE_LOOP ( 'NONE', ( #83, #173 ) ) ;
#249 = EDGE_CURVE ( 'NONE', #40, #42, #205, .T. ) ;
#250 = UNCERTAINTY_MEASURE_WITH_UNIT (LENGTH_MEASURE( 1.000000000000000082E-05 ), #147, 'distance_accuracy_value', 'NONE');
#251 = CIRCLE ( 'NONE', #209, 0.2212205000000019295 ) ;
#252 = EDGE_LOOP ( 'NONE', ( #17, #219, #207, #62 ) ) ;
#253 = ORIENTED_EDGE ( 'NONE', *, *, #41, .T. ) ;
#254 = PRODUCT_DEFINITION_CONTEXT ( 'detailed design', #57, 'design' ) ;
#255 = FACE_OUTER_BOUND ( 'NONE', #248, .T. ) ;
#256 = DIRECTION ( 'NONE',  ( -1.000000000000000000, 0.000000000000000000, 0.000000000000000000 ) ) ;
#257 = AXIS2_PLACEMENT_3D ( 'NONE', #13, #10, #125 ) ;
#258 = ADVANCED_FACE ( 'NONE', ( #172 ), #287, .T. ) ;
#259 = DIRECTION ( 'NONE',  ( -1.224646799147353454E-16, -0.000000000000000000, -1.000000000000000000 ) ) ;
#260 = PLANE ( 'NONE',  #141 ) ;
#261 = DIRECTION ( 'NONE',  ( -1.224646799147353454E-16, -0.000000000000000000, -1.000000000000000000 ) ) ;
#262 = CIRCLE ( 'NONE', #33, 0.2362204999999999999 ) ;
#263 = DIRECTION ( 'NONE',  ( -1.000000000000000000, 0.000000000000000000, 1.224646799147353454E-16 ) ) ;
#264 = EDGE_CURVE ( 'NONE', #274, #88, #276, .T. ) ;
#265 =( NAMED_UNIT ( * ) PLANE_ANGLE_UNIT ( ) SI_UNIT ( $, .RADIAN. ) );
#266 = LINE ( 'NONE', #103, #193 ) ;
#267 = AXIS2_PLACEMENT_3D ( 'NONE', #123, #102, #149 ) ;
#268 = EDGE_CURVE ( 'NONE', #136, #40, #266, .T. ) ;
#269 = ORIENTED_EDGE ( 'NONE', *, *, #117, .F. ) ;
#270 = EDGE_CURVE ( 'NONE', #108, #42, #286, .T. ) ;
#271 = SURFACE_SIDE_STYLE ('',( #84 ) ) ;
#272 = COLOUR_RGB ( '',0.7921568627450980005, 0.8196078431372548767, 0.9333333333333333481 ) ;
#273 = LINE ( 'NONE', #58, #175 ) ;
#274 = VERTEX_POINT ( 'NONE', #196 ) ;
#275 = VERTEX_POINT ( 'NONE', #76 ) ;
#276 = CIRCLE ( 'NONE', #69, 0.2359842795000000049 ) ;
#277 = LINE ( 'NONE', #109, #101 ) ;
#278 = CARTESIAN_POINT ( 'NONE',  ( 1.448073410051043844E-16, 0.000000000000000000, 1.182441673027071039 ) ) ;
#279 = EDGE_CURVE ( 'NONE', #40, #203, #289, .T. ) ;
#280 = CARTESIAN_POINT ( 'NONE',  ( -0.2212205000000019295, 0.000000000000000000, 3.267717000000000649 ) ) ;
#281 = VECTOR ( 'NONE', #26, 39.37007874015748143 ) ;
#282 = DIRECTION ( 'NONE',  ( -1.000000000000000000, 0.000000000000000000, 0.000000000000000000 ) ) ;
#283 = FACE_OUTER_BOUND ( 'NONE', #246, .T. ) ;
#284 = DIRECTION ( 'NONE',  ( -0.7071067811865474617, 0.000000000000000000, -0.7071067811865474617 ) ) ;
#285 = AXIS2_PLACEMENT_3D ( 'NONE', #228, #20, #231 ) ;
#286 = LINE ( 'NONE', #215, #95 ) ;
#287 = CYLINDRICAL_SURFACE ( 'NONE', #257, 0.2359842795000000049 ) ;
#288 = EDGE_CURVE ( 'NONE', #136, #108, #297, .T. ) ;
#289 = LINE ( 'NONE', #243, #281 ) ;
#290 = CONICAL_SURFACE ( 'NONE', #239, 0.2359842795000000049, 0.1745329251994338915 ) ;
#291 = PRODUCT_RELATED_PRODUCT_CATEGORY ( 'part', '', ( #148 ) ) ;
#292 = DIRECTION ( 'NONE',  ( -0.1736481776669311916, 2.126576849575783316E-17, 0.9848077530122080203 ) ) ;
#293 = ORIENTED_EDGE ( 'NONE', *, *, #288, .F. ) ;
#294 = ORIENTED_EDGE ( 'NONE', *, *, #235, .T. ) ;
#295 = ADVANCED_FACE ( 'NONE', ( #220 ), #170, .T. ) ;
#296 = DIRECTION ( 'NONE',  ( 0.000000000000000000, 0.000000000000000000, 1.000000000000000000 ) ) ;
#297 = CIRCLE ( 'NONE', #166, 0.2212205000000019295 ) ;
#298 = DIRECTION ( 'NONE',  ( 1.000000000000000000, 0.000000000000000000, 0.000000000000000000 ) ) ;
#299 = APPLICATION_PROTOCOL_DEFINITION ( 'draft international standard', 'automotive_design', 1998, #93 ) ;
ENDSEC;
END-ISO-10303-21;
