ISO-10303-21;
HEADER;
FILE_DESCRIPTION (( 'STEP AP214' ),
    '1' );
FILE_NAME ('Micro_EMHM-140-6.STEP',
    '2021-09-01T17:27:15',
    ( '' ),
    ( '' ),
    'SwSTEP 2.0',
    'SolidWorks 2020',
    '' );
FILE_SCHEMA (( 'AUTOMOTIVE_DESIGN' ));
ENDSEC;

DATA;
#1 = DIMENSIONAL_EXPONENTS ( 1.000000000000000000, 0.0000000000000000000, 0.0000000000000000000, 0.0000000000000000000, 0.0000000000000000000, 0.0000000000000000000, 0.0000000000000000000 ) ;
#2 = ORIENTED_EDGE ( 'NONE', *, *, #27, .T. ) ;
#3 = PRESENTATION_STYLE_ASSIGNMENT (( #189 ) ) ;
#4 = DIRECTION ( 'NONE',  ( -1.224646799147353454E-16, -0.0000000000000000000, -1.000000000000000000 ) ) ;
#5 = ORIENTED_EDGE ( 'NONE', *, *, #290, .F. ) ;
#6 = STYLED_ITEM ( 'NONE', ( #3 ), #108 ) ;
#7 = ADVANCED_FACE ( 'NONE', ( #156 ), #8, .T. ) ;
#8 = CYLINDRICAL_SURFACE ( 'NONE', #171, 0.2755905000000000715 ) ;
#9 = ORIENTED_EDGE ( 'NONE', *, *, #254, .T. ) ;
#10 = SURFACE_SIDE_STYLE ('',( #70 ) ) ;
#11 = PRODUCT_DEFINITION_SHAPE ( 'NONE', 'NONE',  #179 ) ;
#12 = ORIENTED_EDGE ( 'NONE', *, *, #157, .F. ) ;
#13 = ORIENTED_EDGE ( 'NONE', *, *, #254, .F. ) ;
#14 = FACE_OUTER_BOUND ( 'NONE', #197, .T. ) ;
#15 = LENGTH_MEASURE_WITH_UNIT ( LENGTH_MEASURE( 0.02539999999999999897 ), #209 );
#16 = DIRECTION ( 'NONE',  ( 0.0000000000000000000, 0.0000000000000000000, 1.000000000000000000 ) ) ;
#17 = CONICAL_SURFACE ( 'NONE', #223, 0.2605905000000014460, 0.7853981633974471688 ) ;
#18 = DIRECTION ( 'NONE',  ( -1.000000000000000000, 0.0000000000000000000, 1.224646799147353207E-16 ) ) ;
#19 = CARTESIAN_POINT ( 'NONE',  ( 0.0000000000000000000, 0.0000000000000000000, 3.267717000000000649 ) ) ;
#20 = CARTESIAN_POINT ( 'NONE',  ( -0.2605905000000014460, 0.0000000000000000000, 3.267717000000000649 ) ) ;
#21 = FACE_OUTER_BOUND ( 'NONE', #191, .T. ) ;
#22 = DIMENSIONAL_EXPONENTS ( 1.000000000000000000, 0.0000000000000000000, 0.0000000000000000000, 0.0000000000000000000, 0.0000000000000000000, 0.0000000000000000000, 0.0000000000000000000 ) ;
#23 = CYLINDRICAL_SURFACE ( 'NONE', #146, 0.2753149094999999824 ) ;
#24 = PRODUCT_CONTEXT ( 'NONE', #132, 'mechanical' ) ;
#25 = ORIENTED_EDGE ( 'NONE', *, *, #261, .F. ) ;
#26 =( LENGTH_UNIT ( ) NAMED_UNIT ( * ) SI_UNIT ( $, .METRE. ) );
#27 = EDGE_CURVE ( 'NONE', #129, #282, #206, .T. ) ;
#28 = AXIS2_PLACEMENT_3D ( 'NONE', #126, #75, #217 ) ;
#29 = CARTESIAN_POINT ( 'NONE',  ( -0.2753149094999998159, 3.371635226767182256E-17, 1.181102000000000096 ) ) ;
#30 = DIRECTION ( 'NONE',  ( -1.000000000000000000, 0.0000000000000000000, 0.0000000000000000000 ) ) ;
#31 = ORIENTED_EDGE ( 'NONE', *, *, #67, .T. ) ;
#32 = EDGE_LOOP ( 'NONE', ( #151, #104 ) ) ;
#33 = DIRECTION ( 'NONE',  ( -0.0000000000000000000, -0.0000000000000000000, -1.000000000000000000 ) ) ;
#34 = EDGE_CURVE ( 'NONE', #271, #205, #136, .T. ) ;
#35 = VERTEX_POINT ( 'NONE', #220 ) ;
#36 = DIRECTION ( 'NONE',  ( 1.224646799147353454E-16, 0.0000000000000000000, 1.000000000000000000 ) ) ;
#37 = DIRECTION ( 'NONE',  ( -1.224646799147353454E-16, -0.0000000000000000000, -1.000000000000000000 ) ) ;
#38 = APPLICATION_PROTOCOL_DEFINITION ( 'draft international standard', 'automotive_design', 1998, #132 ) ;
#39 = PLANE ( 'NONE',  #105 ) ;
#40 = CIRCLE ( 'NONE', #145, 0.2755905000000000715 ) ;
#41 = DIRECTION ( 'NONE',  ( 0.0000000000000000000, 0.0000000000000000000, 1.000000000000000000 ) ) ;
#42 = CARTESIAN_POINT ( 'NONE',  ( 0.2755905000000000715, 3.375010237004186497E-17, 3.267717000000000649 ) ) ;
#43 = DIRECTION ( 'NONE',  ( 0.1736481776669312749, 0.0000000000000000000, 0.9848077530122077983 ) ) ;
#44 =( NAMED_UNIT ( * ) PLANE_ANGLE_UNIT ( ) SI_UNIT ( $, .RADIAN. ) );
#45 = AXIS2_PLACEMENT_3D ( 'NONE', #190, #167, #30 ) ;
#46 = VECTOR ( 'NONE', #226, 39.37007874015748143 ) ;
#47 = CARTESIAN_POINT ( 'NONE',  ( 0.2753149094999999824, 3.371635226767182256E-17, 0.0000000000000000000 ) ) ;
#48 = CARTESIAN_POINT ( 'NONE',  ( 1.446432783766537492E-16, 0.0000000000000000000, 1.181102000000000096 ) ) ;
#49 = SURFACE_STYLE_USAGE ( .BOTH. , #10 ) ;
#50 = CONICAL_SURFACE ( 'NONE', #45, 0.2605905000000014460, 0.7853981633974471688 ) ;
#51 = ORIENTED_EDGE ( 'NONE', *, *, #202, .T. ) ;
#52 = EDGE_LOOP ( 'NONE', ( #165, #31, #51, #176 ) ) ;
#53 = AXIS2_PLACEMENT_3D ( 'NONE', #275, #293, #60 ) ;
#54 = AXIS2_PLACEMENT_3D ( 'NONE', #140, #295, #62 ) ;
#55 = EDGE_CURVE ( 'NONE', #282, #129, #40, .T. ) ;
#56 = FACE_OUTER_BOUND ( 'NONE', #103, .T. ) ;
#57 = ORIENTED_EDGE ( 'NONE', *, *, #257, .T. ) ;
#58 = ORIENTED_EDGE ( 'NONE', *, *, #202, .F. ) ;
#59 = PRESENTATION_LAYER_ASSIGNMENT (  '', '', ( #164 ) ) ;
#60 = DIRECTION ( 'NONE',  ( -1.000000000000000000, 0.0000000000000000000, 0.0000000000000000000 ) ) ;
#61 = LENGTH_MEASURE_WITH_UNIT ( LENGTH_MEASURE( 0.02539999999999999897 ), #160 );
#62 = DIRECTION ( 'NONE',  ( -1.000000000000000000, 0.0000000000000000000, 1.224646799147353207E-16 ) ) ;
#63 = LINE ( 'NONE', #42, #94 ) ;
#64 =( CONVERSION_BASED_UNIT ( 'INCH', #61 ) LENGTH_UNIT ( ) NAMED_UNIT ( #1 ) );
#65 = DIRECTION ( 'NONE',  ( 0.0000000000000000000, 0.0000000000000000000, -1.000000000000000000 ) ) ;
#66 = AXIS2_PLACEMENT_3D ( 'NONE', #192, #69, #242 ) ;
#67 = EDGE_CURVE ( 'NONE', #270, #219, #71, .T. ) ;
#68 = FACE_OUTER_BOUND ( 'NONE', #289, .T. ) ;
#69 = DIRECTION ( 'NONE',  ( -0.0000000000000000000, -0.0000000000000000000, -1.000000000000000000 ) ) ;
#70 = SURFACE_STYLE_FILL_AREA ( #128 ) ;
#71 = CIRCLE ( 'NONE', #247, 0.2755905000000000715 ) ;
#72 = ORIENTED_EDGE ( 'NONE', *, *, #98, .T. ) ;
#73 = ORIENTED_EDGE ( 'NONE', *, *, #196, .F. ) ;
#74 = ORIENTED_EDGE ( 'NONE', *, *, #118, .T. ) ;
#75 = DIRECTION ( 'NONE',  ( 0.0000000000000000000, 0.0000000000000000000, 1.000000000000000000 ) ) ;
#76 = CIRCLE ( 'NONE', #53, 0.2753149094999999824 ) ;
#77 = CIRCLE ( 'NONE', #54, 0.2753149094999999824 ) ;
#78 = EDGE_LOOP ( 'NONE', ( #288, #57 ) ) ;
#79 = PRODUCT ( 'Micro_EMHM-140-6', 'Micro_EMHM-140-6', '', ( #24 ) ) ;
#80 = ORIENTED_EDGE ( 'NONE', *, *, #166, .F. ) ;
#81 = ADVANCED_FACE ( 'NONE', ( #14 ), #17, .T. ) ;
#82 = ORIENTED_EDGE ( 'NONE', *, *, #143, .T. ) ;
#83 = AXIS2_PLACEMENT_3D ( 'NONE', #48, #144, #234 ) ;
#84 = PRESENTATION_LAYER_ASSIGNMENT (  '', '', ( #6 ) ) ;
#85 = CARTESIAN_POINT ( 'NONE',  ( 0.2753149094999999824, 3.371635226767182256E-17, -3.371635226767182256E-17 ) ) ;
#86 =( NAMED_UNIT ( * ) SI_UNIT ( $, .STERADIAN. ) SOLID_ANGLE_UNIT ( ) );
#87 = LINE ( 'NONE', #20, #120 ) ;
#88 = LINE ( 'NONE', #85, #46 ) ;
#89 = VECTOR ( 'NONE', #4, 39.37007874015748143 ) ;
#90 = VECTOR ( 'NONE', #91, 39.37007874015748143 ) ;
#91 = DIRECTION ( 'NONE',  ( 0.7071067811865466846, 8.659560562354922997E-17, -0.7071067811865483499 ) ) ;
#92 = CARTESIAN_POINT ( 'NONE',  ( 0.2753149095000000934, 0.0000000000000000000, 1.181102000000000096 ) ) ;
#93 = PRODUCT_RELATED_PRODUCT_CATEGORY ( 'part', '', ( #79 ) ) ;
#94 = VECTOR ( 'NONE', #116, 39.37007874015748143 ) ;
#95 = ADVANCED_FACE ( 'NONE', ( #56 ), #272, .T. ) ;
#96 = ORIENTED_EDGE ( 'NONE', *, *, #257, .F. ) ;
#97 = LINE ( 'NONE', #29, #218 ) ;
#98 = EDGE_CURVE ( 'NONE', #259, #35, #76, .T. ) ;
#99 = PRESENTATION_STYLE_ASSIGNMENT (( #49 ) ) ;
#100 = SURFACE_SIDE_STYLE ('',( #208 ) ) ;
#101 = AXIS2_PLACEMENT_3D ( 'NONE', #210, #258, #260 ) ;
#102 = ORIENTED_EDGE ( 'NONE', *, *, #166, .T. ) ;
#103 = EDGE_LOOP ( 'NONE', ( #195, #267, #9, #292 ) ) ;
#104 = ORIENTED_EDGE ( 'NONE', *, *, #290, .T. ) ;
#105 = AXIS2_PLACEMENT_3D ( 'NONE', #19, #135, #141 ) ;
#106 = UNCERTAINTY_MEASURE_WITH_UNIT (LENGTH_MEASURE( 1.000000000000000082E-05 ), #110, 'distance_accuracy_value', 'NONE');
#107 = DIRECTION ( 'NONE',  ( 0.0000000000000000000, 0.0000000000000000000, -1.000000000000000000 ) ) ;
#108 = ADVANCED_BREP_SHAPE_REPRESENTATION ( 'Micro_EMHM-140-6', ( #153, #101 ), #279 ) ;
#109 = CARTESIAN_POINT ( 'NONE',  ( 0.0000000000000000000, 0.0000000000000000000, 3.267717000000000649 ) ) ;
#110 =( CONVERSION_BASED_UNIT ( 'INCH', #15 ) LENGTH_UNIT ( ) NAMED_UNIT ( #22 ) );
#111 = DIRECTION ( 'NONE',  ( 1.000000000000000000, 0.0000000000000000000, 0.0000000000000000000 ) ) ;
#112 = AXIS2_PLACEMENT_3D ( 'NONE', #177, #37, #243 ) ;
#113 = PRODUCT_DEFINITION_FORMATION_WITH_SPECIFIED_SOURCE ( 'ANY', '', #79, .NOT_KNOWN. ) ;
#114 = ADVANCED_FACE ( 'NONE', ( #256 ), #233, .T. ) ;
#115 = PLANE ( 'NONE',  #200 ) ;
#116 = DIRECTION ( 'NONE',  ( -0.0000000000000000000, -0.0000000000000000000, -1.000000000000000000 ) ) ;
#117 = CARTESIAN_POINT ( 'NONE',  ( 0.0000000000000000000, 0.0000000000000000000, 3.252717000000001857 ) ) ;
#118 = EDGE_CURVE ( 'NONE', #270, #282, #63, .T. ) ;
#119 = ORIENTED_EDGE ( 'NONE', *, *, #27, .F. ) ;
#120 = VECTOR ( 'NONE', #240, 39.37007874015748143 ) ;
#121 = APPLICATION_PROTOCOL_DEFINITION ( 'draft international standard', 'automotive_design', 1998, #168 ) ;
#122 = CIRCLE ( 'NONE', #241, 0.2753149094999999824 ) ;
#123 =( NAMED_UNIT ( * ) PLANE_ANGLE_UNIT ( ) SI_UNIT ( $, .RADIAN. ) );
#124 = EDGE_LOOP ( 'NONE', ( #149, #74, #119, #58 ) ) ;
#125 = FACE_OUTER_BOUND ( 'NONE', #249, .T. ) ;
#126 = CARTESIAN_POINT ( 'NONE',  ( 0.0000000000000000000, 0.0000000000000000000, 3.267717000000000649 ) ) ;
#127 = DIRECTION ( 'NONE',  ( -1.224646799147353454E-16, -0.0000000000000000000, -1.000000000000000000 ) ) ;
#128 = FILL_AREA_STYLE ('',( #244 ) ) ;
#129 = VERTEX_POINT ( 'NONE', #162 ) ;
#130 = VERTEX_POINT ( 'NONE', #181 ) ;
#131 = CIRCLE ( 'NONE', #248, 0.2755905000000000715 ) ;
#132 = APPLICATION_CONTEXT ( 'automotive_design' ) ;
#133 = DIRECTION ( 'NONE',  ( -1.000000000000000000, 0.0000000000000000000, 0.0000000000000000000 ) ) ;
#134 = DIRECTION ( 'NONE',  ( -1.224646799147353454E-16, -0.0000000000000000000, -1.000000000000000000 ) ) ;
#135 = DIRECTION ( 'NONE',  ( 0.0000000000000000000, 0.0000000000000000000, 1.000000000000000000 ) ) ;
#136 = CIRCLE ( 'NONE', #28, 0.2605905000000014460 ) ;
#137 = ADVANCED_FACE ( 'NONE', ( #139 ), #173, .T. ) ;
#138 = DIRECTION ( 'NONE',  ( 1.000000000000000000, 0.0000000000000000000, -0.0000000000000000000 ) ) ;
#139 = FACE_OUTER_BOUND ( 'NONE', #214, .T. ) ;
#140 = CARTESIAN_POINT ( 'NONE',  ( 4.129062288352891690E-33, 0.0000000000000000000, 3.371635226767182256E-17 ) ) ;
#141 = DIRECTION ( 'NONE',  ( 1.000000000000000000, 0.0000000000000000000, -0.0000000000000000000 ) ) ;
#142 =( GEOMETRIC_REPRESENTATION_CONTEXT ( 3 ) GLOBAL_UNCERTAINTY_ASSIGNED_CONTEXT ( ( #106 ) ) GLOBAL_UNIT_ASSIGNED_CONTEXT ( ( #110, #188, #187 ) ) REPRESENTATION_CONTEXT ( 'NONE', 'WORKASPACE' ) );
#143 = EDGE_CURVE ( 'NONE', #271, #219, #87, .T. ) ;
#144 = DIRECTION ( 'NONE',  ( -1.224646799147353454E-16, -0.0000000000000000000, -1.000000000000000000 ) ) ;
#145 = AXIS2_PLACEMENT_3D ( 'NONE', #175, #127, #216 ) ;
#146 = AXIS2_PLACEMENT_3D ( 'NONE', #230, #266, #204 ) ;
#147 = LENGTH_MEASURE_WITH_UNIT ( LENGTH_MEASURE( 0.02539999999999999897 ), #26 );
#148 = ORIENTED_EDGE ( 'NONE', *, *, #235, .T. ) ;
#149 = ORIENTED_EDGE ( 'NONE', *, *, #261, .T. ) ;
#150 =( GEOMETRIC_REPRESENTATION_CONTEXT ( 3 ) GLOBAL_UNCERTAINTY_ASSIGNED_CONTEXT ( ( #231 ) ) GLOBAL_UNIT_ASSIGNED_CONTEXT ( ( #236, #123, #232 ) ) REPRESENTATION_CONTEXT ( 'NONE', 'WORKASPACE' ) );
#151 = ORIENTED_EDGE ( 'NONE', *, *, #215, .T. ) ;
#152 = CARTESIAN_POINT ( 'NONE',  ( 1.446432783766537492E-16, 0.0000000000000000000, 1.181102000000000096 ) ) ;
#153 = MANIFOLD_SOLID_BREP ( 'Cut-Revolve1', #155 ) ;
#154 = ADVANCED_FACE ( 'NONE', ( #68 ), #50, .T. ) ;
#155 = CLOSED_SHELL ( 'NONE', ( #194, #137, #154, #114, #7, #250, #81, #95, #239, #274 ) ) ;
#156 = FACE_OUTER_BOUND ( 'NONE', #52, .T. ) ;
#157 = EDGE_CURVE ( 'NONE', #35, #130, #286, .T. ) ;
#158 = VERTEX_POINT ( 'NONE', #47 ) ;
#159 = ORIENTED_EDGE ( 'NONE', *, *, #196, .T. ) ;
#160 =( LENGTH_UNIT ( ) NAMED_UNIT ( * ) SI_UNIT ( $, .METRE. ) );
#161 = CARTESIAN_POINT ( 'NONE',  ( 0.2755905000000000715, 3.375010237004186497E-17, 3.252717000000001857 ) ) ;
#162 = CARTESIAN_POINT ( 'NONE',  ( -0.2755904999999999050, 0.0000000000000000000, 1.182664951392309760 ) ) ;
#163 = LINE ( 'NONE', #276, #90 ) ;
#164 = STYLED_ITEM ( 'NONE', ( #99 ), #153 ) ;
#165 = ORIENTED_EDGE ( 'NONE', *, *, #118, .F. ) ;
#166 = EDGE_CURVE ( 'NONE', #35, #259, #212, .T. ) ;
#167 = DIRECTION ( 'NONE',  ( 0.0000000000000000000, 0.0000000000000000000, -1.000000000000000000 ) ) ;
#168 = APPLICATION_CONTEXT ( 'automotive_design' ) ;
#169 = ORIENTED_EDGE ( 'NONE', *, *, #34, .F. ) ;
#170 = EDGE_CURVE ( 'NONE', #35, #129, #97, .T. ) ;
#171 = AXIS2_PLACEMENT_3D ( 'NONE', #193, #33, #133 ) ;
#172 = ORIENTED_EDGE ( 'NONE', *, *, #157, .T. ) ;
#173 = CONICAL_SURFACE ( 'NONE', #268, 0.2753149094999999824, 0.1745329251994337805 ) ;
#174 = DIRECTION ( 'NONE',  ( 1.000000000000000000, 0.0000000000000000000, 0.0000000000000000000 ) ) ;
#175 = CARTESIAN_POINT ( 'NONE',  ( 1.448346847186352535E-16, 0.0000000000000000000, 1.182664951392309760 ) ) ;
#176 = ORIENTED_EDGE ( 'NONE', *, *, #55, .F. ) ;
#177 = CARTESIAN_POINT ( 'NONE',  ( 1.448346847186352535E-16, 0.0000000000000000000, 1.182664951392309760 ) ) ;
#178 = FACE_OUTER_BOUND ( 'NONE', #32, .T. ) ;
#179 = PRODUCT_DEFINITION ( 'UNKNOWN', '', #113, #186 ) ;
#180 = DIRECTION ( 'NONE',  ( -1.000000000000000000, 0.0000000000000000000, 1.224646799147353207E-16 ) ) ;
#181 = CARTESIAN_POINT ( 'NONE',  ( -0.2753149094999999824, 0.0000000000000000000, 6.743270453534364513E-17 ) ) ;
#182 = CARTESIAN_POINT ( 'NONE',  ( -0.2755905000000000715, 0.0000000000000000000, 3.267717000000000649 ) ) ;
#183 = FACE_OUTER_BOUND ( 'NONE', #78, .T. ) ;
#184 = CARTESIAN_POINT ( 'NONE',  ( 0.2755905000000001825, 3.375010237004187729E-17, 1.182664951392309760 ) ) ;
#185 = AXIS2_PLACEMENT_3D ( 'NONE', #152, #36, #245 ) ;
#186 = PRODUCT_DEFINITION_CONTEXT ( 'detailed design', #168, 'design' ) ;
#187 =( NAMED_UNIT ( * ) SI_UNIT ( $, .STERADIAN. ) SOLID_ANGLE_UNIT ( ) );
#188 =( NAMED_UNIT ( * ) PLANE_ANGLE_UNIT ( ) SI_UNIT ( $, .RADIAN. ) );
#189 = SURFACE_STYLE_USAGE ( .BOTH. , #100 ) ;
#190 = CARTESIAN_POINT ( 'NONE',  ( 0.0000000000000000000, 0.0000000000000000000, 3.267717000000000649 ) ) ;
#191 = EDGE_LOOP ( 'NONE', ( #211, #72, #172, #5 ) ) ;
#192 = CARTESIAN_POINT ( 'NONE',  ( 0.0000000000000000000, 0.0000000000000000000, 3.267717000000000649 ) ) ;
#193 = CARTESIAN_POINT ( 'NONE',  ( 0.0000000000000000000, 0.0000000000000000000, 3.267717000000000649 ) ) ;
#194 = ADVANCED_FACE ( 'NONE', ( #125 ), #23, .T. ) ;
#195 = ORIENTED_EDGE ( 'NONE', *, *, #170, .F. ) ;
#196 = EDGE_CURVE ( 'NONE', #205, #270, #163, .T. ) ;
#197 = EDGE_LOOP ( 'NONE', ( #73, #169, #82, #237 ) ) ;
#198 = DIRECTION ( 'NONE',  ( -1.000000000000000000, 0.0000000000000000000, 0.0000000000000000000 ) ) ;
#199 = CARTESIAN_POINT ( 'NONE',  ( 0.0000000000000000000, 0.0000000000000000000, 0.0000000000000000000 ) ) ;
#200 = AXIS2_PLACEMENT_3D ( 'NONE', #199, #41, #138 ) ;
#201 = CARTESIAN_POINT ( 'NONE',  ( 0.2753149095000000934, 0.0000000000000000000, 1.181102000000000096 ) ) ;
#202 = EDGE_CURVE ( 'NONE', #219, #129, #252, .T. ) ;
#203 = CARTESIAN_POINT ( 'NONE',  ( 0.2605905000000014460, 3.283161727068144454E-17, 3.267717000000000649 ) ) ;
#204 = DIRECTION ( 'NONE',  ( -1.000000000000000000, 0.0000000000000000000, 1.224646799147353207E-16 ) ) ;
#205 = VERTEX_POINT ( 'NONE', #203 ) ;
#206 = CIRCLE ( 'NONE', #112, 0.2755905000000000715 ) ;
#207 = VECTOR ( 'NONE', #43, 39.37007874015748143 ) ;
#208 = SURFACE_STYLE_FILL_AREA ( #262 ) ;
#209 =( LENGTH_UNIT ( ) NAMED_UNIT ( * ) SI_UNIT ( $, .METRE. ) );
#210 = CARTESIAN_POINT ( 'NONE',  ( 0.0000000000000000000, 0.0000000000000000000, 0.0000000000000000000 ) ) ;
#211 = ORIENTED_EDGE ( 'NONE', *, *, #235, .F. ) ;
#212 = CIRCLE ( 'NONE', #83, 0.2753149094999999824 ) ;
#213 = AXIS2_PLACEMENT_3D ( 'NONE', #224, #134, #180 ) ;
#214 = EDGE_LOOP ( 'NONE', ( #80, #287, #2, #13 ) ) ;
#215 = EDGE_CURVE ( 'NONE', #130, #158, #77, .T. ) ;
#216 = DIRECTION ( 'NONE',  ( 1.000000000000000000, 0.0000000000000000000, 0.0000000000000000000 ) ) ;
#217 = DIRECTION ( 'NONE',  ( 1.000000000000000000, 0.0000000000000000000, 0.0000000000000000000 ) ) ;
#218 = VECTOR ( 'NONE', #265, 39.37007874015748854 ) ;
#219 = VERTEX_POINT ( 'NONE', #298 ) ;
#220 = CARTESIAN_POINT ( 'NONE',  ( -0.2753149094999998159, 3.373322731885684685E-17, 1.181102000000000096 ) ) ;
#221 = CARTESIAN_POINT ( 'NONE',  ( -0.2605905000000014460, 0.0000000000000000000, 3.267717000000000649 ) ) ;
#222 = CARTESIAN_POINT ( 'NONE',  ( 0.0000000000000000000, 0.0000000000000000000, 3.267717000000000649 ) ) ;
#223 = AXIS2_PLACEMENT_3D ( 'NONE', #109, #269, #198 ) ;
#224 = CARTESIAN_POINT ( 'NONE',  ( 0.0000000000000000000, 0.0000000000000000000, 0.0000000000000000000 ) ) ;
#225 = CARTESIAN_POINT ( 'NONE',  ( 1.446432783766537492E-16, 0.0000000000000000000, 1.181102000000000096 ) ) ;
#226 = DIRECTION ( 'NONE',  ( -1.224646799147353454E-16, -0.0000000000000000000, -1.000000000000000000 ) ) ;
#227 = DIMENSIONAL_EXPONENTS ( 1.000000000000000000, 0.0000000000000000000, 0.0000000000000000000, 0.0000000000000000000, 0.0000000000000000000, 0.0000000000000000000, 0.0000000000000000000 ) ;
#228 = DIRECTION ( 'NONE',  ( -1.224646799147353454E-16, -0.0000000000000000000, -1.000000000000000000 ) ) ;
#229 = MECHANICAL_DESIGN_GEOMETRIC_PRESENTATION_REPRESENTATION (  '', ( #164 ), #142 ) ;
#230 = CARTESIAN_POINT ( 'NONE',  ( 0.0000000000000000000, 0.0000000000000000000, 0.0000000000000000000 ) ) ;
#231 = UNCERTAINTY_MEASURE_WITH_UNIT (LENGTH_MEASURE( 1.000000000000000082E-05 ), #236, 'distance_accuracy_value', 'NONE');
#232 =( NAMED_UNIT ( * ) SI_UNIT ( $, .STERADIAN. ) SOLID_ANGLE_UNIT ( ) );
#233 = CYLINDRICAL_SURFACE ( 'NONE', #66, 0.2755905000000000715 ) ;
#234 = DIRECTION ( 'NONE',  ( -1.000000000000000000, 0.0000000000000000000, 0.0000000000000000000 ) ) ;
#235 = EDGE_CURVE ( 'NONE', #259, #158, #88, .T. ) ;
#236 =( CONVERSION_BASED_UNIT ( 'INCH', #147 ) LENGTH_UNIT ( ) NAMED_UNIT ( #227 ) );
#237 = ORIENTED_EDGE ( 'NONE', *, *, #67, .F. ) ;
#238 = ORIENTED_EDGE ( 'NONE', *, *, #143, .F. ) ;
#239 = ADVANCED_FACE ( 'NONE', ( #21 ), #251, .T. ) ;
#240 = DIRECTION ( 'NONE',  ( -0.7071067811865466846, 0.0000000000000000000, -0.7071067811865483499 ) ) ;
#241 = AXIS2_PLACEMENT_3D ( 'NONE', #278, #228, #18 ) ;
#242 = DIRECTION ( 'NONE',  ( -1.000000000000000000, 0.0000000000000000000, 0.0000000000000000000 ) ) ;
#243 = DIRECTION ( 'NONE',  ( 1.000000000000000000, 0.0000000000000000000, 0.0000000000000000000 ) ) ;
#244 = FILL_AREA_STYLE_COLOUR ( '', #283 ) ;
#245 = DIRECTION ( 'NONE',  ( 1.000000000000000000, 0.0000000000000000000, 0.0000000000000000000 ) ) ;
#246 = CARTESIAN_POINT ( 'NONE',  ( 0.0000000000000000000, 0.0000000000000000000, 3.252717000000001857 ) ) ;
#247 = AXIS2_PLACEMENT_3D ( 'NONE', #246, #107, #174 ) ;
#248 = AXIS2_PLACEMENT_3D ( 'NONE', #117, #65, #111 ) ;
#249 = EDGE_LOOP ( 'NONE', ( #102, #148, #264, #12 ) ) ;
#250 = ADVANCED_FACE ( 'NONE', ( #183 ), #39, .T. ) ;
#251 = CYLINDRICAL_SURFACE ( 'NONE', #213, 0.2753149094999999824 ) ;
#252 = LINE ( 'NONE', #182, #294 ) ;
#253 = AXIS2_PLACEMENT_3D ( 'NONE', #222, #16, #280 ) ;
#254 = EDGE_CURVE ( 'NONE', #259, #282, #297, .T. ) ;
#255 = DIRECTION ( 'NONE',  ( -0.0000000000000000000, -0.0000000000000000000, -1.000000000000000000 ) ) ;
#256 = FACE_OUTER_BOUND ( 'NONE', #124, .T. ) ;
#257 = EDGE_CURVE ( 'NONE', #205, #271, #299, .T. ) ;
#258 = DIRECTION ( 'NONE',  ( 0.0000000000000000000, 0.0000000000000000000, 1.000000000000000000 ) ) ;
#259 = VERTEX_POINT ( 'NONE', #201 ) ;
#260 = DIRECTION ( 'NONE',  ( 1.000000000000000000, 0.0000000000000000000, 0.0000000000000000000 ) ) ;
#261 = EDGE_CURVE ( 'NONE', #219, #270, #131, .T. ) ;
#262 = FILL_AREA_STYLE ('',( #263 ) ) ;
#263 = FILL_AREA_STYLE_COLOUR ( '', #284 ) ;
#264 = ORIENTED_EDGE ( 'NONE', *, *, #215, .F. ) ;
#265 = DIRECTION ( 'NONE',  ( -0.1736481776669310528, 2.126576849575781776E-17, 0.9848077530122080203 ) ) ;
#266 = DIRECTION ( 'NONE',  ( -1.224646799147353454E-16, -0.0000000000000000000, -1.000000000000000000 ) ) ;
#267 = ORIENTED_EDGE ( 'NONE', *, *, #98, .F. ) ;
#268 = AXIS2_PLACEMENT_3D ( 'NONE', #225, #296, #277 ) ;
#269 = DIRECTION ( 'NONE',  ( 0.0000000000000000000, 0.0000000000000000000, -1.000000000000000000 ) ) ;
#270 = VERTEX_POINT ( 'NONE', #161 ) ;
#271 = VERTEX_POINT ( 'NONE', #221 ) ;
#272 = CONICAL_SURFACE ( 'NONE', #185, 0.2753149094999999824, 0.1745329251994337805 ) ;
#273 = MECHANICAL_DESIGN_GEOMETRIC_PRESENTATION_REPRESENTATION (  '', ( #6 ), #150 ) ;
#274 = ADVANCED_FACE ( 'NONE', ( #178 ), #115, .F. ) ;
#275 = CARTESIAN_POINT ( 'NONE',  ( 1.446432783766537492E-16, 0.0000000000000000000, 1.181102000000000096 ) ) ;
#276 = CARTESIAN_POINT ( 'NONE',  ( 0.2605905000000014460, 3.191313217132101795E-17, 3.267717000000000649 ) ) ;
#277 = DIRECTION ( 'NONE',  ( 1.000000000000000000, 0.0000000000000000000, 0.0000000000000000000 ) ) ;
#278 = CARTESIAN_POINT ( 'NONE',  ( 4.129062288352891690E-33, 0.0000000000000000000, 3.371635226767182256E-17 ) ) ;
#279 =( GEOMETRIC_REPRESENTATION_CONTEXT ( 3 ) GLOBAL_UNCERTAINTY_ASSIGNED_CONTEXT ( ( #291 ) ) GLOBAL_UNIT_ASSIGNED_CONTEXT ( ( #64, #44, #86 ) ) REPRESENTATION_CONTEXT ( 'NONE', 'WORKASPACE' ) );
#280 = DIRECTION ( 'NONE',  ( 1.000000000000000000, 0.0000000000000000000, 0.0000000000000000000 ) ) ;
#281 = CARTESIAN_POINT ( 'NONE',  ( -0.2753149094999999824, 0.0000000000000000000, 3.371635226767182256E-17 ) ) ;
#282 = VERTEX_POINT ( 'NONE', #184 ) ;
#283 = COLOUR_RGB ( '',0.7921568627450980005, 0.8196078431372548767, 0.9333333333333333481 ) ;
#284 = COLOUR_RGB ( '',0.7921568627450980005, 0.8196078431372548767, 0.9333333333333333481 ) ;
#285 = SHAPE_DEFINITION_REPRESENTATION ( #11, #108 ) ;
#286 = LINE ( 'NONE', #281, #89 ) ;
#287 = ORIENTED_EDGE ( 'NONE', *, *, #170, .T. ) ;
#288 = ORIENTED_EDGE ( 'NONE', *, *, #34, .T. ) ;
#289 = EDGE_LOOP ( 'NONE', ( #96, #159, #25, #238 ) ) ;
#290 = EDGE_CURVE ( 'NONE', #158, #130, #122, .T. ) ;
#291 = UNCERTAINTY_MEASURE_WITH_UNIT (LENGTH_MEASURE( 1.000000000000000082E-05 ), #64, 'distance_accuracy_value', 'NONE');
#292 = ORIENTED_EDGE ( 'NONE', *, *, #55, .T. ) ;
#293 = DIRECTION ( 'NONE',  ( -1.224646799147353454E-16, -0.0000000000000000000, -1.000000000000000000 ) ) ;
#294 = VECTOR ( 'NONE', #255, 39.37007874015748143 ) ;
#295 = DIRECTION ( 'NONE',  ( -1.224646799147353454E-16, -0.0000000000000000000, -1.000000000000000000 ) ) ;
#296 = DIRECTION ( 'NONE',  ( 1.224646799147353454E-16, 0.0000000000000000000, 1.000000000000000000 ) ) ;
#297 = LINE ( 'NONE', #92, #207 ) ;
#298 = CARTESIAN_POINT ( 'NONE',  ( -0.2755905000000000715, 0.0000000000000000000, 3.252717000000001857 ) ) ;
#299 = CIRCLE ( 'NONE', #253, 0.2605905000000014460 ) ;
ENDSEC;
END-ISO-10303-21;
