ISO-10303-21;
HEADER;
FILE_DESCRIPTION (( 'STEP AP214' ),
    '1' );
FILE_NAME ('59656.STEP',
    '2023-07-24T15:51:55',
    ( '' ),
    ( '' ),
    'SwSTEP 2.0',
    'SolidWorks 2023',
    '' );
FILE_SCHEMA (( 'AUTOMOTIVE_DESIGN' ));
ENDSEC;

DATA;
#1 = EDGE_LOOP ( 'NONE', ( #66, #168, #224, #26 ) ) ;
#2 = AXIS2_PLACEMENT_3D ( 'NONE', #17, #61, #278 ) ;
#3 = CYLINDRICAL_SURFACE ( 'NONE', #275, 5.000000000000000000 ) ;
#4 = CYLINDRICAL_SURFACE ( 'NONE', #203, 4.999999999999998224 ) ;
#5 = EDGE_CURVE ( 'NONE', #252, #171, #216, .T. ) ;
#6 =( LENGTH_UNIT ( ) NAMED_UNIT ( * ) SI_UNIT ( .MILLI., .METRE. ) );
#7 = AXIS2_PLACEMENT_3D ( 'NONE', #206, #30, #255 ) ;
#8 =( NAMED_UNIT ( * ) SI_UNIT ( $, .STERADIAN. ) SOLID_ANGLE_UNIT ( ) );
#9 = FILL_AREA_STYLE_COLOUR ( '', #225 ) ;
#10 = ADVANCED_FACE ( 'NONE', ( #94 ), #4, .T. ) ;
#11 = UNCERTAINTY_MEASURE_WITH_UNIT (LENGTH_MEASURE( 1.000000000000000082E-05 ), #6, 'distance_accuracy_value', 'NONE');
#12 = CARTESIAN_POINT ( 'NONE',  ( 0.000000000000000000, 0.000000000000000000, 0.000000000000000000 ) ) ;
#13 = FILL_AREA_STYLE ('',( #207 ) ) ;
#14 = DIRECTION ( 'NONE',  ( -0.000000000000000000, -1.000000000000000000, -0.000000000000000000 ) ) ;
#15 = CIRCLE ( 'NONE', #115, 5.000000000000000000 ) ;
#16 = MECHANICAL_DESIGN_GEOMETRIC_PRESENTATION_REPRESENTATION (  '', ( #100 ), #277 ) ;
#17 = CARTESIAN_POINT ( 'NONE',  ( 3.184081677783117402E-15, 63.00000000000000000, 0.000000000000000000 ) ) ;
#18 = ADVANCED_FACE ( 'NONE', ( #198 ), #3, .T. ) ;
#19 = PRESENTATION_STYLE_ASSIGNMENT (( #59 ) ) ;
#20 = CARTESIAN_POINT ( 'NONE',  ( -4.999999999999994671, 63.00000000000000000, 0.000000000000000000 ) ) ;
#21 = CIRCLE ( 'NONE', #287, 5.000000000000000000 ) ;
#22 = PRESENTATION_LAYER_ASSIGNMENT (  '', '', ( #172 ) ) ;
#23 = CARTESIAN_POINT ( 'NONE',  ( 6.123233995736766282E-16, 0.000000000000000000, 5.000000000000000000 ) ) ;
#24 = CLOSED_SHELL ( 'NONE', ( #31, #284, #18, #274 ) ) ;
#25 = DIRECTION ( 'NONE',  ( -1.000000000000000000, 0.000000000000000000, 0.000000000000000000 ) ) ;
#26 = ORIENTED_EDGE ( 'NONE', *, *, #234, .F. ) ;
#27 =( GEOMETRIC_REPRESENTATION_CONTEXT ( 3 ) GLOBAL_UNCERTAINTY_ASSIGNED_CONTEXT ( ( #249 ) ) GLOBAL_UNIT_ASSIGNED_CONTEXT ( ( #260, #159, #214 ) ) REPRESENTATION_CONTEXT ( 'NONE', 'WORKASPACE' ) );
#28 = EDGE_CURVE ( 'NONE', #268, #63, #72, .T. ) ;
#29 = ORIENTED_EDGE ( 'NONE', *, *, #186, .F. ) ;
#30 = DIRECTION ( 'NONE',  ( 7.404841111123529214E-17, 1.000000000000000000, -0.000000000000000000 ) ) ;
#31 = ADVANCED_FACE ( 'NONE', ( #101 ), #57, .T. ) ;
#32 = APPLICATION_PROTOCOL_DEFINITION ( 'draft international standard', 'automotive_design', 1998, #262 ) ;
#33 = SURFACE_SIDE_STYLE ('',( #39 ) ) ;
#34 = DIRECTION ( 'NONE',  ( 0.000000000000000000, -0.000000000000000000, 1.000000000000000000 ) ) ;
#35 = EDGE_LOOP ( 'NONE', ( #129, #270 ) ) ;
#36 = VECTOR ( 'NONE', #218, 1000.000000000000000 ) ;
#37 =( GEOMETRIC_REPRESENTATION_CONTEXT ( 3 ) GLOBAL_UNCERTAINTY_ASSIGNED_CONTEXT ( ( #11 ) ) GLOBAL_UNIT_ASSIGNED_CONTEXT ( ( #6, #276, #124 ) ) REPRESENTATION_CONTEXT ( 'NONE', 'WORKASPACE' ) );
#38 = DIRECTION ( 'NONE',  ( -0.000000000000000000, -1.000000000000000000, -0.000000000000000000 ) ) ;
#39 = SURFACE_STYLE_FILL_AREA ( #136 ) ;
#40 = SURFACE_SIDE_STYLE ('',( #183 ) ) ;
#41 = CLOSED_SHELL ( 'NONE', ( #45, #85, #10, #88 ) ) ;
#42 =( NAMED_UNIT ( * ) PLANE_ANGLE_UNIT ( ) SI_UNIT ( $, .RADIAN. ) );
#43 = EDGE_CURVE ( 'NONE', #165, #171, #258, .T. ) ;
#44 = VECTOR ( 'NONE', #64, 1000.000000000000000 ) ;
#45 = ADVANCED_FACE ( 'NONE', ( #58 ), #84, .T. ) ;
#46 = CARTESIAN_POINT ( 'NONE',  ( 0.000000000000000000, 20.00000000000000000, 0.000000000000000000 ) ) ;
#47 = STYLED_ITEM ( 'NONE', ( #173 ), #18 ) ;
#48 = EDGE_LOOP ( 'NONE', ( #65, #197, #170, #98 ) ) ;
#49 = ORIENTED_EDGE ( 'NONE', *, *, #149, .T. ) ;
#50 =( LENGTH_UNIT ( ) NAMED_UNIT ( * ) SI_UNIT ( .MILLI., .METRE. ) );
#51 = CIRCLE ( 'NONE', #210, 5.000000000000000000 ) ;
#52 = CARTESIAN_POINT ( 'NONE',  ( 0.000000000000000000, 0.000000000000000000, 0.000000000000000000 ) ) ;
#53 = DIRECTION ( 'NONE',  ( 0.000000000000000000, 0.000000000000000000, -1.000000000000000000 ) ) ;
#54 = CARTESIAN_POINT ( 'NONE',  ( 0.000000000000000000, 0.000000000000000000, 0.000000000000000000 ) ) ;
#55 = DIRECTION ( 'NONE',  ( -0.000000000000000000, -1.000000000000000000, -0.000000000000000000 ) ) ;
#56 = VECTOR ( 'NONE', #62, 1000.000000000000000 ) ;
#57 = CYLINDRICAL_SURFACE ( 'NONE', #104, 5.000000000000000000 ) ;
#58 = FACE_OUTER_BOUND ( 'NONE', #48, .T. ) ;
#59 = SURFACE_STYLE_USAGE ( .BOTH. , #140 ) ;
#60 = COLOUR_RGB ( '',0.7921568627450980005, 0.8196078431372548767, 0.9333333333333333481 ) ;
#61 = DIRECTION ( 'NONE',  ( 7.404841111123529214E-17, 1.000000000000000000, -0.000000000000000000 ) ) ;
#62 = DIRECTION ( 'NONE',  ( -0.000000000000000000, -1.000000000000000000, -0.000000000000000000 ) ) ;
#63 = VERTEX_POINT ( 'NONE', #80 ) ;
#64 = DIRECTION ( 'NONE',  ( 7.404841111123529214E-17, 1.000000000000000000, -0.000000000000000000 ) ) ;
#65 = ORIENTED_EDGE ( 'NONE', *, *, #201, .T. ) ;
#66 = ORIENTED_EDGE ( 'NONE', *, *, #186, .T. ) ;
#67 = AXIS2_PLACEMENT_3D ( 'NONE', #239, #55, #138 ) ;
#68 = PRODUCT_CONTEXT ( 'NONE', #257, 'mechanical' ) ;
#69 = PRESENTATION_STYLE_ASSIGNMENT (( #269 ) ) ;
#70 = CARTESIAN_POINT ( 'NONE',  ( 3.184081677783117402E-15, 63.00000000000000000, 0.000000000000000000 ) ) ;
#71 = SURFACE_STYLE_USAGE ( .BOTH. , #99 ) ;
#72 = CIRCLE ( 'NONE', #67, 5.000000000000000000 ) ;
#73 = PRODUCT_DEFINITION_FORMATION_WITH_SPECIFIED_SOURCE ( 'ANY', '', #195, .NOT_KNOWN. ) ;
#74 = FILL_AREA_STYLE_COLOUR ( '', #241 ) ;
#75 = EDGE_CURVE ( 'NONE', #108, #193, #237, .T. ) ;
#76 = PLANE ( 'NONE',  #226 ) ;
#77 = DIRECTION ( 'NONE',  ( 0.000000000000000000, 1.000000000000000000, 0.000000000000000000 ) ) ;
#78 = MECHANICAL_DESIGN_GEOMETRIC_PRESENTATION_REPRESENTATION (  '', ( #271 ), #181 ) ;
#79 =( NAMED_UNIT ( * ) SI_UNIT ( $, .STERADIAN. ) SOLID_ANGLE_UNIT ( ) );
#80 = CARTESIAN_POINT ( 'NONE',  ( 6.123233995736766282E-16, 0.000000000000000000, 5.000000000000000000 ) ) ;
#81 = SURFACE_STYLE_FILL_AREA ( #164 ) ;
#82 = MECHANICAL_DESIGN_GEOMETRIC_PRESENTATION_REPRESENTATION (  '', ( #112 ), #122 ) ;
#83 = AXIS2_PLACEMENT_3D ( 'NONE', #54, #156, #160 ) ;
#84 = CYLINDRICAL_SURFACE ( 'NONE', #2, 4.999999999999998224 ) ;
#85 = ADVANCED_FACE ( 'NONE', ( #279 ), #213, .F. ) ;
#86 = APPLICATION_PROTOCOL_DEFINITION ( 'draft international standard', 'automotive_design', 1998, #257 ) ;
#87 = FILL_AREA_STYLE_COLOUR ( '', #188 ) ;
#88 = ADVANCED_FACE ( 'NONE', ( #162 ), #141, .F. ) ;
#89 = AXIS2_PLACEMENT_3D ( 'NONE', #208, #120, #103 ) ;
#90 = SURFACE_STYLE_FILL_AREA ( #288 ) ;
#91 = ORIENTED_EDGE ( 'NONE', *, *, #201, .F. ) ;
#92 = SURFACE_STYLE_FILL_AREA ( #157 ) ;
#93 = CARTESIAN_POINT ( 'NONE',  ( 0.000000000000000000, 20.00000000000000355, 0.000000000000000000 ) ) ;
#94 = FACE_OUTER_BOUND ( 'NONE', #221, .T. ) ;
#95 = PRODUCT_DEFINITION_CONTEXT ( 'detailed design', #262, 'design' ) ;
#96 = CIRCLE ( 'NONE', #245, 5.000000000000000000 ) ;
#97 = PLANE ( 'NONE',  #83 ) ;
#98 = ORIENTED_EDGE ( 'NONE', *, *, #43, .F. ) ;
#99 = SURFACE_SIDE_STYLE ('',( #273 ) ) ;
#100 = STYLED_ITEM ( 'NONE', ( #233 ), #274 ) ;
#101 = FACE_OUTER_BOUND ( 'NONE', #1, .T. ) ;
#102 = FILL_AREA_STYLE_COLOUR ( '', #267 ) ;
#103 = DIRECTION ( 'NONE',  ( 1.000000000000000000, -7.404841111123529214E-17, 0.000000000000000000 ) ) ;
#104 = AXIS2_PLACEMENT_3D ( 'NONE', #12, #14, #263 ) ;
#105 = COLOUR_RGB ( '',1.000000000000000000, 0.000000000000000000, 0.000000000000000000 ) ;
#106 = PRODUCT_RELATED_PRODUCT_CATEGORY ( 'part', '', ( #195 ) ) ;
#107 = LINE ( 'NONE', #282, #44 ) ;
#108 = VERTEX_POINT ( 'NONE', #209 ) ;
#109 =( GEOMETRIC_REPRESENTATION_CONTEXT ( 3 ) GLOBAL_UNCERTAINTY_ASSIGNED_CONTEXT ( ( #212 ) ) GLOBAL_UNIT_ASSIGNED_CONTEXT ( ( #50, #227, #200 ) ) REPRESENTATION_CONTEXT ( 'NONE', 'WORKASPACE' ) );
#110 = EDGE_LOOP ( 'NONE', ( #253, #244, #243, #246 ) ) ;
#111 = CARTESIAN_POINT ( 'NONE',  ( 0.000000000000000000, 0.000000000000000000, 0.000000000000000000 ) ) ;
#112 = STYLED_ITEM ( 'NONE', ( #19 ), #133 ) ;
#113 =( NAMED_UNIT ( * ) SI_UNIT ( $, .STERADIAN. ) SOLID_ANGLE_UNIT ( ) );
#114 = DIRECTION ( 'NONE',  ( -0.000000000000000000, -1.000000000000000000, -0.000000000000000000 ) ) ;
#115 = AXIS2_PLACEMENT_3D ( 'NONE', #127, #174, #125 ) ;
#116 = DIRECTION ( 'NONE',  ( 7.404841111123529214E-17, 1.000000000000000000, -0.000000000000000000 ) ) ;
#117 =( LENGTH_UNIT ( ) NAMED_UNIT ( * ) SI_UNIT ( .MILLI., .METRE. ) );
#118 = DIRECTION ( 'NONE',  ( 0.000000000000000000, 0.000000000000000000, -1.000000000000000000 ) ) ;
#119 =( LENGTH_UNIT ( ) NAMED_UNIT ( * ) SI_UNIT ( .MILLI., .METRE. ) );
#120 = DIRECTION ( 'NONE',  ( -7.404841111123529214E-17, -1.000000000000000000, 0.000000000000000000 ) ) ;
#121 = SURFACE_STYLE_USAGE ( .BOTH. , #33 ) ;
#122 =( GEOMETRIC_REPRESENTATION_CONTEXT ( 3 ) GLOBAL_UNCERTAINTY_ASSIGNED_CONTEXT ( ( #238 ) ) GLOBAL_UNIT_ASSIGNED_CONTEXT ( ( #236, #42, #113 ) ) REPRESENTATION_CONTEXT ( 'NONE', 'WORKASPACE' ) );
#123 = AXIS2_PLACEMENT_3D ( 'NONE', #139, #142, #163 ) ;
#124 =( NAMED_UNIT ( * ) SI_UNIT ( $, .STERADIAN. ) SOLID_ANGLE_UNIT ( ) );
#125 = DIRECTION ( 'NONE',  ( 0.000000000000000000, 0.000000000000000000, -1.000000000000000000 ) ) ;
#126 = DIRECTION ( 'NONE',  ( 7.404841111123529214E-17, 1.000000000000000000, -0.000000000000000000 ) ) ;
#127 = CARTESIAN_POINT ( 'NONE',  ( 0.000000000000000000, 20.00000000000000000, 0.000000000000000000 ) ) ;
#128 = DIRECTION ( 'NONE',  ( 1.000000000000000000, 0.000000000000000000, 0.000000000000000000 ) ) ;
#129 = ORIENTED_EDGE ( 'NONE', *, *, #28, .T. ) ;
#130 =( LENGTH_UNIT ( ) NAMED_UNIT ( * ) SI_UNIT ( .MILLI., .METRE. ) );
#131 = SURFACE_STYLE_USAGE ( .BOTH. , #231 ) ;
#132 = EDGE_LOOP ( 'NONE', ( #29, #144 ) ) ;
#133 = MANIFOLD_SOLID_BREP ( 'Revolve - Cutting Edge', #24 ) ;
#134 = PRODUCT_DEFINITION_SHAPE ( 'NONE', 'NONE',  #190 ) ;
#135 = DIRECTION ( 'NONE',  ( -1.000000000000000000, 0.000000000000000000, 0.000000000000000000 ) ) ;
#136 = FILL_AREA_STYLE ('',( #9 ) ) ;
#137 = MECHANICAL_DESIGN_GEOMETRIC_PRESENTATION_REPRESENTATION (  '', ( #47 ), #109 ) ;
#138 = DIRECTION ( 'NONE',  ( 0.000000000000000000, 0.000000000000000000, -1.000000000000000000 ) ) ;
#139 = CARTESIAN_POINT ( 'NONE',  ( 1.370791797024628714E-32, 20.00000000000000000, 0.000000000000000000 ) ) ;
#140 = SURFACE_SIDE_STYLE ('',( #81 ) ) ;
#141 = PLANE ( 'NONE',  #89 ) ;
#142 = DIRECTION ( 'NONE',  ( 7.404841111123529214E-17, 1.000000000000000000, -0.000000000000000000 ) ) ;
#143 = CARTESIAN_POINT ( 'NONE',  ( 0.000000000000000000, 20.00000000000000000, -5.000000000000000000 ) ) ;
#144 = ORIENTED_EDGE ( 'NONE', *, *, #75, .F. ) ;
#145 = PRESENTATION_LAYER_ASSIGNMENT (  '', '', ( #271 ) ) ;
#146 = CARTESIAN_POINT ( 'NONE',  ( 5.000000000000000000, 20.00000000000000355, 6.123233995736765296E-16 ) ) ;
#147 = ORIENTED_EDGE ( 'NONE', *, *, #43, .T. ) ;
#148 = ORIENTED_EDGE ( 'NONE', *, *, #5, .T. ) ;
#149 = EDGE_CURVE ( 'NONE', #191, #165, #21, .T. ) ;
#150 = AXIS2_PLACEMENT_3D ( 'NONE', #70, #154, #25 ) ;
#151 = ORIENTED_EDGE ( 'NONE', *, *, #205, .F. ) ;
#152 = EDGE_CURVE ( 'NONE', #63, #268, #96, .T. ) ;
#153 = LINE ( 'NONE', #264, #36 ) ;
#154 = DIRECTION ( 'NONE',  ( 7.404841111123529214E-17, 1.000000000000000000, -0.000000000000000000 ) ) ;
#155 = PRESENTATION_LAYER_ASSIGNMENT (  '', '', ( #256 ) ) ;
#156 = DIRECTION ( 'NONE',  ( 0.000000000000000000, -1.000000000000000000, -0.000000000000000000 ) ) ;
#157 = FILL_AREA_STYLE ('',( #74 ) ) ;
#158 = PRESENTATION_STYLE_ASSIGNMENT (( #71 ) ) ;
#159 =( NAMED_UNIT ( * ) PLANE_ANGLE_UNIT ( ) SI_UNIT ( $, .RADIAN. ) );
#160 = DIRECTION ( 'NONE',  ( 0.000000000000000000, 0.000000000000000000, -1.000000000000000000 ) ) ;
#161 = FILL_AREA_STYLE_COLOUR ( '', #60 ) ;
#162 = FACE_OUTER_BOUND ( 'NONE', #219, .T. ) ;
#163 = DIRECTION ( 'NONE',  ( -1.000000000000000000, 7.404841111123529214E-17, 0.000000000000000000 ) ) ;
#164 = FILL_AREA_STYLE ('',( #161 ) ) ;
#165 = VERTEX_POINT ( 'NONE', #266 ) ;
#166 = DIRECTION ( 'NONE',  ( 0.000000000000000000, 0.000000000000000000, 1.000000000000000000 ) ) ;
#167 = DIRECTION ( 'NONE',  ( -0.000000000000000000, -1.000000000000000000, -0.000000000000000000 ) ) ;
#168 = ORIENTED_EDGE ( 'NONE', *, *, #196, .T. ) ;
#169 = MECHANICAL_DESIGN_GEOMETRIC_PRESENTATION_REPRESENTATION (  '', ( #256 ), #27 ) ;
#170 = ORIENTED_EDGE ( 'NONE', *, *, #220, .F. ) ;
#171 = VERTEX_POINT ( 'NONE', #215 ) ;
#172 = STYLED_ITEM ( 'NONE', ( #158 ), #284 ) ;
#173 = PRESENTATION_STYLE_ASSIGNMENT (( #131 ) ) ;
#174 = DIRECTION ( 'NONE',  ( -0.000000000000000000, -1.000000000000000000, -0.000000000000000000 ) ) ;
#175 = CARTESIAN_POINT ( 'NONE',  ( 3.184081677783117402E-15, 63.00000000000000000, 0.000000000000000000 ) ) ;
#176 = CARTESIAN_POINT ( 'NONE',  ( 0.000000000000000000, 0.000000000000000000, -5.000000000000000000 ) ) ;
#177 = PRESENTATION_LAYER_ASSIGNMENT (  '', '', ( #112 ) ) ;
#178 = FACE_OUTER_BOUND ( 'NONE', #132, .T. ) ;
#179 = AXIS2_PLACEMENT_3D ( 'NONE', #285, #166, #128 ) ;
#180 =( NAMED_UNIT ( * ) SI_UNIT ( $, .STERADIAN. ) SOLID_ANGLE_UNIT ( ) );
#181 =( GEOMETRIC_REPRESENTATION_CONTEXT ( 3 ) GLOBAL_UNCERTAINTY_ASSIGNED_CONTEXT ( ( #185 ) ) GLOBAL_UNIT_ASSIGNED_CONTEXT ( ( #130, #228, #180 ) ) REPRESENTATION_CONTEXT ( 'NONE', 'WORKASPACE' ) );
#182 = DIRECTION ( 'NONE',  ( 7.404841111123529214E-17, 1.000000000000000000, -0.000000000000000000 ) ) ;
#183 = SURFACE_STYLE_FILL_AREA ( #261 ) ;
#184 = SHAPE_DEFINITION_REPRESENTATION ( #134, #217 ) ;
#185 = UNCERTAINTY_MEASURE_WITH_UNIT (LENGTH_MEASURE( 1.000000000000000082E-05 ), #130, 'distance_accuracy_value', 'NONE');
#186 = EDGE_CURVE ( 'NONE', #193, #108, #15, .T. ) ;
#187 = PRESENTATION_STYLE_ASSIGNMENT (( #235 ) ) ;
#188 = COLOUR_RGB ( '',0.7921568627450980005, 0.8196078431372548767, 0.9333333333333333481 ) ;
#189 = DIRECTION ( 'NONE',  ( 0.000000000000000000, 0.000000000000000000, -1.000000000000000000 ) ) ;
#190 = PRODUCT_DEFINITION ( 'UNKNOWN', '', #73, #95 ) ;
#191 = VERTEX_POINT ( 'NONE', #146 ) ;
#192 = DIRECTION ( 'NONE',  ( -1.000000000000000000, 0.000000000000000000, 0.000000000000000000 ) ) ;
#193 = VERTEX_POINT ( 'NONE', #143 ) ;
#194 = MECHANICAL_DESIGN_GEOMETRIC_PRESENTATION_REPRESENTATION (  '', ( #172 ), #281 ) ;
#195 = PRODUCT ( '59656', '59656', '', ( #68 ) ) ;
#196 = EDGE_CURVE ( 'NONE', #108, #63, #199, .T. ) ;
#197 = ORIENTED_EDGE ( 'NONE', *, *, #205, .T. ) ;
#198 = FACE_OUTER_BOUND ( 'NONE', #110, .T. ) ;
#199 = LINE ( 'NONE', #23, #56 ) ;
#200 =( NAMED_UNIT ( * ) SI_UNIT ( $, .STERADIAN. ) SOLID_ANGLE_UNIT ( ) );
#201 = EDGE_CURVE ( 'NONE', #165, #191, #51, .T. ) ;
#202 = UNCERTAINTY_MEASURE_WITH_UNIT (LENGTH_MEASURE( 1.000000000000000082E-05 ), #117, 'distance_accuracy_value', 'NONE');
#203 = AXIS2_PLACEMENT_3D ( 'NONE', #175, #116, #135 ) ;
#204 = FACE_OUTER_BOUND ( 'NONE', #35, .T. ) ;
#205 = EDGE_CURVE ( 'NONE', #191, #252, #107, .T. ) ;
#206 = CARTESIAN_POINT ( 'NONE',  ( 3.184081677783117402E-15, 63.00000000000000000, 0.000000000000000000 ) ) ;
#207 = FILL_AREA_STYLE_COLOUR ( '', #105 ) ;
#208 = CARTESIAN_POINT ( 'NONE',  ( 5.000000000000000000, 63.00000000000000000, 0.000000000000000000 ) ) ;
#209 = CARTESIAN_POINT ( 'NONE',  ( 6.123233995736766282E-16, 20.00000000000000000, 5.000000000000000000 ) ) ;
#210 = AXIS2_PLACEMENT_3D ( 'NONE', #93, #272, #192 ) ;
#211 = CARTESIAN_POINT ( 'NONE',  ( 0.000000000000000000, 20.00000000000000355, 0.000000000000000000 ) ) ;
#212 = UNCERTAINTY_MEASURE_WITH_UNIT (LENGTH_MEASURE( 1.000000000000000082E-05 ), #50, 'distance_accuracy_value', 'NONE');
#213 = PLANE ( 'NONE',  #123 ) ;
#214 =( NAMED_UNIT ( * ) SI_UNIT ( $, .STERADIAN. ) SOLID_ANGLE_UNIT ( ) );
#215 = CARTESIAN_POINT ( 'NONE',  ( -4.999999999999992895, 63.00000000000000000, 0.000000000000000000 ) ) ;
#216 = CIRCLE ( 'NONE', #7, 4.999999999999996447 ) ;
#217 = ADVANCED_BREP_SHAPE_REPRESENTATION ( '59656', ( #133, #242, #179 ), #37 ) ;
#218 = DIRECTION ( 'NONE',  ( -0.000000000000000000, -1.000000000000000000, -0.000000000000000000 ) ) ;
#219 = EDGE_LOOP ( 'NONE', ( #265, #148 ) ) ;
#220 = EDGE_CURVE ( 'NONE', #171, #252, #280, .T. ) ;
#221 = EDGE_LOOP ( 'NONE', ( #151, #49, #147, #283 ) ) ;
#222 = EDGE_LOOP ( 'NONE', ( #91, #229 ) ) ;
#223 = UNCERTAINTY_MEASURE_WITH_UNIT (LENGTH_MEASURE( 1.000000000000000082E-05 ), #119, 'distance_accuracy_value', 'NONE');
#224 = ORIENTED_EDGE ( 'NONE', *, *, #28, .F. ) ;
#225 = COLOUR_RGB ( '',1.000000000000000000, 0.000000000000000000, 0.000000000000000000 ) ;
#226 = AXIS2_PLACEMENT_3D ( 'NONE', #254, #77, #34 ) ;
#227 =( NAMED_UNIT ( * ) PLANE_ANGLE_UNIT ( ) SI_UNIT ( $, .RADIAN. ) );
#228 =( NAMED_UNIT ( * ) PLANE_ANGLE_UNIT ( ) SI_UNIT ( $, .RADIAN. ) );
#229 = ORIENTED_EDGE ( 'NONE', *, *, #149, .F. ) ;
#230 =( NAMED_UNIT ( * ) PLANE_ANGLE_UNIT ( ) SI_UNIT ( $, .RADIAN. ) );
#231 = SURFACE_SIDE_STYLE ('',( #92 ) ) ;
#232 = AXIS2_PLACEMENT_3D ( 'NONE', #46, #38, #118 ) ;
#233 = PRESENTATION_STYLE_ASSIGNMENT (( #121 ) ) ;
#234 = EDGE_CURVE ( 'NONE', #193, #268, #153, .T. ) ;
#235 = SURFACE_STYLE_USAGE ( .BOTH. , #40 ) ;
#236 =( LENGTH_UNIT ( ) NAMED_UNIT ( * ) SI_UNIT ( .MILLI., .METRE. ) );
#237 = CIRCLE ( 'NONE', #232, 5.000000000000000000 ) ;
#238 = UNCERTAINTY_MEASURE_WITH_UNIT (LENGTH_MEASURE( 1.000000000000000082E-05 ), #236, 'distance_accuracy_value', 'NONE');
#239 = CARTESIAN_POINT ( 'NONE',  ( 0.000000000000000000, 0.000000000000000000, 0.000000000000000000 ) ) ;
#240 = DIRECTION ( 'NONE',  ( -1.000000000000000000, 0.000000000000000000, 0.000000000000000000 ) ) ;
#241 = COLOUR_RGB ( '',1.000000000000000000, 0.000000000000000000, 0.000000000000000000 ) ;
#242 = MANIFOLD_SOLID_BREP ( 'Revolve - Tool Body (Straight Shanked)', #41 ) ;
#243 = ORIENTED_EDGE ( 'NONE', *, *, #234, .T. ) ;
#244 = ORIENTED_EDGE ( 'NONE', *, *, #75, .T. ) ;
#245 = AXIS2_PLACEMENT_3D ( 'NONE', #111, #167, #189 ) ;
#246 = ORIENTED_EDGE ( 'NONE', *, *, #152, .F. ) ;
#247 = PRESENTATION_LAYER_ASSIGNMENT (  '', '', ( #100 ) ) ;
#248 = SURFACE_SIDE_STYLE ('',( #90 ) ) ;
#249 = UNCERTAINTY_MEASURE_WITH_UNIT (LENGTH_MEASURE( 1.000000000000000082E-05 ), #260, 'distance_accuracy_value', 'NONE');
#250 = VECTOR ( 'NONE', #182, 1000.000000000000000 ) ;
#251 = PRESENTATION_LAYER_ASSIGNMENT (  '', '', ( #47 ) ) ;
#252 = VERTEX_POINT ( 'NONE', #286 ) ;
#253 = ORIENTED_EDGE ( 'NONE', *, *, #196, .F. ) ;
#254 = CARTESIAN_POINT ( 'NONE',  ( 0.000000000000000000, 20.00000000000000000, 0.000000000000000000 ) ) ;
#255 = DIRECTION ( 'NONE',  ( -1.000000000000000000, 0.000000000000000000, 0.000000000000000000 ) ) ;
#256 = STYLED_ITEM ( 'NONE', ( #187 ), #31 ) ;
#257 = APPLICATION_CONTEXT ( 'automotive_design' ) ;
#258 = LINE ( 'NONE', #20, #250 ) ;
#259 =( NAMED_UNIT ( * ) PLANE_ANGLE_UNIT ( ) SI_UNIT ( $, .RADIAN. ) );
#260 =( LENGTH_UNIT ( ) NAMED_UNIT ( * ) SI_UNIT ( .MILLI., .METRE. ) );
#261 = FILL_AREA_STYLE ('',( #102 ) ) ;
#262 = APPLICATION_CONTEXT ( 'automotive_design' ) ;
#263 = DIRECTION ( 'NONE',  ( 0.000000000000000000, 0.000000000000000000, -1.000000000000000000 ) ) ;
#264 = CARTESIAN_POINT ( 'NONE',  ( 0.000000000000000000, 0.000000000000000000, -5.000000000000000000 ) ) ;
#265 = ORIENTED_EDGE ( 'NONE', *, *, #220, .T. ) ;
#266 = CARTESIAN_POINT ( 'NONE',  ( -5.000000000000000000, 20.00000000000000355, 0.000000000000000000 ) ) ;
#267 = COLOUR_RGB ( '',1.000000000000000000, 0.000000000000000000, 0.000000000000000000 ) ;
#268 = VERTEX_POINT ( 'NONE', #176 ) ;
#269 = SURFACE_STYLE_USAGE ( .BOTH. , #248 ) ;
#270 = ORIENTED_EDGE ( 'NONE', *, *, #152, .T. ) ;
#271 = STYLED_ITEM ( 'NONE', ( #69 ), #242 ) ;
#272 = DIRECTION ( 'NONE',  ( 7.404841111123529214E-17, 1.000000000000000000, -0.000000000000000000 ) ) ;
#273 = SURFACE_STYLE_FILL_AREA ( #13 ) ;
#274 = ADVANCED_FACE ( 'NONE', ( #204 ), #97, .T. ) ;
#275 = AXIS2_PLACEMENT_3D ( 'NONE', #52, #114, #53 ) ;
#276 =( NAMED_UNIT ( * ) PLANE_ANGLE_UNIT ( ) SI_UNIT ( $, .RADIAN. ) );
#277 =( GEOMETRIC_REPRESENTATION_CONTEXT ( 3 ) GLOBAL_UNCERTAINTY_ASSIGNED_CONTEXT ( ( #223 ) ) GLOBAL_UNIT_ASSIGNED_CONTEXT ( ( #119, #259, #79 ) ) REPRESENTATION_CONTEXT ( 'NONE', 'WORKASPACE' ) );
#278 = DIRECTION ( 'NONE',  ( -1.000000000000000000, 0.000000000000000000, 0.000000000000000000 ) ) ;
#279 = FACE_OUTER_BOUND ( 'NONE', #222, .T. ) ;
#280 = CIRCLE ( 'NONE', #150, 4.999999999999996447 ) ;
#281 =( GEOMETRIC_REPRESENTATION_CONTEXT ( 3 ) GLOBAL_UNCERTAINTY_ASSIGNED_CONTEXT ( ( #202 ) ) GLOBAL_UNIT_ASSIGNED_CONTEXT ( ( #117, #230, #8 ) ) REPRESENTATION_CONTEXT ( 'NONE', 'WORKASPACE' ) );
#282 = CARTESIAN_POINT ( 'NONE',  ( 5.000000000000001776, 63.00000000000000000, 6.123233995736764310E-16 ) ) ;
#283 = ORIENTED_EDGE ( 'NONE', *, *, #5, .F. ) ;
#284 = ADVANCED_FACE ( 'NONE', ( #178 ), #76, .T. ) ;
#285 = CARTESIAN_POINT ( 'NONE',  ( 0.000000000000000000, 0.000000000000000000, 0.000000000000000000 ) ) ;
#286 = CARTESIAN_POINT ( 'NONE',  ( 5.000000000000000000, 63.00000000000000000, 6.123233995736765296E-16 ) ) ;
#287 = AXIS2_PLACEMENT_3D ( 'NONE', #211, #126, #240 ) ;
#288 = FILL_AREA_STYLE ('',( #87 ) ) ;
ENDSEC;
END-ISO-10303-21;
