ISO-10303-21;
HEADER;
FILE_DESCRIPTION (( 'STEP AP214' ),
    '1' );
FILE_NAME ('59624.STEP',
    '2023-07-24T15:50:46',
    ( '' ),
    ( '' ),
    'SwSTEP 2.0',
    'SolidWorks 2023',
    '' );
FILE_SCHEMA (( 'AUTOMOTIVE_DESIGN' ));
ENDSEC;

DATA;
#1 = DIRECTION ( 'NONE',  ( -0.000000000000000000, -1.000000000000000000, -0.000000000000000000 ) ) ;
#2 = ORIENTED_EDGE ( 'NONE', *, *, #209, .F. ) ;
#3 = MECHANICAL_DESIGN_GEOMETRIC_PRESENTATION_REPRESENTATION (  '', ( #136 ), #240 ) ;
#4 = DIRECTION ( 'NONE',  ( -1.000000000000000000, 0.000000000000000000, 0.000000000000000000 ) ) ;
#5 = ORIENTED_EDGE ( 'NONE', *, *, #200, .F. ) ;
#6 = ORIENTED_EDGE ( 'NONE', *, *, #17, .T. ) ;
#7 = APPLICATION_PROTOCOL_DEFINITION ( 'draft international standard', 'automotive_design', 1998, #40 ) ;
#8 = CIRCLE ( 'NONE', #190, 12.50000000000000000 ) ;
#9 = CLOSED_SHELL ( 'NONE', ( #255, #127, #197, #154 ) ) ;
#10 = AXIS2_PLACEMENT_3D ( 'NONE', #84, #59, #37 ) ;
#11 = CYLINDRICAL_SURFACE ( 'NONE', #134, 12.50000000000000355 ) ;
#12 = EDGE_CURVE ( 'NONE', #210, #271, #98, .T. ) ;
#13 = DIRECTION ( 'NONE',  ( 0.000000000000000000, -1.000000000000000000, -0.000000000000000000 ) ) ;
#14 = CARTESIAN_POINT ( 'NONE',  ( -12.50000000000001066, 125.0000000000000000, 0.000000000000000000 ) ) ;
#15 = CARTESIAN_POINT ( 'NONE',  ( -4.408728476930469278E-15, 124.9999999999999858, 0.000000000000000000 ) ) ;
#16 = DIRECTION ( 'NONE',  ( 0.000000000000000000, 0.000000000000000000, -1.000000000000000000 ) ) ;
#17 = EDGE_CURVE ( 'NONE', #141, #115, #182, .T. ) ;
#18 = PRESENTATION_LAYER_ASSIGNMENT (  '', '', ( #199 ) ) ;
#19 = DIRECTION ( 'NONE',  ( 0.000000000000000000, 0.000000000000000000, -1.000000000000000000 ) ) ;
#20 = AXIS2_PLACEMENT_3D ( 'NONE', #129, #13, #16 ) ;
#21 = SURFACE_SIDE_STYLE ('',( #261 ) ) ;
#22 = AXIS2_PLACEMENT_3D ( 'NONE', #280, #81, #256 ) ;
#23 = MANIFOLD_SOLID_BREP ( 'Revolve - Cutting Edge', #230 ) ;
#24 = AXIS2_PLACEMENT_3D ( 'NONE', #72, #252, #96 ) ;
#25 =( NAMED_UNIT ( * ) PLANE_ANGLE_UNIT ( ) SI_UNIT ( $, .RADIAN. ) );
#26 = ORIENTED_EDGE ( 'NONE', *, *, #250, .F. ) ;
#27 = PRESENTATION_STYLE_ASSIGNMENT (( #207 ) ) ;
#28 = FACE_OUTER_BOUND ( 'NONE', #160, .T. ) ;
#29 = EDGE_LOOP ( 'NONE', ( #133, #229 ) ) ;
#30 = CARTESIAN_POINT ( 'NONE',  ( 0.000000000000000000, 64.00000000000000000, 0.000000000000000000 ) ) ;
#31 = CARTESIAN_POINT ( 'NONE',  ( -12.50000000000000888, 124.9999999999999858, 0.000000000000000000 ) ) ;
#32 = SURFACE_STYLE_USAGE ( .BOTH. , #66 ) ;
#33 =( NAMED_UNIT ( * ) SI_UNIT ( $, .STERADIAN. ) SOLID_ANGLE_UNIT ( ) );
#34 = VECTOR ( 'NONE', #158, 1000.000000000000000 ) ;
#35 = AXIS2_PLACEMENT_3D ( 'NONE', #43, #159, #222 ) ;
#36 = PRESENTATION_STYLE_ASSIGNMENT (( #146 ) ) ;
#37 = DIRECTION ( 'NONE',  ( 0.000000000000000000, 0.000000000000000000, -1.000000000000000000 ) ) ;
#38 = AXIS2_PLACEMENT_3D ( 'NONE', #151, #125, #219 ) ;
#39 =( NAMED_UNIT ( * ) PLANE_ANGLE_UNIT ( ) SI_UNIT ( $, .RADIAN. ) );
#40 = APPLICATION_CONTEXT ( 'automotive_design' ) ;
#41 = LINE ( 'NONE', #105, #168 ) ;
#42 =( GEOMETRIC_REPRESENTATION_CONTEXT ( 3 ) GLOBAL_UNCERTAINTY_ASSIGNED_CONTEXT ( ( #262 ) ) GLOBAL_UNIT_ASSIGNED_CONTEXT ( ( #45, #138, #131 ) ) REPRESENTATION_CONTEXT ( 'NONE', 'WORKASPACE' ) );
#43 = CARTESIAN_POINT ( 'NONE',  ( 0.000000000000000000, 0.000000000000000000, 0.000000000000000000 ) ) ;
#44 = STYLED_ITEM ( 'NONE', ( #27 ), #216 ) ;
#45 =( LENGTH_UNIT ( ) NAMED_UNIT ( * ) SI_UNIT ( .MILLI., .METRE. ) );
#46 = PRESENTATION_STYLE_ASSIGNMENT (( #32 ) ) ;
#47 = CARTESIAN_POINT ( 'NONE',  ( -4.408728476930470067E-15, 125.0000000000000000, 0.000000000000000000 ) ) ;
#48 = ORIENTED_EDGE ( 'NONE', *, *, #272, .F. ) ;
#49 = CARTESIAN_POINT ( 'NONE',  ( -4.408728476930469278E-15, 124.9999999999999858, 0.000000000000000000 ) ) ;
#50 = CARTESIAN_POINT ( 'NONE',  ( 0.000000000000000000, 0.000000000000000000, -12.50000000000000000 ) ) ;
#51 = DIRECTION ( 'NONE',  ( -0.000000000000000000, -1.000000000000000000, -0.000000000000000000 ) ) ;
#52 = EDGE_CURVE ( 'NONE', #186, #93, #208, .T. ) ;
#53 =( NAMED_UNIT ( * ) PLANE_ANGLE_UNIT ( ) SI_UNIT ( $, .RADIAN. ) );
#54 = PLANE ( 'NONE',  #38 ) ;
#55 = FACE_OUTER_BOUND ( 'NONE', #29, .T. ) ;
#56 = STYLED_ITEM ( 'NONE', ( #112 ), #214 ) ;
#57 = FACE_OUTER_BOUND ( 'NONE', #90, .T. ) ;
#58 = MECHANICAL_DESIGN_GEOMETRIC_PRESENTATION_REPRESENTATION (  '', ( #199 ), #68 ) ;
#59 = DIRECTION ( 'NONE',  ( -0.000000000000000000, -1.000000000000000000, -0.000000000000000000 ) ) ;
#60 = SURFACE_STYLE_FILL_AREA ( #238 ) ;
#61 = SURFACE_STYLE_USAGE ( .BOTH. , #21 ) ;
#62 =( GEOMETRIC_REPRESENTATION_CONTEXT ( 3 ) GLOBAL_UNCERTAINTY_ASSIGNED_CONTEXT ( ( #156 ) ) GLOBAL_UNIT_ASSIGNED_CONTEXT ( ( #263, #25, #241 ) ) REPRESENTATION_CONTEXT ( 'NONE', 'WORKASPACE' ) );
#63 = SURFACE_STYLE_USAGE ( .BOTH. , #135 ) ;
#64 = ORIENTED_EDGE ( 'NONE', *, *, #272, .T. ) ;
#65 = FILL_AREA_STYLE ('',( #70 ) ) ;
#66 = SURFACE_SIDE_STYLE ('',( #247 ) ) ;
#67 = SURFACE_STYLE_FILL_AREA ( #86 ) ;
#68 =( GEOMETRIC_REPRESENTATION_CONTEXT ( 3 ) GLOBAL_UNCERTAINTY_ASSIGNED_CONTEXT ( ( #283 ) ) GLOBAL_UNIT_ASSIGNED_CONTEXT ( ( #142, #53, #94 ) ) REPRESENTATION_CONTEXT ( 'NONE', 'WORKASPACE' ) );
#69 = ORIENTED_EDGE ( 'NONE', *, *, #244, .F. ) ;
#70 = FILL_AREA_STYLE_COLOUR ( '', #264 ) ;
#71 = ORIENTED_EDGE ( 'NONE', *, *, #147, .T. ) ;
#72 = CARTESIAN_POINT ( 'NONE',  ( 0.000000000000000000, 64.00000000000000000, 0.000000000000000000 ) ) ;
#73 = EDGE_LOOP ( 'NONE', ( #5, #118, #267, #69 ) ) ;
#74 = COLOUR_RGB ( '',1.000000000000000000, 0.000000000000000000, 0.000000000000000000 ) ;
#75 = FILL_AREA_STYLE ('',( #234 ) ) ;
#76 = PRODUCT ( '59624', '59624', '', ( #79 ) ) ;
#77 = DIRECTION ( 'NONE',  ( -1.000000000000000000, 0.000000000000000000, 0.000000000000000000 ) ) ;
#78 = CIRCLE ( 'NONE', #212, 12.50000000000000533 ) ;
#79 = PRODUCT_CONTEXT ( 'NONE', #40, 'mechanical' ) ;
#80 = PLANE ( 'NONE',  #20 ) ;
#81 = DIRECTION ( 'NONE',  ( -7.227423732672903446E-17, 1.000000000000000000, 0.000000000000000000 ) ) ;
#82 = CYLINDRICAL_SURFACE ( 'NONE', #285, 12.50000000000000355 ) ;
#83 = APPLICATION_CONTEXT ( 'automotive_design' ) ;
#84 = CARTESIAN_POINT ( 'NONE',  ( 0.000000000000000000, 64.00000000000000000, 0.000000000000000000 ) ) ;
#85 = FILL_AREA_STYLE_COLOUR ( '', #246 ) ;
#86 = FILL_AREA_STYLE ('',( #109 ) ) ;
#87 = AXIS2_PLACEMENT_3D ( 'NONE', #117, #1, #184 ) ;
#88 = ORIENTED_EDGE ( 'NONE', *, *, #192, .F. ) ;
#89 =( NAMED_UNIT ( * ) SI_UNIT ( $, .STERADIAN. ) SOLID_ANGLE_UNIT ( ) );
#90 = EDGE_LOOP ( 'NONE', ( #122, #64, #6, #2 ) ) ;
#91 = CYLINDRICAL_SURFACE ( 'NONE', #268, 12.50000000000000000 ) ;
#92 = AXIS2_PLACEMENT_3D ( 'NONE', #47, #119, #276 ) ;
#93 = VERTEX_POINT ( 'NONE', #14 ) ;
#94 =( NAMED_UNIT ( * ) SI_UNIT ( $, .STERADIAN. ) SOLID_ANGLE_UNIT ( ) );
#95 = ORIENTED_EDGE ( 'NONE', *, *, #200, .T. ) ;
#96 = DIRECTION ( 'NONE',  ( 0.000000000000000000, -0.000000000000000000, 1.000000000000000000 ) ) ;
#97 = PRODUCT_DEFINITION_CONTEXT ( 'detailed design', #83, 'design' ) ;
#98 = LINE ( 'NONE', #273, #175 ) ;
#99 = MECHANICAL_DESIGN_GEOMETRIC_PRESENTATION_REPRESENTATION (  '', ( #44 ), #107 ) ;
#100 = PRODUCT_DEFINITION_FORMATION_WITH_SPECIFIED_SOURCE ( 'ANY', '', #76, .NOT_KNOWN. ) ;
#101 = DIRECTION ( 'NONE',  ( -7.227423732672903446E-17, 1.000000000000000000, -0.000000000000000000 ) ) ;
#102 = DIRECTION ( 'NONE',  ( -0.000000000000000000, -1.000000000000000000, -0.000000000000000000 ) ) ;
#103 = MECHANICAL_DESIGN_GEOMETRIC_PRESENTATION_REPRESENTATION (  '', ( #113 ), #42 ) ;
#104 =( NAMED_UNIT ( * ) SI_UNIT ( $, .STERADIAN. ) SOLID_ANGLE_UNIT ( ) );
#105 = CARTESIAN_POINT ( 'NONE',  ( 12.49999999999999822, 124.9999999999999858, 1.530808498934191916E-15 ) ) ;
#106 = ADVANCED_FACE ( 'NONE', ( #171 ), #80, .T. ) ;
#107 =( GEOMETRIC_REPRESENTATION_CONTEXT ( 3 ) GLOBAL_UNCERTAINTY_ASSIGNED_CONTEXT ( ( #242 ) ) GLOBAL_UNIT_ASSIGNED_CONTEXT ( ( #284, #157, #89 ) ) REPRESENTATION_CONTEXT ( 'NONE', 'WORKASPACE' ) );
#108 = CARTESIAN_POINT ( 'NONE',  ( -12.50000000000000000, 64.00000000000000000, 0.000000000000000000 ) ) ;
#109 = FILL_AREA_STYLE_COLOUR ( '', #170 ) ;
#110 = FACE_OUTER_BOUND ( 'NONE', #144, .T. ) ;
#111 = PRODUCT_DEFINITION_SHAPE ( 'NONE', 'NONE',  #286 ) ;
#112 = PRESENTATION_STYLE_ASSIGNMENT (( #61 ) ) ;
#113 = STYLED_ITEM ( 'NONE', ( #46 ), #23 ) ;
#114 =( GEOMETRIC_REPRESENTATION_CONTEXT ( 3 ) GLOBAL_UNCERTAINTY_ASSIGNED_CONTEXT ( ( #203 ) ) GLOBAL_UNIT_ASSIGNED_CONTEXT ( ( #191, #145, #33 ) ) REPRESENTATION_CONTEXT ( 'NONE', 'WORKASPACE' ) );
#115 = VERTEX_POINT ( 'NONE', #259 ) ;
#116 = ORIENTED_EDGE ( 'NONE', *, *, #270, .T. ) ;
#117 = CARTESIAN_POINT ( 'NONE',  ( 0.000000000000000000, 0.000000000000000000, 0.000000000000000000 ) ) ;
#118 = ORIENTED_EDGE ( 'NONE', *, *, #250, .T. ) ;
#119 = DIRECTION ( 'NONE',  ( -7.227423732672903446E-17, 1.000000000000000000, -0.000000000000000000 ) ) ;
#120 = PRESENTATION_LAYER_ASSIGNMENT (  '', '', ( #56 ) ) ;
#121 = EDGE_LOOP ( 'NONE', ( #116, #95, #88, #266 ) ) ;
#122 = ORIENTED_EDGE ( 'NONE', *, *, #12, .F. ) ;
#123 = FILL_AREA_STYLE_COLOUR ( '', #74 ) ;
#124 = CIRCLE ( 'NONE', #163, 12.50000000000000000 ) ;
#125 = DIRECTION ( 'NONE',  ( 7.227423732672903446E-17, -1.000000000000000000, 0.000000000000000000 ) ) ;
#126 = DIRECTION ( 'NONE',  ( -7.227423732672903446E-17, 1.000000000000000000, -0.000000000000000000 ) ) ;
#127 = ADVANCED_FACE ( 'NONE', ( #277 ), #195, .F. ) ;
#128 = COLOUR_RGB ( '',1.000000000000000000, 0.000000000000000000, 0.000000000000000000 ) ;
#129 = CARTESIAN_POINT ( 'NONE',  ( 0.000000000000000000, 0.000000000000000000, 0.000000000000000000 ) ) ;
#130 = SURFACE_STYLE_FILL_AREA ( #65 ) ;
#131 =( NAMED_UNIT ( * ) SI_UNIT ( $, .STERADIAN. ) SOLID_ANGLE_UNIT ( ) );
#132 = UNCERTAINTY_MEASURE_WITH_UNIT (LENGTH_MEASURE( 1.000000000000000082E-05 ), #162, 'distance_accuracy_value', 'NONE');
#133 = ORIENTED_EDGE ( 'NONE', *, *, #192, .T. ) ;
#134 = AXIS2_PLACEMENT_3D ( 'NONE', #49, #228, #4 ) ;
#135 = SURFACE_SIDE_STYLE ('',( #67 ) ) ;
#136 = STYLED_ITEM ( 'NONE', ( #279 ), #106 ) ;
#137 = ORIENTED_EDGE ( 'NONE', *, *, #239, .F. ) ;
#138 =( NAMED_UNIT ( * ) PLANE_ANGLE_UNIT ( ) SI_UNIT ( $, .RADIAN. ) );
#139 = ADVANCED_BREP_SHAPE_REPRESENTATION ( '59624', ( #23, #216, #174 ), #114 ) ;
#140 = CARTESIAN_POINT ( 'NONE',  ( 7.703719777548943412E-31, 64.00000000000000000, 0.000000000000000000 ) ) ;
#141 = VERTEX_POINT ( 'NONE', #257 ) ;
#142 =( LENGTH_UNIT ( ) NAMED_UNIT ( * ) SI_UNIT ( .MILLI., .METRE. ) );
#143 = STYLED_ITEM ( 'NONE', ( #204 ), #221 ) ;
#144 = EDGE_LOOP ( 'NONE', ( #71, #183, #137, #215 ) ) ;
#145 =( NAMED_UNIT ( * ) PLANE_ANGLE_UNIT ( ) SI_UNIT ( $, .RADIAN. ) );
#146 = SURFACE_STYLE_USAGE ( .BOTH. , #211 ) ;
#147 = EDGE_CURVE ( 'NONE', #141, #210, #189, .T. ) ;
#148 = PRESENTATION_LAYER_ASSIGNMENT (  '', '', ( #113 ) ) ;
#149 = CARTESIAN_POINT ( 'NONE',  ( -4.408728476930470067E-15, 125.0000000000000000, 0.000000000000000000 ) ) ;
#150 = APPLICATION_PROTOCOL_DEFINITION ( 'draft international standard', 'automotive_design', 1998, #83 ) ;
#151 = CARTESIAN_POINT ( 'NONE',  ( 12.50000000000000000, 125.0000000000000000, 0.000000000000000000 ) ) ;
#152 = VECTOR ( 'NONE', #220, 1000.000000000000000 ) ;
#153 = CYLINDRICAL_SURFACE ( 'NONE', #35, 12.50000000000000000 ) ;
#154 = ADVANCED_FACE ( 'NONE', ( #55 ), #54, .F. ) ;
#155 = DIRECTION ( 'NONE',  ( -7.227423732672903446E-17, 1.000000000000000000, -0.000000000000000000 ) ) ;
#156 = UNCERTAINTY_MEASURE_WITH_UNIT (LENGTH_MEASURE( 1.000000000000000082E-05 ), #263, 'distance_accuracy_value', 'NONE');
#157 =( NAMED_UNIT ( * ) PLANE_ANGLE_UNIT ( ) SI_UNIT ( $, .RADIAN. ) );
#158 = DIRECTION ( 'NONE',  ( -0.000000000000000000, -1.000000000000000000, -0.000000000000000000 ) ) ;
#159 = DIRECTION ( 'NONE',  ( -0.000000000000000000, -1.000000000000000000, -0.000000000000000000 ) ) ;
#160 = EDGE_LOOP ( 'NONE', ( #287, #48 ) ) ;
#161 = CIRCLE ( 'NONE', #205, 12.50000000000000000 ) ;
#162 =( LENGTH_UNIT ( ) NAMED_UNIT ( * ) SI_UNIT ( .MILLI., .METRE. ) );
#163 = AXIS2_PLACEMENT_3D ( 'NONE', #140, #101, #77 ) ;
#164 = FILL_AREA_STYLE ('',( #233 ) ) ;
#165 = CARTESIAN_POINT ( 'NONE',  ( 7.703719777548943412E-31, 64.00000000000000000, 0.000000000000000000 ) ) ;
#166 = DIRECTION ( 'NONE',  ( -0.000000000000000000, -1.000000000000000000, -0.000000000000000000 ) ) ;
#167 = SURFACE_STYLE_FILL_AREA ( #75 ) ;
#168 = VECTOR ( 'NONE', #196, 1000.000000000000000 ) ;
#169 = PLANE ( 'NONE',  #24 ) ;
#170 = COLOUR_RGB ( '',1.000000000000000000, 0.000000000000000000, 0.000000000000000000 ) ;
#171 = FACE_OUTER_BOUND ( 'NONE', #251, .T. ) ;
#172 = DIRECTION ( 'NONE',  ( 1.000000000000000000, 0.000000000000000000, 0.000000000000000000 ) ) ;
#173 = CARTESIAN_POINT ( 'NONE',  ( 0.000000000000000000, 0.000000000000000000, 0.000000000000000000 ) ) ;
#174 = AXIS2_PLACEMENT_3D ( 'NONE', #275, #201, #172 ) ;
#175 = VECTOR ( 'NONE', #166, 1000.000000000000000 ) ;
#176 = SURFACE_STYLE_USAGE ( .BOTH. , #217 ) ;
#177 = FILL_AREA_STYLE ('',( #85 ) ) ;
#178 = SURFACE_SIDE_STYLE ('',( #130 ) ) ;
#179 = PRESENTATION_LAYER_ASSIGNMENT (  '', '', ( #44 ) ) ;
#180 = PRODUCT_RELATED_PRODUCT_CATEGORY ( 'part', '', ( #76 ) ) ;
#181 =( NAMED_UNIT ( * ) SI_UNIT ( $, .STERADIAN. ) SOLID_ANGLE_UNIT ( ) );
#182 = LINE ( 'NONE', #50, #34 ) ;
#183 = ORIENTED_EDGE ( 'NONE', *, *, #12, .T. ) ;
#184 = DIRECTION ( 'NONE',  ( 0.000000000000000000, 0.000000000000000000, -1.000000000000000000 ) ) ;
#185 = CIRCLE ( 'NONE', #92, 12.50000000000000533 ) ;
#186 = VERTEX_POINT ( 'NONE', #108 ) ;
#187 = ORIENTED_EDGE ( 'NONE', *, *, #209, .T. ) ;
#188 = DIRECTION ( 'NONE',  ( 0.000000000000000000, 0.000000000000000000, -1.000000000000000000 ) ) ;
#189 = CIRCLE ( 'NONE', #10, 12.50000000000000000 ) ;
#190 = AXIS2_PLACEMENT_3D ( 'NONE', #30, #51, #188 ) ;
#191 =( LENGTH_UNIT ( ) NAMED_UNIT ( * ) SI_UNIT ( .MILLI., .METRE. ) );
#192 = EDGE_CURVE ( 'NONE', #93, #213, #78, .T. ) ;
#193 = CARTESIAN_POINT ( 'NONE',  ( 1.530808498934191521E-15, 64.00000000000000000, 12.50000000000000000 ) ) ;
#194 = PRESENTATION_LAYER_ASSIGNMENT (  '', '', ( #136 ) ) ;
#195 = PLANE ( 'NONE',  #22 ) ;
#196 = DIRECTION ( 'NONE',  ( -7.227423732672903446E-17, 1.000000000000000000, -0.000000000000000000 ) ) ;
#197 = ADVANCED_FACE ( 'NONE', ( #237 ), #82, .T. ) ;
#198 = DIRECTION ( 'NONE',  ( -1.000000000000000000, 0.000000000000000000, 0.000000000000000000 ) ) ;
#199 = STYLED_ITEM ( 'NONE', ( #36 ), #260 ) ;
#200 = EDGE_CURVE ( 'NONE', #243, #213, #41, .T. ) ;
#201 = DIRECTION ( 'NONE',  ( 0.000000000000000000, 0.000000000000000000, 1.000000000000000000 ) ) ;
#202 = CARTESIAN_POINT ( 'NONE',  ( 12.50000000000000000, 125.0000000000000000, 1.530808498934191916E-15 ) ) ;
#203 = UNCERTAINTY_MEASURE_WITH_UNIT (LENGTH_MEASURE( 1.000000000000000082E-05 ), #191, 'distance_accuracy_value', 'NONE');
#204 = PRESENTATION_STYLE_ASSIGNMENT (( #63 ) ) ;
#205 = AXIS2_PLACEMENT_3D ( 'NONE', #165, #249, #231 ) ;
#206 = MECHANICAL_DESIGN_GEOMETRIC_PRESENTATION_REPRESENTATION (  '', ( #143 ), #281 ) ;
#207 = SURFACE_STYLE_USAGE ( .BOTH. , #178 ) ;
#208 = LINE ( 'NONE', #31, #152 ) ;
#209 = EDGE_CURVE ( 'NONE', #271, #115, #232, .T. ) ;
#210 = VERTEX_POINT ( 'NONE', #193 ) ;
#211 = SURFACE_SIDE_STYLE ('',( #167 ) ) ;
#212 = AXIS2_PLACEMENT_3D ( 'NONE', #149, #155, #198 ) ;
#213 = VERTEX_POINT ( 'NONE', #202 ) ;
#214 = ADVANCED_FACE ( 'NONE', ( #57 ), #153, .T. ) ;
#215 = ORIENTED_EDGE ( 'NONE', *, *, #17, .F. ) ;
#216 = MANIFOLD_SOLID_BREP ( 'Revolve - Tool Body (Straight Shanked)', #9 ) ;
#217 = SURFACE_SIDE_STYLE ('',( #60 ) ) ;
#218 = CIRCLE ( 'NONE', #87, 12.50000000000000000 ) ;
#219 = DIRECTION ( 'NONE',  ( 1.000000000000000000, 7.227423732672903446E-17, 0.000000000000000000 ) ) ;
#220 = DIRECTION ( 'NONE',  ( -7.227423732672903446E-17, 1.000000000000000000, -0.000000000000000000 ) ) ;
#221 = ADVANCED_FACE ( 'NONE', ( #110 ), #91, .T. ) ;
#222 = DIRECTION ( 'NONE',  ( 0.000000000000000000, 0.000000000000000000, -1.000000000000000000 ) ) ;
#223 =( NAMED_UNIT ( * ) PLANE_ANGLE_UNIT ( ) SI_UNIT ( $, .RADIAN. ) );
#224 = UNCERTAINTY_MEASURE_WITH_UNIT (LENGTH_MEASURE( 1.000000000000000082E-05 ), #258, 'distance_accuracy_value', 'NONE');
#225 = MECHANICAL_DESIGN_GEOMETRIC_PRESENTATION_REPRESENTATION (  '', ( #56 ), #62 ) ;
#226 = ORIENTED_EDGE ( 'NONE', *, *, #239, .T. ) ;
#227 = DIRECTION ( 'NONE',  ( 0.000000000000000000, 0.000000000000000000, -1.000000000000000000 ) ) ;
#228 = DIRECTION ( 'NONE',  ( -7.227423732672903446E-17, 1.000000000000000000, -0.000000000000000000 ) ) ;
#229 = ORIENTED_EDGE ( 'NONE', *, *, #244, .T. ) ;
#230 = CLOSED_SHELL ( 'NONE', ( #221, #260, #214, #106 ) ) ;
#231 = DIRECTION ( 'NONE',  ( -1.000000000000000000, 0.000000000000000000, 0.000000000000000000 ) ) ;
#232 = CIRCLE ( 'NONE', #236, 12.50000000000000000 ) ;
#233 = FILL_AREA_STYLE_COLOUR ( '', #235 ) ;
#234 = FILL_AREA_STYLE_COLOUR ( '', #128 ) ;
#235 = COLOUR_RGB ( '',0.7921568627450980005, 0.8196078431372548767, 0.9333333333333333481 ) ;
#236 = AXIS2_PLACEMENT_3D ( 'NONE', #173, #102, #19 ) ;
#237 = FACE_OUTER_BOUND ( 'NONE', #73, .T. ) ;
#238 = FILL_AREA_STYLE ('',( #123 ) ) ;
#239 = EDGE_CURVE ( 'NONE', #115, #271, #218, .T. ) ;
#240 =( GEOMETRIC_REPRESENTATION_CONTEXT ( 3 ) GLOBAL_UNCERTAINTY_ASSIGNED_CONTEXT ( ( #224 ) ) GLOBAL_UNIT_ASSIGNED_CONTEXT ( ( #258, #39, #104 ) ) REPRESENTATION_CONTEXT ( 'NONE', 'WORKASPACE' ) );
#241 =( NAMED_UNIT ( * ) SI_UNIT ( $, .STERADIAN. ) SOLID_ANGLE_UNIT ( ) );
#242 = UNCERTAINTY_MEASURE_WITH_UNIT (LENGTH_MEASURE( 1.000000000000000082E-05 ), #284, 'distance_accuracy_value', 'NONE');
#243 = VERTEX_POINT ( 'NONE', #269 ) ;
#244 = EDGE_CURVE ( 'NONE', #213, #93, #185, .T. ) ;
#245 = DIRECTION ( 'NONE',  ( -0.000000000000000000, -1.000000000000000000, -0.000000000000000000 ) ) ;
#246 = COLOUR_RGB ( '',1.000000000000000000, 0.000000000000000000, 0.000000000000000000 ) ;
#247 = SURFACE_STYLE_FILL_AREA ( #164 ) ;
#248 = ORIENTED_EDGE ( 'NONE', *, *, #270, .F. ) ;
#249 = DIRECTION ( 'NONE',  ( -7.227423732672903446E-17, 1.000000000000000000, -0.000000000000000000 ) ) ;
#250 = EDGE_CURVE ( 'NONE', #243, #186, #124, .T. ) ;
#251 = EDGE_LOOP ( 'NONE', ( #226, #187 ) ) ;
#252 = DIRECTION ( 'NONE',  ( 0.000000000000000000, 1.000000000000000000, 0.000000000000000000 ) ) ;
#253 = PRESENTATION_LAYER_ASSIGNMENT (  '', '', ( #143 ) ) ;
#254 = CARTESIAN_POINT ( 'NONE',  ( 1.530808498934191521E-15, 0.000000000000000000, 12.50000000000000000 ) ) ;
#255 = ADVANCED_FACE ( 'NONE', ( #274 ), #11, .T. ) ;
#256 = DIRECTION ( 'NONE',  ( -1.000000000000000000, -7.227423732672903446E-17, 0.000000000000000000 ) ) ;
#257 = CARTESIAN_POINT ( 'NONE',  ( 0.000000000000000000, 64.00000000000000000, -12.50000000000000000 ) ) ;
#258 =( LENGTH_UNIT ( ) NAMED_UNIT ( * ) SI_UNIT ( .MILLI., .METRE. ) );
#259 = CARTESIAN_POINT ( 'NONE',  ( 0.000000000000000000, 0.000000000000000000, -12.50000000000000000 ) ) ;
#260 = ADVANCED_FACE ( 'NONE', ( #28 ), #169, .T. ) ;
#261 = SURFACE_STYLE_FILL_AREA ( #177 ) ;
#262 = UNCERTAINTY_MEASURE_WITH_UNIT (LENGTH_MEASURE( 1.000000000000000082E-05 ), #45, 'distance_accuracy_value', 'NONE');
#263 =( LENGTH_UNIT ( ) NAMED_UNIT ( * ) SI_UNIT ( .MILLI., .METRE. ) );
#264 = COLOUR_RGB ( '',0.7921568627450980005, 0.8196078431372548767, 0.9333333333333333481 ) ;
#265 = CARTESIAN_POINT ( 'NONE',  ( 0.000000000000000000, 0.000000000000000000, 0.000000000000000000 ) ) ;
#266 = ORIENTED_EDGE ( 'NONE', *, *, #52, .F. ) ;
#267 = ORIENTED_EDGE ( 'NONE', *, *, #52, .T. ) ;
#268 = AXIS2_PLACEMENT_3D ( 'NONE', #265, #245, #227 ) ;
#269 = CARTESIAN_POINT ( 'NONE',  ( 12.50000000000000000, 64.00000000000000000, 1.530808498934191916E-15 ) ) ;
#270 = EDGE_CURVE ( 'NONE', #186, #243, #161, .T. ) ;
#271 = VERTEX_POINT ( 'NONE', #254 ) ;
#272 = EDGE_CURVE ( 'NONE', #210, #141, #8, .T. ) ;
#273 = CARTESIAN_POINT ( 'NONE',  ( 1.530808498934191521E-15, 0.000000000000000000, 12.50000000000000000 ) ) ;
#274 = FACE_OUTER_BOUND ( 'NONE', #121, .T. ) ;
#275 = CARTESIAN_POINT ( 'NONE',  ( 0.000000000000000000, 0.000000000000000000, 0.000000000000000000 ) ) ;
#276 = DIRECTION ( 'NONE',  ( -1.000000000000000000, 0.000000000000000000, 0.000000000000000000 ) ) ;
#277 = FACE_OUTER_BOUND ( 'NONE', #288, .T. ) ;
#278 = SHAPE_DEFINITION_REPRESENTATION ( #111, #139 ) ;
#279 = PRESENTATION_STYLE_ASSIGNMENT (( #176 ) ) ;
#280 = CARTESIAN_POINT ( 'NONE',  ( 3.264728363225220430E-32, 64.00000000000000000, 0.000000000000000000 ) ) ;
#281 =( GEOMETRIC_REPRESENTATION_CONTEXT ( 3 ) GLOBAL_UNCERTAINTY_ASSIGNED_CONTEXT ( ( #132 ) ) GLOBAL_UNIT_ASSIGNED_CONTEXT ( ( #162, #223, #181 ) ) REPRESENTATION_CONTEXT ( 'NONE', 'WORKASPACE' ) );
#282 = DIRECTION ( 'NONE',  ( -1.000000000000000000, 0.000000000000000000, 0.000000000000000000 ) ) ;
#283 = UNCERTAINTY_MEASURE_WITH_UNIT (LENGTH_MEASURE( 1.000000000000000082E-05 ), #142, 'distance_accuracy_value', 'NONE');
#284 =( LENGTH_UNIT ( ) NAMED_UNIT ( * ) SI_UNIT ( .MILLI., .METRE. ) );
#285 = AXIS2_PLACEMENT_3D ( 'NONE', #15, #126, #282 ) ;
#286 = PRODUCT_DEFINITION ( 'UNKNOWN', '', #100, #97 ) ;
#287 = ORIENTED_EDGE ( 'NONE', *, *, #147, .F. ) ;
#288 = EDGE_LOOP ( 'NONE', ( #248, #26 ) ) ;
ENDSEC;
END-ISO-10303-21;
