ISO-10303-21;
HEADER;
FILE_DESCRIPTION (( 'STEP AP214' ),
    '1' );
FILE_NAME ('59727.STEP',
    '2023-07-24T15:54:55',
    ( '' ),
    ( '' ),
    'SwSTEP 2.0',
    'SolidWorks 2023',
    '' );
FILE_SCHEMA (( 'AUTOMOTIVE_DESIGN' ));
ENDSEC;

DATA;
#1 = VECTOR ( 'NONE', #204, 1000.000000000000000 ) ;
#2 = ADVANCED_FACE ( 'NONE', ( #71 ), #264, .F. ) ;
#3 = SURFACE_STYLE_USAGE ( .BOTH. , #25 ) ;
#4 = CARTESIAN_POINT ( 'NONE',  ( 3.000000000000000000, 63.00000000000000000, 0.000000000000000000 ) ) ;
#5 = CARTESIAN_POINT ( 'NONE',  ( 3.000000000000000000, 11.99999999999999645, 3.673940397442058882E-16 ) ) ;
#6 = LINE ( 'NONE', #112, #32 ) ;
#7 = DIRECTION ( 'NONE',  ( -0.000000000000000000, -1.000000000000000000, -0.000000000000000000 ) ) ;
#8 = VECTOR ( 'NONE', #237, 1000.000000000000000 ) ;
#9 = ORIENTED_EDGE ( 'NONE', *, *, #68, .F. ) ;
#10 = EDGE_CURVE ( 'NONE', #46, #170, #31, .T. ) ;
#11 = ORIENTED_EDGE ( 'NONE', *, *, #184, .F. ) ;
#12 = CARTESIAN_POINT ( 'NONE',  ( 3.184081677783117402E-15, 63.00000000000000000, 0.000000000000000000 ) ) ;
#13 = ORIENTED_EDGE ( 'NONE', *, *, #193, .T. ) ;
#14 = COLOUR_RGB ( '',1.000000000000000000, 0.000000000000000000, 0.000000000000000000 ) ;
#15 = EDGE_CURVE ( 'NONE', #119, #50, #115, .T. ) ;
#16 = DIRECTION ( 'NONE',  ( 0.000000000000000000, 0.000000000000000000, -1.000000000000000000 ) ) ;
#17 = AXIS2_PLACEMENT_3D ( 'NONE', #189, #191, #251 ) ;
#18 = PRESENTATION_STYLE_ASSIGNMENT (( #144 ) ) ;
#19 = CARTESIAN_POINT ( 'NONE',  ( 0.000000000000000000, 0.000000000000000000, -3.000000000000000000 ) ) ;
#20 = CARTESIAN_POINT ( 'NONE',  ( 0.000000000000000000, 12.00000000000000000, 0.000000000000000000 ) ) ;
#21 =( GEOMETRIC_REPRESENTATION_CONTEXT ( 3 ) GLOBAL_UNCERTAINTY_ASSIGNED_CONTEXT ( ( #23 ) ) GLOBAL_UNIT_ASSIGNED_CONTEXT ( ( #153, #81, #55 ) ) REPRESENTATION_CONTEXT ( 'NONE', 'WORKASPACE' ) );
#22 =( NAMED_UNIT ( * ) PLANE_ANGLE_UNIT ( ) SI_UNIT ( $, .RADIAN. ) );
#23 = UNCERTAINTY_MEASURE_WITH_UNIT (LENGTH_MEASURE( 1.000000000000000082E-05 ), #153, 'distance_accuracy_value', 'NONE');
#24 = CARTESIAN_POINT ( 'NONE',  ( 0.000000000000000000, 0.000000000000000000, 0.000000000000000000 ) ) ;
#25 = SURFACE_SIDE_STYLE ('',( #236 ) ) ;
#26 = CARTESIAN_POINT ( 'NONE',  ( 3.184081677783117402E-15, 63.00000000000000000, 0.000000000000000000 ) ) ;
#27 = ORIENTED_EDGE ( 'NONE', *, *, #10, .T. ) ;
#28 = EDGE_LOOP ( 'NONE', ( #11, #217 ) ) ;
#29 = CARTESIAN_POINT ( 'NONE',  ( 5.846814377620617787E-33, 12.00000000000000000, 0.000000000000000000 ) ) ;
#30 = SURFACE_STYLE_FILL_AREA ( #53 ) ;
#31 = CIRCLE ( 'NONE', #224, 3.000000000000000000 ) ;
#32 = VECTOR ( 'NONE', #188, 1000.000000000000000 ) ;
#33 = DIRECTION ( 'NONE',  ( -6.243297407417877041E-17, -1.000000000000000000, 0.000000000000000000 ) ) ;
#34 = ADVANCED_FACE ( 'NONE', ( #245 ), #152, .T. ) ;
#35 = CIRCLE ( 'NONE', #227, 2.999999999999996891 ) ;
#36 = DIRECTION ( 'NONE',  ( 0.000000000000000000, 1.000000000000000000, 0.000000000000000000 ) ) ;
#37 = SURFACE_SIDE_STYLE ('',( #280 ) ) ;
#38 = FACE_OUTER_BOUND ( 'NONE', #141, .T. ) ;
#39 = AXIS2_PLACEMENT_3D ( 'NONE', #61, #82, #275 ) ;
#40 =( NAMED_UNIT ( * ) SI_UNIT ( $, .STERADIAN. ) SOLID_ANGLE_UNIT ( ) );
#41 = CARTESIAN_POINT ( 'NONE',  ( 0.000000000000000000, 0.000000000000000000, 0.000000000000000000 ) ) ;
#42 = EDGE_CURVE ( 'NONE', #140, #89, #66, .T. ) ;
#43 = FILL_AREA_STYLE_COLOUR ( '', #14 ) ;
#44 = AXIS2_PLACEMENT_3D ( 'NONE', #29, #95, #198 ) ;
#45 = PRESENTATION_LAYER_ASSIGNMENT (  '', '', ( #183 ) ) ;
#46 = VERTEX_POINT ( 'NONE', #58 ) ;
#47 = ORIENTED_EDGE ( 'NONE', *, *, #42, .F. ) ;
#48 = FILL_AREA_STYLE ('',( #73 ) ) ;
#49 =( GEOMETRIC_REPRESENTATION_CONTEXT ( 3 ) GLOBAL_UNCERTAINTY_ASSIGNED_CONTEXT ( ( #211 ) ) GLOBAL_UNIT_ASSIGNED_CONTEXT ( ( #279, #186, #235 ) ) REPRESENTATION_CONTEXT ( 'NONE', 'WORKASPACE' ) );
#50 = VERTEX_POINT ( 'NONE', #5 ) ;
#51 = EDGE_LOOP ( 'NONE', ( #261, #178, #9, #173 ) ) ;
#52 = FACE_OUTER_BOUND ( 'NONE', #282, .T. ) ;
#53 = FILL_AREA_STYLE ('',( #271 ) ) ;
#54 = CIRCLE ( 'NONE', #90, 2.999999999999996891 ) ;
#55 =( NAMED_UNIT ( * ) SI_UNIT ( $, .STERADIAN. ) SOLID_ANGLE_UNIT ( ) );
#56 = SURFACE_STYLE_USAGE ( .BOTH. , #150 ) ;
#57 = DIRECTION ( 'NONE',  ( -0.000000000000000000, -1.000000000000000000, -0.000000000000000000 ) ) ;
#58 = CARTESIAN_POINT ( 'NONE',  ( 3.673940397442059868E-16, 12.00000000000000000, 3.000000000000000000 ) ) ;
#59 = DIRECTION ( 'NONE',  ( -1.000000000000000000, 0.000000000000000000, 0.000000000000000000 ) ) ;
#60 = UNCERTAINTY_MEASURE_WITH_UNIT (LENGTH_MEASURE( 1.000000000000000082E-05 ), #103, 'distance_accuracy_value', 'NONE');
#61 = CARTESIAN_POINT ( 'NONE',  ( 0.000000000000000000, 0.000000000000000000, 0.000000000000000000 ) ) ;
#62 = VECTOR ( 'NONE', #76, 1000.000000000000000 ) ;
#63 =( LENGTH_UNIT ( ) NAMED_UNIT ( * ) SI_UNIT ( .MILLI., .METRE. ) );
#64 = ADVANCED_FACE ( 'NONE', ( #212 ), #277, .T. ) ;
#65 = ORIENTED_EDGE ( 'NONE', *, *, #155, .T. ) ;
#66 = CIRCLE ( 'NONE', #17, 3.000000000000000000 ) ;
#67 = STYLED_ITEM ( 'NONE', ( #229 ), #83 ) ;
#68 = EDGE_CURVE ( 'NONE', #89, #140, #162, .T. ) ;
#69 = ORIENTED_EDGE ( 'NONE', *, *, #68, .T. ) ;
#70 = PRESENTATION_STYLE_ASSIGNMENT (( #228 ) ) ;
#71 = FACE_OUTER_BOUND ( 'NONE', #172, .T. ) ;
#72 = EDGE_CURVE ( 'NONE', #170, #89, #167, .T. ) ;
#73 = FILL_AREA_STYLE_COLOUR ( '', #116 ) ;
#74 = MECHANICAL_DESIGN_GEOMETRIC_PRESENTATION_REPRESENTATION (  '', ( #243 ), #143 ) ;
#75 = ORIENTED_EDGE ( 'NONE', *, *, #120, .F. ) ;
#76 = DIRECTION ( 'NONE',  ( -0.000000000000000000, -1.000000000000000000, -0.000000000000000000 ) ) ;
#77 =( NAMED_UNIT ( * ) PLANE_ANGLE_UNIT ( ) SI_UNIT ( $, .RADIAN. ) );
#78 = CARTESIAN_POINT ( 'NONE',  ( 0.000000000000000000, 12.00000000000000000, 0.000000000000000000 ) ) ;
#79 = SURFACE_SIDE_STYLE ('',( #100 ) ) ;
#80 = PLANE ( 'NONE',  #163 ) ;
#81 =( NAMED_UNIT ( * ) PLANE_ANGLE_UNIT ( ) SI_UNIT ( $, .RADIAN. ) );
#82 = DIRECTION ( 'NONE',  ( -0.000000000000000000, -1.000000000000000000, -0.000000000000000000 ) ) ;
#83 = ADVANCED_FACE ( 'NONE', ( #108 ), #111, .T. ) ;
#84 = AXIS2_PLACEMENT_3D ( 'NONE', #106, #157, #185 ) ;
#85 =( GEOMETRIC_REPRESENTATION_CONTEXT ( 3 ) GLOBAL_UNCERTAINTY_ASSIGNED_CONTEXT ( ( #278 ) ) GLOBAL_UNIT_ASSIGNED_CONTEXT ( ( #201, #77, #154 ) ) REPRESENTATION_CONTEXT ( 'NONE', 'WORKASPACE' ) );
#86 = APPLICATION_PROTOCOL_DEFINITION ( 'draft international standard', 'automotive_design', 1998, #130 ) ;
#87 = DIRECTION ( 'NONE',  ( 0.000000000000000000, -1.000000000000000000, -0.000000000000000000 ) ) ;
#88 = DIRECTION ( 'NONE',  ( 6.243297407417877041E-17, 1.000000000000000000, -0.000000000000000000 ) ) ;
#89 = VERTEX_POINT ( 'NONE', #19 ) ;
#90 = AXIS2_PLACEMENT_3D ( 'NONE', #12, #272, #105 ) ;
#91 = MECHANICAL_DESIGN_GEOMETRIC_PRESENTATION_REPRESENTATION (  '', ( #67 ), #49 ) ;
#92 = APPLICATION_PROTOCOL_DEFINITION ( 'draft international standard', 'automotive_design', 1998, #182 ) ;
#93 = ADVANCED_FACE ( 'NONE', ( #38 ), #104, .F. ) ;
#94 = ORIENTED_EDGE ( 'NONE', *, *, #15, .F. ) ;
#95 = DIRECTION ( 'NONE',  ( 6.243297407417877041E-17, 1.000000000000000000, -0.000000000000000000 ) ) ;
#96 = DIRECTION ( 'NONE',  ( 0.000000000000000000, 0.000000000000000000, -1.000000000000000000 ) ) ;
#97 = DIRECTION ( 'NONE',  ( 6.243297407417877041E-17, 1.000000000000000000, -0.000000000000000000 ) ) ;
#98 = STYLED_ITEM ( 'NONE', ( #209 ), #207 ) ;
#99 = EDGE_CURVE ( 'NONE', #50, #119, #253, .T. ) ;
#100 = SURFACE_STYLE_FILL_AREA ( #48 ) ;
#101 = PRODUCT_DEFINITION_SHAPE ( 'NONE', 'NONE',  #287 ) ;
#102 = MANIFOLD_SOLID_BREP ( 'Revolve - Cutting Edge', #175 ) ;
#103 =( LENGTH_UNIT ( ) NAMED_UNIT ( * ) SI_UNIT ( .MILLI., .METRE. ) );
#104 = PLANE ( 'NONE',  #219 ) ;
#105 = DIRECTION ( 'NONE',  ( -1.000000000000000000, 0.000000000000000000, 0.000000000000000000 ) ) ;
#106 = CARTESIAN_POINT ( 'NONE',  ( 0.000000000000000000, 12.00000000000000000, 0.000000000000000000 ) ) ;
#107 = DIRECTION ( 'NONE',  ( -1.000000000000000000, 0.000000000000000000, 0.000000000000000000 ) ) ;
#108 = FACE_OUTER_BOUND ( 'NONE', #223, .T. ) ;
#109 = CARTESIAN_POINT ( 'NONE',  ( -2.999999999999993783, 63.00000000000000000, 0.000000000000000000 ) ) ;
#110 = CLOSED_SHELL ( 'NONE', ( #64, #2, #210, #93 ) ) ;
#111 = CYLINDRICAL_SURFACE ( 'NONE', #230, 3.000000000000000000 ) ;
#112 = CARTESIAN_POINT ( 'NONE',  ( -2.999999999999995115, 63.00000000000000000, 0.000000000000000000 ) ) ;
#113 = ORIENTED_EDGE ( 'NONE', *, *, #72, .T. ) ;
#114 = EDGE_LOOP ( 'NONE', ( #240, #192, #258, #265 ) ) ;
#115 = CIRCLE ( 'NONE', #256, 3.000000000000000000 ) ;
#116 = COLOUR_RGB ( '',0.7921568627450980005, 0.8196078431372548767, 0.9333333333333333481 ) ;
#117 = EDGE_CURVE ( 'NONE', #46, #140, #122, .T. ) ;
#118 = ORIENTED_EDGE ( 'NONE', *, *, #15, .T. ) ;
#119 = VERTEX_POINT ( 'NONE', #180 ) ;
#120 = EDGE_CURVE ( 'NONE', #196, #174, #54, .T. ) ;
#121 = COLOUR_RGB ( '',1.000000000000000000, 0.000000000000000000, 0.000000000000000000 ) ;
#122 = LINE ( 'NONE', #226, #62 ) ;
#123 = PRESENTATION_LAYER_ASSIGNMENT (  '', '', ( #243 ) ) ;
#124 = ADVANCED_BREP_SHAPE_REPRESENTATION ( '59727', ( #102, #207, #139 ), #85 ) ;
#125 = DIRECTION ( 'NONE',  ( 1.000000000000000000, -6.243297407417877041E-17, 0.000000000000000000 ) ) ;
#126 = PRESENTATION_LAYER_ASSIGNMENT (  '', '', ( #98 ) ) ;
#127 = CARTESIAN_POINT ( 'NONE',  ( 0.000000000000000000, 11.99999999999999645, 0.000000000000000000 ) ) ;
#128 =( NAMED_UNIT ( * ) SI_UNIT ( $, .STERADIAN. ) SOLID_ANGLE_UNIT ( ) );
#129 = FILL_AREA_STYLE ('',( #156 ) ) ;
#130 = APPLICATION_CONTEXT ( 'automotive_design' ) ;
#131 = COLOUR_RGB ( '',1.000000000000000000, 0.000000000000000000, 0.000000000000000000 ) ;
#132 = CARTESIAN_POINT ( 'NONE',  ( 3.184081677783117402E-15, 63.00000000000000000, 0.000000000000000000 ) ) ;
#133 = CYLINDRICAL_SURFACE ( 'NONE', #138, 2.999999999999998224 ) ;
#134 = UNCERTAINTY_MEASURE_WITH_UNIT (LENGTH_MEASURE( 1.000000000000000082E-05 ), #63, 'distance_accuracy_value', 'NONE');
#135 = DIRECTION ( 'NONE',  ( 6.243297407417877041E-17, 1.000000000000000000, -0.000000000000000000 ) ) ;
#136 = FILL_AREA_STYLE ('',( #43 ) ) ;
#137 = CARTESIAN_POINT ( 'NONE',  ( 3.000000000000000000, 63.00000000000000000, 3.673940397442058882E-16 ) ) ;
#138 = AXIS2_PLACEMENT_3D ( 'NONE', #26, #276, #59 ) ;
#139 = AXIS2_PLACEMENT_3D ( 'NONE', #214, #259, #242 ) ;
#140 = VERTEX_POINT ( 'NONE', #222 ) ;
#141 = EDGE_LOOP ( 'NONE', ( #221, #65 ) ) ;
#142 = ORIENTED_EDGE ( 'NONE', *, *, #117, .F. ) ;
#143 =( GEOMETRIC_REPRESENTATION_CONTEXT ( 3 ) GLOBAL_UNCERTAINTY_ASSIGNED_CONTEXT ( ( #231 ) ) GLOBAL_UNIT_ASSIGNED_CONTEXT ( ( #145, #147, #128 ) ) REPRESENTATION_CONTEXT ( 'NONE', 'WORKASPACE' ) );
#144 = SURFACE_STYLE_USAGE ( .BOTH. , #79 ) ;
#145 =( LENGTH_UNIT ( ) NAMED_UNIT ( * ) SI_UNIT ( .MILLI., .METRE. ) );
#146 = SURFACE_STYLE_FILL_AREA ( #268 ) ;
#147 =( NAMED_UNIT ( * ) PLANE_ANGLE_UNIT ( ) SI_UNIT ( $, .RADIAN. ) );
#148 = PRESENTATION_STYLE_ASSIGNMENT (( #56 ) ) ;
#149 = DIRECTION ( 'NONE',  ( 0.000000000000000000, -0.000000000000000000, 1.000000000000000000 ) ) ;
#150 = SURFACE_SIDE_STYLE ('',( #30 ) ) ;
#151 = ADVANCED_FACE ( 'NONE', ( #52 ), #250, .T. ) ;
#152 = CYLINDRICAL_SURFACE ( 'NONE', #286, 3.000000000000000000 ) ;
#153 =( LENGTH_UNIT ( ) NAMED_UNIT ( * ) SI_UNIT ( .MILLI., .METRE. ) );
#154 =( NAMED_UNIT ( * ) SI_UNIT ( $, .STERADIAN. ) SOLID_ANGLE_UNIT ( ) );
#155 = EDGE_CURVE ( 'NONE', #174, #196, #35, .T. ) ;
#156 = FILL_AREA_STYLE_COLOUR ( '', #273 ) ;
#157 = DIRECTION ( 'NONE',  ( -0.000000000000000000, -1.000000000000000000, -0.000000000000000000 ) ) ;
#158 =( NAMED_UNIT ( * ) SI_UNIT ( $, .STERADIAN. ) SOLID_ANGLE_UNIT ( ) );
#159 = DIRECTION ( 'NONE',  ( 0.000000000000000000, 0.000000000000000000, -1.000000000000000000 ) ) ;
#160 = CARTESIAN_POINT ( 'NONE',  ( 0.000000000000000000, 12.00000000000000000, -3.000000000000000000 ) ) ;
#161 = STYLED_ITEM ( 'NONE', ( #148 ), #34 ) ;
#162 = CIRCLE ( 'NONE', #39, 3.000000000000000000 ) ;
#163 = AXIS2_PLACEMENT_3D ( 'NONE', #20, #36, #149 ) ;
#164 = CARTESIAN_POINT ( 'NONE',  ( 0.000000000000000000, 0.000000000000000000, 0.000000000000000000 ) ) ;
#165 = FACE_OUTER_BOUND ( 'NONE', #28, .T. ) ;
#166 = PRODUCT_DEFINITION_CONTEXT ( 'detailed design', #130, 'design' ) ;
#167 = LINE ( 'NONE', #233, #1 ) ;
#168 = SURFACE_STYLE_USAGE ( .BOTH. , #37 ) ;
#169 = SURFACE_SIDE_STYLE ('',( #281 ) ) ;
#170 = VERTEX_POINT ( 'NONE', #160 ) ;
#171 = CIRCLE ( 'NONE', #84, 3.000000000000000000 ) ;
#172 = EDGE_LOOP ( 'NONE', ( #94, #260 ) ) ;
#173 = ORIENTED_EDGE ( 'NONE', *, *, #72, .F. ) ;
#174 = VERTEX_POINT ( 'NONE', #137 ) ;
#175 = CLOSED_SHELL ( 'NONE', ( #34, #247, #83, #151 ) ) ;
#176 = PRESENTATION_LAYER_ASSIGNMENT (  '', '', ( #67 ) ) ;
#177 =( NAMED_UNIT ( * ) PLANE_ANGLE_UNIT ( ) SI_UNIT ( $, .RADIAN. ) );
#178 = ORIENTED_EDGE ( 'NONE', *, *, #117, .T. ) ;
#179 = CARTESIAN_POINT ( 'NONE',  ( 3.184081677783117402E-15, 63.00000000000000000, 0.000000000000000000 ) ) ;
#180 = CARTESIAN_POINT ( 'NONE',  ( -3.000000000000000000, 11.99999999999999645, 0.000000000000000000 ) ) ;
#181 = PRESENTATION_STYLE_ASSIGNMENT (( #3 ) ) ;
#182 = APPLICATION_CONTEXT ( 'automotive_design' ) ;
#183 = STYLED_ITEM ( 'NONE', ( #181 ), #247 ) ;
#184 = EDGE_CURVE ( 'NONE', #170, #46, #171, .T. ) ;
#185 = DIRECTION ( 'NONE',  ( 0.000000000000000000, 0.000000000000000000, -1.000000000000000000 ) ) ;
#186 =( NAMED_UNIT ( * ) PLANE_ANGLE_UNIT ( ) SI_UNIT ( $, .RADIAN. ) );
#187 = FACE_OUTER_BOUND ( 'NONE', #114, .T. ) ;
#188 = DIRECTION ( 'NONE',  ( 6.243297407417877041E-17, 1.000000000000000000, -0.000000000000000000 ) ) ;
#189 = CARTESIAN_POINT ( 'NONE',  ( 0.000000000000000000, 0.000000000000000000, 0.000000000000000000 ) ) ;
#190 = LINE ( 'NONE', #274, #8 ) ;
#191 = DIRECTION ( 'NONE',  ( -0.000000000000000000, -1.000000000000000000, -0.000000000000000000 ) ) ;
#192 = ORIENTED_EDGE ( 'NONE', *, *, #99, .T. ) ;
#193 = EDGE_CURVE ( 'NONE', #50, #174, #190, .T. ) ;
#194 = PRESENTATION_LAYER_ASSIGNMENT (  '', '', ( #248 ) ) ;
#195 = PRODUCT_CONTEXT ( 'NONE', #182, 'mechanical' ) ;
#196 = VERTEX_POINT ( 'NONE', #109 ) ;
#197 =( LENGTH_UNIT ( ) NAMED_UNIT ( * ) SI_UNIT ( .MILLI., .METRE. ) );
#198 = DIRECTION ( 'NONE',  ( -1.000000000000000000, 6.243297407417877041E-17, 0.000000000000000000 ) ) ;
#199 =( GEOMETRIC_REPRESENTATION_CONTEXT ( 3 ) GLOBAL_UNCERTAINTY_ASSIGNED_CONTEXT ( ( #134 ) ) GLOBAL_UNIT_ASSIGNED_CONTEXT ( ( #63, #22, #40 ) ) REPRESENTATION_CONTEXT ( 'NONE', 'WORKASPACE' ) );
#200 = PRESENTATION_LAYER_ASSIGNMENT (  '', '', ( #161 ) ) ;
#201 =( LENGTH_UNIT ( ) NAMED_UNIT ( * ) SI_UNIT ( .MILLI., .METRE. ) );
#202 = PRODUCT_DEFINITION_FORMATION_WITH_SPECIFIED_SOURCE ( 'ANY', '', #266, .NOT_KNOWN. ) ;
#203 =( NAMED_UNIT ( * ) SI_UNIT ( $, .STERADIAN. ) SOLID_ANGLE_UNIT ( ) );
#204 = DIRECTION ( 'NONE',  ( -0.000000000000000000, -1.000000000000000000, -0.000000000000000000 ) ) ;
#205 =( GEOMETRIC_REPRESENTATION_CONTEXT ( 3 ) GLOBAL_UNCERTAINTY_ASSIGNED_CONTEXT ( ( #60 ) ) GLOBAL_UNIT_ASSIGNED_CONTEXT ( ( #103, #249, #158 ) ) REPRESENTATION_CONTEXT ( 'NONE', 'WORKASPACE' ) );
#206 = MECHANICAL_DESIGN_GEOMETRIC_PRESENTATION_REPRESENTATION (  '', ( #183 ), #21 ) ;
#207 = MANIFOLD_SOLID_BREP ( 'Revolve - Tool Body (Straight Shanked)', #110 ) ;
#208 = DIRECTION ( 'NONE',  ( -0.000000000000000000, -1.000000000000000000, -0.000000000000000000 ) ) ;
#209 = PRESENTATION_STYLE_ASSIGNMENT (( #168 ) ) ;
#210 = ADVANCED_FACE ( 'NONE', ( #187 ), #133, .T. ) ;
#211 = UNCERTAINTY_MEASURE_WITH_UNIT (LENGTH_MEASURE( 1.000000000000000082E-05 ), #279, 'distance_accuracy_value', 'NONE');
#212 = FACE_OUTER_BOUND ( 'NONE', #220, .T. ) ;
#213 = MECHANICAL_DESIGN_GEOMETRIC_PRESENTATION_REPRESENTATION (  '', ( #98 ), #199 ) ;
#214 = CARTESIAN_POINT ( 'NONE',  ( 0.000000000000000000, 0.000000000000000000, 0.000000000000000000 ) ) ;
#215 = DIRECTION ( 'NONE',  ( 0.000000000000000000, 0.000000000000000000, -1.000000000000000000 ) ) ;
#216 = FILL_AREA_STYLE_COLOUR ( '', #263 ) ;
#217 = ORIENTED_EDGE ( 'NONE', *, *, #10, .F. ) ;
#218 = EDGE_CURVE ( 'NONE', #119, #196, #6, .T. ) ;
#219 = AXIS2_PLACEMENT_3D ( 'NONE', #4, #33, #125 ) ;
#220 = EDGE_LOOP ( 'NONE', ( #118, #13, #75, #239 ) ) ;
#221 = ORIENTED_EDGE ( 'NONE', *, *, #120, .T. ) ;
#222 = CARTESIAN_POINT ( 'NONE',  ( 3.673940397442059868E-16, 0.000000000000000000, 3.000000000000000000 ) ) ;
#223 = EDGE_LOOP ( 'NONE', ( #142, #27, #113, #47 ) ) ;
#224 = AXIS2_PLACEMENT_3D ( 'NONE', #78, #57, #16 ) ;
#225 = AXIS2_PLACEMENT_3D ( 'NONE', #41, #87, #96 ) ;
#226 = CARTESIAN_POINT ( 'NONE',  ( 3.673940397442059868E-16, 0.000000000000000000, 3.000000000000000000 ) ) ;
#227 = AXIS2_PLACEMENT_3D ( 'NONE', #179, #88, #234 ) ;
#228 = SURFACE_STYLE_USAGE ( .BOTH. , #246 ) ;
#229 = PRESENTATION_STYLE_ASSIGNMENT (( #255 ) ) ;
#230 = AXIS2_PLACEMENT_3D ( 'NONE', #24, #7, #215 ) ;
#231 = UNCERTAINTY_MEASURE_WITH_UNIT (LENGTH_MEASURE( 1.000000000000000082E-05 ), #145, 'distance_accuracy_value', 'NONE');
#232 = AXIS2_PLACEMENT_3D ( 'NONE', #132, #135, #107 ) ;
#233 = CARTESIAN_POINT ( 'NONE',  ( 0.000000000000000000, 0.000000000000000000, -3.000000000000000000 ) ) ;
#234 = DIRECTION ( 'NONE',  ( -1.000000000000000000, 0.000000000000000000, 0.000000000000000000 ) ) ;
#235 =( NAMED_UNIT ( * ) SI_UNIT ( $, .STERADIAN. ) SOLID_ANGLE_UNIT ( ) );
#236 = SURFACE_STYLE_FILL_AREA ( #136 ) ;
#237 = DIRECTION ( 'NONE',  ( 6.243297407417877041E-17, 1.000000000000000000, -0.000000000000000000 ) ) ;
#238 = MECHANICAL_DESIGN_GEOMETRIC_PRESENTATION_REPRESENTATION (  '', ( #248 ), #257 ) ;
#239 = ORIENTED_EDGE ( 'NONE', *, *, #218, .F. ) ;
#240 = ORIENTED_EDGE ( 'NONE', *, *, #193, .F. ) ;
#241 = ORIENTED_EDGE ( 'NONE', *, *, #42, .T. ) ;
#242 = DIRECTION ( 'NONE',  ( 1.000000000000000000, 0.000000000000000000, 0.000000000000000000 ) ) ;
#243 = STYLED_ITEM ( 'NONE', ( #70 ), #151 ) ;
#244 = PRODUCT_RELATED_PRODUCT_CATEGORY ( 'part', '', ( #266 ) ) ;
#245 = FACE_OUTER_BOUND ( 'NONE', #51, .T. ) ;
#246 = SURFACE_SIDE_STYLE ('',( #146 ) ) ;
#247 = ADVANCED_FACE ( 'NONE', ( #165 ), #80, .T. ) ;
#248 = STYLED_ITEM ( 'NONE', ( #18 ), #102 ) ;
#249 =( NAMED_UNIT ( * ) PLANE_ANGLE_UNIT ( ) SI_UNIT ( $, .RADIAN. ) );
#250 = PLANE ( 'NONE',  #225 ) ;
#251 = DIRECTION ( 'NONE',  ( 0.000000000000000000, 0.000000000000000000, -1.000000000000000000 ) ) ;
#252 = FILL_AREA_STYLE ('',( #216 ) ) ;
#253 = CIRCLE ( 'NONE', #269, 3.000000000000000000 ) ;
#254 = UNCERTAINTY_MEASURE_WITH_UNIT (LENGTH_MEASURE( 1.000000000000000082E-05 ), #197, 'distance_accuracy_value', 'NONE');
#255 = SURFACE_STYLE_USAGE ( .BOTH. , #169 ) ;
#256 = AXIS2_PLACEMENT_3D ( 'NONE', #127, #267, #270 ) ;
#257 =( GEOMETRIC_REPRESENTATION_CONTEXT ( 3 ) GLOBAL_UNCERTAINTY_ASSIGNED_CONTEXT ( ( #254 ) ) GLOBAL_UNIT_ASSIGNED_CONTEXT ( ( #197, #177, #203 ) ) REPRESENTATION_CONTEXT ( 'NONE', 'WORKASPACE' ) );
#258 = ORIENTED_EDGE ( 'NONE', *, *, #218, .T. ) ;
#259 = DIRECTION ( 'NONE',  ( 0.000000000000000000, 0.000000000000000000, 1.000000000000000000 ) ) ;
#260 = ORIENTED_EDGE ( 'NONE', *, *, #99, .F. ) ;
#261 = ORIENTED_EDGE ( 'NONE', *, *, #184, .T. ) ;
#262 = FILL_AREA_STYLE_COLOUR ( '', #131 ) ;
#263 = COLOUR_RGB ( '',0.7921568627450980005, 0.8196078431372548767, 0.9333333333333333481 ) ;
#264 = PLANE ( 'NONE',  #44 ) ;
#265 = ORIENTED_EDGE ( 'NONE', *, *, #155, .F. ) ;
#266 = PRODUCT ( '59727', '59727', '', ( #195 ) ) ;
#267 = DIRECTION ( 'NONE',  ( 6.243297407417877041E-17, 1.000000000000000000, -0.000000000000000000 ) ) ;
#268 = FILL_AREA_STYLE ('',( #262 ) ) ;
#269 = AXIS2_PLACEMENT_3D ( 'NONE', #288, #97, #284 ) ;
#270 = DIRECTION ( 'NONE',  ( -1.000000000000000000, 0.000000000000000000, 0.000000000000000000 ) ) ;
#271 = FILL_AREA_STYLE_COLOUR ( '', #121 ) ;
#272 = DIRECTION ( 'NONE',  ( 6.243297407417877041E-17, 1.000000000000000000, -0.000000000000000000 ) ) ;
#273 = COLOUR_RGB ( '',1.000000000000000000, 0.000000000000000000, 0.000000000000000000 ) ;
#274 = CARTESIAN_POINT ( 'NONE',  ( 3.000000000000001332, 63.00000000000000000, 3.673940397442057896E-16 ) ) ;
#275 = DIRECTION ( 'NONE',  ( 0.000000000000000000, 0.000000000000000000, -1.000000000000000000 ) ) ;
#276 = DIRECTION ( 'NONE',  ( 6.243297407417877041E-17, 1.000000000000000000, -0.000000000000000000 ) ) ;
#277 = CYLINDRICAL_SURFACE ( 'NONE', #232, 2.999999999999998224 ) ;
#278 = UNCERTAINTY_MEASURE_WITH_UNIT (LENGTH_MEASURE( 1.000000000000000082E-05 ), #201, 'distance_accuracy_value', 'NONE');
#279 =( LENGTH_UNIT ( ) NAMED_UNIT ( * ) SI_UNIT ( .MILLI., .METRE. ) );
#280 = SURFACE_STYLE_FILL_AREA ( #252 ) ;
#281 = SURFACE_STYLE_FILL_AREA ( #129 ) ;
#282 = EDGE_LOOP ( 'NONE', ( #69, #241 ) ) ;
#283 = SHAPE_DEFINITION_REPRESENTATION ( #101, #124 ) ;
#284 = DIRECTION ( 'NONE',  ( -1.000000000000000000, 0.000000000000000000, 0.000000000000000000 ) ) ;
#285 = MECHANICAL_DESIGN_GEOMETRIC_PRESENTATION_REPRESENTATION (  '', ( #161 ), #205 ) ;
#286 = AXIS2_PLACEMENT_3D ( 'NONE', #164, #208, #159 ) ;
#287 = PRODUCT_DEFINITION ( 'UNKNOWN', '', #202, #166 ) ;
#288 = CARTESIAN_POINT ( 'NONE',  ( 0.000000000000000000, 11.99999999999999645, 0.000000000000000000 ) ) ;
ENDSEC;
END-ISO-10303-21;
