ISO-10303-21;
HEADER;
FILE_DESCRIPTION (( 'STEP AP214' ),
    '1' );
FILE_NAME ('30647.STEP',
    '2023-06-22T18:52:19',
    ( '' ),
    ( '' ),
    'SwSTEP 2.0',
    'SolidWorks 2023',
    '' );
FILE_SCHEMA (( 'AUTOMOTIVE_DESIGN' ));
ENDSEC;

DATA;
#1 = CIRCLE ( 'NONE', #235, 0.3750000000000000555 ) ;
#2 = DIMENSIONAL_EXPONENTS ( 1.000000000000000000, 0.000000000000000000, 0.000000000000000000, 0.000000000000000000, 0.000000000000000000, 0.000000000000000000, 0.000000000000000000 ) ;
#3 = VERTEX_POINT ( 'NONE', #262 ) ;
#4 = CARTESIAN_POINT ( 'NONE',  ( 4.592425496802575451E-17, 0.000000000000000000, 0.3750000000000000555 ) ) ;
#5 = CARTESIAN_POINT ( 'NONE',  ( 0.000000000000000000, 0.000000000000000000, 0.000000000000000000 ) ) ;
#6 = DIRECTION ( 'NONE',  ( -0.000000000000000000, -1.000000000000000000, -0.000000000000000000 ) ) ;
#7 = AXIS2_PLACEMENT_3D ( 'NONE', #128, #199, #226 ) ;
#8 = SURFACE_STYLE_FILL_AREA ( #258 ) ;
#9 = DIRECTION ( 'NONE',  ( 0.000000000000000000, 0.000000000000000000, -1.000000000000000000 ) ) ;
#10 = DIMENSIONAL_EXPONENTS ( 1.000000000000000000, 0.000000000000000000, 0.000000000000000000, 0.000000000000000000, 0.000000000000000000, 0.000000000000000000, 0.000000000000000000 ) ;
#11 = FILL_AREA_STYLE_COLOUR ( '', #257 ) ;
#12 = LENGTH_MEASURE_WITH_UNIT ( LENGTH_MEASURE( 0.02539999999999999897 ), #76 );
#13 = EDGE_CURVE ( 'NONE', #241, #269, #263, .T. ) ;
#14 = SURFACE_STYLE_USAGE ( .BOTH. , #279 ) ;
#15 = CIRCLE ( 'NONE', #80, 0.3750000000000000555 ) ;
#16 =( NAMED_UNIT ( * ) PLANE_ANGLE_UNIT ( ) SI_UNIT ( $, .RADIAN. ) );
#17 = FILL_AREA_STYLE ('',( #253 ) ) ;
#18 = STYLED_ITEM ( 'NONE', ( #101 ), #259 ) ;
#19 =( NAMED_UNIT ( * ) PLANE_ANGLE_UNIT ( ) SI_UNIT ( $, .RADIAN. ) );
#20 = ORIENTED_EDGE ( 'NONE', *, *, #13, .T. ) ;
#21 =( CONVERSION_BASED_UNIT ( 'INCH', #70 ) LENGTH_UNIT ( ) NAMED_UNIT ( #213 ) );
#22 = CARTESIAN_POINT ( 'NONE',  ( 0.000000000000000000, 0.000000000000000000, 0.000000000000000000 ) ) ;
#23 = CARTESIAN_POINT ( 'NONE',  ( 0.000000000000000000, 0.000000000000000000, 0.000000000000000000 ) ) ;
#24 = CARTESIAN_POINT ( 'NONE',  ( 4.592425496802575451E-17, 1.250000000000000000, 0.3750000000000000555 ) ) ;
#25 = ORIENTED_EDGE ( 'NONE', *, *, #287, .T. ) ;
#26 =( GEOMETRIC_REPRESENTATION_CONTEXT ( 3 ) GLOBAL_UNCERTAINTY_ASSIGNED_CONTEXT ( ( #305 ) ) GLOBAL_UNIT_ASSIGNED_CONTEXT ( ( #220, #146, #152 ) ) REPRESENTATION_CONTEXT ( 'NONE', 'WORKASPACE' ) );
#27 = DIRECTION ( 'NONE',  ( -1.000000000000000000, 0.000000000000000000, 0.000000000000000000 ) ) ;
#28 = EDGE_LOOP ( 'NONE', ( #73, #237, #211, #87 ) ) ;
#29 = CARTESIAN_POINT ( 'NONE',  ( -0.3750000000000002220, 4.000000000000000000, 0.000000000000000000 ) ) ;
#30 = PRODUCT_DEFINITION_CONTEXT ( 'detailed design', #58, 'design' ) ;
#31 = LENGTH_MEASURE_WITH_UNIT ( LENGTH_MEASURE( 0.02539999999999999897 ), #245 );
#32 = CARTESIAN_POINT ( 'NONE',  ( 0.000000000000000000, 1.250000000000000000, 0.000000000000000000 ) ) ;
#33 =( NAMED_UNIT ( * ) PLANE_ANGLE_UNIT ( ) SI_UNIT ( $, .RADIAN. ) );
#34 = FACE_OUTER_BOUND ( 'NONE', #165, .T. ) ;
#35 = PRODUCT_DEFINITION_FORMATION_WITH_SPECIFIED_SOURCE ( 'ANY', '', #171, .NOT_KNOWN. ) ;
#36 = CARTESIAN_POINT ( 'NONE',  ( 0.000000000000000000, 0.000000000000000000, -0.3750000000000000555 ) ) ;
#37 = FACE_OUTER_BOUND ( 'NONE', #133, .T. ) ;
#38 = DIRECTION ( 'NONE',  ( -0.000000000000000000, -1.000000000000000000, -0.000000000000000000 ) ) ;
#39 = SURFACE_SIDE_STYLE ('',( #8 ) ) ;
#40 = PRODUCT_DEFINITION_SHAPE ( 'NONE', 'NONE',  #48 ) ;
#41 = PRESENTATION_STYLE_ASSIGNMENT (( #107 ) ) ;
#42 = UNCERTAINTY_MEASURE_WITH_UNIT (LENGTH_MEASURE( 1.000000000000000082E-05 ), #60, 'distance_accuracy_value', 'NONE');
#43 = APPLICATION_CONTEXT ( 'automotive_design' ) ;
#44 = CIRCLE ( 'NONE', #285, 0.3750000000000001665 ) ;
#45 = ORIENTED_EDGE ( 'NONE', *, *, #177, .T. ) ;
#46 = ORIENTED_EDGE ( 'NONE', *, *, #214, .F. ) ;
#47 = CIRCLE ( 'NONE', #295, 0.3750000000000000555 ) ;
#48 = PRODUCT_DEFINITION ( 'UNKNOWN', '', #35, #30 ) ;
#49 = EDGE_LOOP ( 'NONE', ( #94, #52, #25, #66 ) ) ;
#50 = FACE_OUTER_BOUND ( 'NONE', #28, .T. ) ;
#51 = STYLED_ITEM ( 'NONE', ( #250 ), #280 ) ;
#52 = ORIENTED_EDGE ( 'NONE', *, *, #214, .T. ) ;
#53 = FILL_AREA_STYLE_COLOUR ( '', #63 ) ;
#54 = CARTESIAN_POINT ( 'NONE',  ( 3.718412684285594657E-34, 1.250000000000000000, 0.000000000000000000 ) ) ;
#55 = CARTESIAN_POINT ( 'NONE',  ( 0.000000000000000000, 0.000000000000000000, 0.000000000000000000 ) ) ;
#56 = CARTESIAN_POINT ( 'NONE',  ( -0.3750000000000002776, 4.000000000000000000, 0.000000000000000000 ) ) ;
#57 = VECTOR ( 'NONE', #6, 39.37007874015748143 ) ;
#58 = APPLICATION_CONTEXT ( 'automotive_design' ) ;
#59 = PLANE ( 'NONE',  #7 ) ;
#60 =( CONVERSION_BASED_UNIT ( 'INCH', #78 ) LENGTH_UNIT ( ) NAMED_UNIT ( #164 ) );
#61 =( NAMED_UNIT ( * ) SI_UNIT ( $, .STERADIAN. ) SOLID_ANGLE_UNIT ( ) );
#62 = LENGTH_MEASURE_WITH_UNIT ( LENGTH_MEASURE( 0.02539999999999999897 ), #300 );
#63 = COLOUR_RGB ( '',1.000000000000000000, 0.000000000000000000, 0.000000000000000000 ) ;
#64 = STYLED_ITEM ( 'NONE', ( #224 ), #206 ) ;
#65 = VERTEX_POINT ( 'NONE', #24 ) ;
#66 = ORIENTED_EDGE ( 'NONE', *, *, #13, .F. ) ;
#67 = CYLINDRICAL_SURFACE ( 'NONE', #142, 0.3750000000000001110 ) ;
#68 = COLOUR_RGB ( '',0.7921568627450980005, 0.8196078431372548767, 0.9333333333333333481 ) ;
#69 = MECHANICAL_DESIGN_GEOMETRIC_PRESENTATION_REPRESENTATION (  '', ( #64 ), #104 ) ;
#70 = LENGTH_MEASURE_WITH_UNIT ( LENGTH_MEASURE( 0.02539999999999999897 ), #184 );
#71 = CARTESIAN_POINT ( 'NONE',  ( 0.000000000000000000, 1.250000000000000000, 0.000000000000000000 ) ) ;
#72 = CARTESIAN_POINT ( 'NONE',  ( 0.000000000000000000, 1.250000000000000000, 0.000000000000000000 ) ) ;
#73 = ORIENTED_EDGE ( 'NONE', *, *, #144, .F. ) ;
#74 = VECTOR ( 'NONE', #150, 39.37007874015748143 ) ;
#75 =( CONVERSION_BASED_UNIT ( 'INCH', #31 ) LENGTH_UNIT ( ) NAMED_UNIT ( #93 ) );
#76 =( LENGTH_UNIT ( ) NAMED_UNIT ( * ) SI_UNIT ( $, .METRE. ) );
#77 = DIRECTION ( 'NONE',  ( -4.453261087808555212E-17, 1.000000000000000000, -0.000000000000000000 ) ) ;
#78 = LENGTH_MEASURE_WITH_UNIT ( LENGTH_MEASURE( 0.02539999999999999897 ), #298 );
#79 = CLOSED_SHELL ( 'NONE', ( #280, #259, #303, #206 ) ) ;
#80 = AXIS2_PLACEMENT_3D ( 'NONE', #223, #219, #9 ) ;
#81 = FILL_AREA_STYLE ('',( #147 ) ) ;
#82 = AXIS2_PLACEMENT_3D ( 'NONE', #277, #167, #102 ) ;
#83 = SURFACE_SIDE_STYLE ('',( #227 ) ) ;
#84 = COLOUR_RGB ( '',1.000000000000000000, 0.000000000000000000, 0.000000000000000000 ) ;
#85 =( NAMED_UNIT ( * ) SI_UNIT ( $, .STERADIAN. ) SOLID_ANGLE_UNIT ( ) );
#86 = MANIFOLD_SOLID_BREP ( 'Revolve - Cutting Edge', #79 ) ;
#87 = ORIENTED_EDGE ( 'NONE', *, *, #122, .F. ) ;
#88 = CARTESIAN_POINT ( 'NONE',  ( -0.3750000000000000555, 1.250000000000000000, 0.000000000000000000 ) ) ;
#89 = VERTEX_POINT ( 'NONE', #267 ) ;
#90 = VECTOR ( 'NONE', #38, 39.37007874015748143 ) ;
#91 =( NAMED_UNIT ( * ) SI_UNIT ( $, .STERADIAN. ) SOLID_ANGLE_UNIT ( ) );
#92 = MANIFOLD_SOLID_BREP ( 'Revolve - Tool Body (Straight Shanked)', #126 ) ;
#93 = DIMENSIONAL_EXPONENTS ( 1.000000000000000000, 0.000000000000000000, 0.000000000000000000, 0.000000000000000000, 0.000000000000000000, 0.000000000000000000, 0.000000000000000000 ) ;
#94 = ORIENTED_EDGE ( 'NONE', *, *, #274, .F. ) ;
#95 =( CONVERSION_BASED_UNIT ( 'INCH', #62 ) LENGTH_UNIT ( ) NAMED_UNIT ( #2 ) );
#96 = COLOUR_RGB ( '',0.7921568627450980005, 0.8196078431372548767, 0.9333333333333333481 ) ;
#97 = FACE_OUTER_BOUND ( 'NONE', #141, .T. ) ;
#98 = DIRECTION ( 'NONE',  ( -1.000000000000000000, -4.453261087808555212E-17, 0.000000000000000000 ) ) ;
#99 = CARTESIAN_POINT ( 'NONE',  ( 0.000000000000000000, 0.000000000000000000, -0.3750000000000000555 ) ) ;
#100 = CARTESIAN_POINT ( 'NONE',  ( 0.3749999999999999445, 4.000000000000000000, 4.592425496802576068E-17 ) ) ;
#101 = PRESENTATION_STYLE_ASSIGNMENT (( #278 ) ) ;
#102 = DIRECTION ( 'NONE',  ( -1.000000000000000000, 0.000000000000000000, 0.000000000000000000 ) ) ;
#103 = FACE_OUTER_BOUND ( 'NONE', #49, .T. ) ;
#104 =( GEOMETRIC_REPRESENTATION_CONTEXT ( 3 ) GLOBAL_UNCERTAINTY_ASSIGNED_CONTEXT ( ( #193 ) ) GLOBAL_UNIT_ASSIGNED_CONTEXT ( ( #95, #232, #85 ) ) REPRESENTATION_CONTEXT ( 'NONE', 'WORKASPACE' ) );
#105 = CIRCLE ( 'NONE', #185, 0.3750000000000000555 ) ;
#106 = PRODUCT_RELATED_PRODUCT_CATEGORY ( 'part', '', ( #171 ) ) ;
#107 = SURFACE_STYLE_USAGE ( .BOTH. , #83 ) ;
#108 =( GEOMETRIC_REPRESENTATION_CONTEXT ( 3 ) GLOBAL_UNCERTAINTY_ASSIGNED_CONTEXT ( ( #246 ) ) GLOBAL_UNIT_ASSIGNED_CONTEXT ( ( #75, #33, #145 ) ) REPRESENTATION_CONTEXT ( 'NONE', 'WORKASPACE' ) );
#109 = ORIENTED_EDGE ( 'NONE', *, *, #144, .T. ) ;
#110 = AXIS2_PLACEMENT_3D ( 'NONE', #244, #188, #251 ) ;
#111 = AXIS2_PLACEMENT_3D ( 'NONE', #284, #233, #229 ) ;
#112 = APPLICATION_PROTOCOL_DEFINITION ( 'draft international standard', 'automotive_design', 1998, #43 ) ;
#113 = DIRECTION ( 'NONE',  ( -1.000000000000000000, 0.000000000000000000, 0.000000000000000000 ) ) ;
#114 = ADVANCED_FACE ( 'NONE', ( #210 ), #288, .F. ) ;
#115 = EDGE_LOOP ( 'NONE', ( #204, #109, #306, #216 ) ) ;
#116 = DIRECTION ( 'NONE',  ( 0.000000000000000000, -1.000000000000000000, -0.000000000000000000 ) ) ;
#117 = DIRECTION ( 'NONE',  ( 0.000000000000000000, 0.000000000000000000, -1.000000000000000000 ) ) ;
#118 = DIRECTION ( 'NONE',  ( 0.000000000000000000, 0.000000000000000000, 1.000000000000000000 ) ) ;
#119 = PRESENTATION_STYLE_ASSIGNMENT (( #290 ) ) ;
#120 = CARTESIAN_POINT ( 'NONE',  ( -1.224646799147352714E-16, 4.000000000000000000, 0.000000000000000000 ) ) ;
#121 = ORIENTED_EDGE ( 'NONE', *, *, #122, .T. ) ;
#122 = EDGE_CURVE ( 'NONE', #289, #201, #222, .T. ) ;
#123 = SURFACE_STYLE_USAGE ( .BOTH. , #39 ) ;
#124 = DIRECTION ( 'NONE',  ( 0.000000000000000000, -0.000000000000000000, 1.000000000000000000 ) ) ;
#125 = LINE ( 'NONE', #100, #282 ) ;
#126 = CLOSED_SHELL ( 'NONE', ( #137, #114, #256, #155 ) ) ;
#127 = CARTESIAN_POINT ( 'NONE',  ( 0.3750000000000000555, 4.000000000000000000, 4.592425496802576684E-17 ) ) ;
#128 = CARTESIAN_POINT ( 'NONE',  ( 0.3750000000000000555, 4.000000000000000000, 0.000000000000000000 ) ) ;
#129 = DIMENSIONAL_EXPONENTS ( 1.000000000000000000, 0.000000000000000000, 0.000000000000000000, 0.000000000000000000, 0.000000000000000000, 0.000000000000000000, 0.000000000000000000 ) ;
#130 = PRESENTATION_LAYER_ASSIGNMENT (  '', '', ( #268 ) ) ;
#131 =( CONVERSION_BASED_UNIT ( 'INCH', #173 ) LENGTH_UNIT ( ) NAMED_UNIT ( #187 ) );
#132 = COLOUR_RGB ( '',1.000000000000000000, 0.000000000000000000, 0.000000000000000000 ) ;
#133 = EDGE_LOOP ( 'NONE', ( #45, #20 ) ) ;
#134 = EDGE_CURVE ( 'NONE', #3, #234, #1, .T. ) ;
#135 = CARTESIAN_POINT ( 'NONE',  ( 0.000000000000000000, 0.000000000000000000, 0.000000000000000000 ) ) ;
#136 = PRESENTATION_LAYER_ASSIGNMENT (  '', '', ( #51 ) ) ;
#137 = ADVANCED_FACE ( 'NONE', ( #302 ), #297, .T. ) ;
#138 = DIRECTION ( 'NONE',  ( -0.000000000000000000, -1.000000000000000000, -0.000000000000000000 ) ) ;
#139 = PLANE ( 'NONE',  #203 ) ;
#140 = FILL_AREA_STYLE_COLOUR ( '', #96 ) ;
#141 = EDGE_LOOP ( 'NONE', ( #265, #182, #308, #178 ) ) ;
#142 = AXIS2_PLACEMENT_3D ( 'NONE', #120, #264, #159 ) ;
#143 = UNCERTAINTY_MEASURE_WITH_UNIT (LENGTH_MEASURE( 1.000000000000000082E-05 ), #131, 'distance_accuracy_value', 'NONE');
#144 = EDGE_CURVE ( 'NONE', #3, #289, #125, .T. ) ;
#145 =( NAMED_UNIT ( * ) SI_UNIT ( $, .STERADIAN. ) SOLID_ANGLE_UNIT ( ) );
#146 =( NAMED_UNIT ( * ) PLANE_ANGLE_UNIT ( ) SI_UNIT ( $, .RADIAN. ) );
#147 = FILL_AREA_STYLE_COLOUR ( '', #132 ) ;
#148 = UNCERTAINTY_MEASURE_WITH_UNIT (LENGTH_MEASURE( 1.000000000000000082E-05 ), #200, 'distance_accuracy_value', 'NONE');
#149 = DIRECTION ( 'NONE',  ( 0.000000000000000000, 0.000000000000000000, -1.000000000000000000 ) ) ;
#150 = DIRECTION ( 'NONE',  ( -4.453261087808555212E-17, 1.000000000000000000, -0.000000000000000000 ) ) ;
#151 =( NAMED_UNIT ( * ) SI_UNIT ( $, .STERADIAN. ) SOLID_ANGLE_UNIT ( ) );
#152 =( NAMED_UNIT ( * ) SI_UNIT ( $, .STERADIAN. ) SOLID_ANGLE_UNIT ( ) );
#153 = MECHANICAL_DESIGN_GEOMETRIC_PRESENTATION_REPRESENTATION (  '', ( #190 ), #202 ) ;
#154 = STYLED_ITEM ( 'NONE', ( #296 ), #92 ) ;
#155 = ADVANCED_FACE ( 'NONE', ( #34 ), #59, .F. ) ;
#156 = AXIS2_PLACEMENT_3D ( 'NONE', #55, #217, #149 ) ;
#157 = SHAPE_DEFINITION_REPRESENTATION ( #40, #307 ) ;
#158 = FILL_AREA_STYLE_COLOUR ( '', #68 ) ;
#159 = DIRECTION ( 'NONE',  ( -1.000000000000000000, 0.000000000000000000, 0.000000000000000000 ) ) ;
#160 = ORIENTED_EDGE ( 'NONE', *, *, #252, .T. ) ;
#161 = EDGE_CURVE ( 'NONE', #234, #201, #172, .T. ) ;
#162 = DIRECTION ( 'NONE',  ( -0.000000000000000000, -1.000000000000000000, -0.000000000000000000 ) ) ;
#163 = FILL_AREA_STYLE ('',( #140 ) ) ;
#164 = DIMENSIONAL_EXPONENTS ( 1.000000000000000000, 0.000000000000000000, 0.000000000000000000, 0.000000000000000000, 0.000000000000000000, 0.000000000000000000, 0.000000000000000000 ) ;
#165 = EDGE_LOOP ( 'NONE', ( #160, #121 ) ) ;
#166 = MECHANICAL_DESIGN_GEOMETRIC_PRESENTATION_REPRESENTATION (  '', ( #268 ), #270 ) ;
#167 = DIRECTION ( 'NONE',  ( -4.453261087808555212E-17, 1.000000000000000000, -0.000000000000000000 ) ) ;
#168 =( NAMED_UNIT ( * ) PLANE_ANGLE_UNIT ( ) SI_UNIT ( $, .RADIAN. ) );
#169 = AXIS2_PLACEMENT_3D ( 'NONE', #23, #116, #291 ) ;
#170 = FILL_AREA_STYLE ('',( #11 ) ) ;
#171 = PRODUCT ( '30647', '30647', '', ( #239 ) ) ;
#172 = LINE ( 'NONE', #29, #74 ) ;
#173 = LENGTH_MEASURE_WITH_UNIT ( LENGTH_MEASURE( 0.02539999999999999897 ), #281 );
#174 = MECHANICAL_DESIGN_GEOMETRIC_PRESENTATION_REPRESENTATION (  '', ( #51 ), #230 ) ;
#175 = CYLINDRICAL_SURFACE ( 'NONE', #111, 0.3750000000000000555 ) ;
#176 = AXIS2_PLACEMENT_3D ( 'NONE', #215, #183, #113 ) ;
#177 = EDGE_CURVE ( 'NONE', #269, #241, #47, .T. ) ;
#178 = ORIENTED_EDGE ( 'NONE', *, *, #287, .F. ) ;
#179 = DIRECTION ( 'NONE',  ( 0.000000000000000000, 0.000000000000000000, -1.000000000000000000 ) ) ;
#180 = DIRECTION ( 'NONE',  ( 1.000000000000000000, 0.000000000000000000, 0.000000000000000000 ) ) ;
#181 = DIRECTION ( 'NONE',  ( -4.453261087808555212E-17, 1.000000000000000000, -0.000000000000000000 ) ) ;
#182 = ORIENTED_EDGE ( 'NONE', *, *, #274, .T. ) ;
#183 = DIRECTION ( 'NONE',  ( -4.453261087808555212E-17, 1.000000000000000000, -0.000000000000000000 ) ) ;
#184 =( LENGTH_UNIT ( ) NAMED_UNIT ( * ) SI_UNIT ( $, .METRE. ) );
#185 = AXIS2_PLACEMENT_3D ( 'NONE', #71, #162, #179 ) ;
#186 = EDGE_LOOP ( 'NONE', ( #293, #46 ) ) ;
#187 = DIMENSIONAL_EXPONENTS ( 1.000000000000000000, 0.000000000000000000, 0.000000000000000000, 0.000000000000000000, 0.000000000000000000, 0.000000000000000000, 0.000000000000000000 ) ;
#188 = DIRECTION ( 'NONE',  ( -4.453261087808555212E-17, 1.000000000000000000, -0.000000000000000000 ) ) ;
#189 = PRESENTATION_LAYER_ASSIGNMENT (  '', '', ( #18 ) ) ;
#190 = STYLED_ITEM ( 'NONE', ( #119 ), #86 ) ;
#191 = SURFACE_STYLE_USAGE ( .BOTH. , #225 ) ;
#192 = DIRECTION ( 'NONE',  ( -4.453261087808555212E-17, 1.000000000000000000, 0.000000000000000000 ) ) ;
#193 = UNCERTAINTY_MEASURE_WITH_UNIT (LENGTH_MEASURE( 1.000000000000000082E-05 ), #95, 'distance_accuracy_value', 'NONE');
#194 = SURFACE_STYLE_FILL_AREA ( #170 ) ;
#195 = DIRECTION ( 'NONE',  ( -1.000000000000000000, 0.000000000000000000, 0.000000000000000000 ) ) ;
#196 = AXIS2_PLACEMENT_3D ( 'NONE', #135, #138, #117 ) ;
#197 = AXIS2_PLACEMENT_3D ( 'NONE', #54, #192, #98 ) ;
#198 = AXIS2_PLACEMENT_3D ( 'NONE', #22, #118, #180 ) ;
#199 = DIRECTION ( 'NONE',  ( 4.453261087808555212E-17, -1.000000000000000000, 0.000000000000000000 ) ) ;
#200 =( CONVERSION_BASED_UNIT ( 'INCH', #301 ) LENGTH_UNIT ( ) NAMED_UNIT ( #10 ) );
#201 = VERTEX_POINT ( 'NONE', #56 ) ;
#202 =( GEOMETRIC_REPRESENTATION_CONTEXT ( 3 ) GLOBAL_UNCERTAINTY_ASSIGNED_CONTEXT ( ( #228 ) ) GLOBAL_UNIT_ASSIGNED_CONTEXT ( ( #21, #238, #91 ) ) REPRESENTATION_CONTEXT ( 'NONE', 'WORKASPACE' ) );
#203 = AXIS2_PLACEMENT_3D ( 'NONE', #72, #299, #124 ) ;
#204 = ORIENTED_EDGE ( 'NONE', *, *, #221, .T. ) ;
#205 = MECHANICAL_DESIGN_GEOMETRIC_PRESENTATION_REPRESENTATION (  '', ( #154 ), #26 ) ;
#206 = ADVANCED_FACE ( 'NONE', ( #37 ), #218, .T. ) ;
#207 = APPLICATION_PROTOCOL_DEFINITION ( 'draft international standard', 'automotive_design', 1998, #58 ) ;
#208 = CARTESIAN_POINT ( 'NONE',  ( -1.224646799147352714E-16, 4.000000000000000000, 0.000000000000000000 ) ) ;
#209 = SURFACE_SIDE_STYLE ('',( #309 ) ) ;
#210 = FACE_OUTER_BOUND ( 'NONE', #286, .T. ) ;
#211 = ORIENTED_EDGE ( 'NONE', *, *, #161, .T. ) ;
#212 = MECHANICAL_DESIGN_GEOMETRIC_PRESENTATION_REPRESENTATION (  '', ( #18 ), #108 ) ;
#213 = DIMENSIONAL_EXPONENTS ( 1.000000000000000000, 0.000000000000000000, 0.000000000000000000, 0.000000000000000000, 0.000000000000000000, 0.000000000000000000, 0.000000000000000000 ) ;
#214 = EDGE_CURVE ( 'NONE', #65, #89, #105, .T. ) ;
#215 = CARTESIAN_POINT ( 'NONE',  ( 0.000000000000000000, 1.250000000000000000, 0.000000000000000000 ) ) ;
#216 = ORIENTED_EDGE ( 'NONE', *, *, #161, .F. ) ;
#217 = DIRECTION ( 'NONE',  ( -0.000000000000000000, -1.000000000000000000, -0.000000000000000000 ) ) ;
#218 = PLANE ( 'NONE',  #169 ) ;
#219 = DIRECTION ( 'NONE',  ( -0.000000000000000000, -1.000000000000000000, -0.000000000000000000 ) ) ;
#220 =( CONVERSION_BASED_UNIT ( 'INCH', #12 ) LENGTH_UNIT ( ) NAMED_UNIT ( #129 ) );
#221 = EDGE_CURVE ( 'NONE', #234, #3, #260, .T. ) ;
#222 = CIRCLE ( 'NONE', #110, 0.3750000000000001665 ) ;
#223 = CARTESIAN_POINT ( 'NONE',  ( 0.000000000000000000, 1.250000000000000000, 0.000000000000000000 ) ) ;
#224 = PRESENTATION_STYLE_ASSIGNMENT (( #14 ) ) ;
#225 = SURFACE_SIDE_STYLE ('',( #194 ) ) ;
#226 = DIRECTION ( 'NONE',  ( 1.000000000000000000, 4.453261087808555212E-17, 0.000000000000000000 ) ) ;
#227 = SURFACE_STYLE_FILL_AREA ( #17 ) ;
#228 = UNCERTAINTY_MEASURE_WITH_UNIT (LENGTH_MEASURE( 1.000000000000000082E-05 ), #21, 'distance_accuracy_value', 'NONE');
#229 = DIRECTION ( 'NONE',  ( 0.000000000000000000, 0.000000000000000000, -1.000000000000000000 ) ) ;
#230 =( GEOMETRIC_REPRESENTATION_CONTEXT ( 3 ) GLOBAL_UNCERTAINTY_ASSIGNED_CONTEXT ( ( #42 ) ) GLOBAL_UNIT_ASSIGNED_CONTEXT ( ( #60, #168, #151 ) ) REPRESENTATION_CONTEXT ( 'NONE', 'WORKASPACE' ) );
#231 =( GEOMETRIC_REPRESENTATION_CONTEXT ( 3 ) GLOBAL_UNCERTAINTY_ASSIGNED_CONTEXT ( ( #148 ) ) GLOBAL_UNIT_ASSIGNED_CONTEXT ( ( #200, #19, #61 ) ) REPRESENTATION_CONTEXT ( 'NONE', 'WORKASPACE' ) );
#232 =( NAMED_UNIT ( * ) PLANE_ANGLE_UNIT ( ) SI_UNIT ( $, .RADIAN. ) );
#233 = DIRECTION ( 'NONE',  ( -0.000000000000000000, -1.000000000000000000, -0.000000000000000000 ) ) ;
#234 = VERTEX_POINT ( 'NONE', #88 ) ;
#235 = AXIS2_PLACEMENT_3D ( 'NONE', #32, #273, #195 ) ;
#236 = ORIENTED_EDGE ( 'NONE', *, *, #134, .F. ) ;
#237 = ORIENTED_EDGE ( 'NONE', *, *, #134, .T. ) ;
#238 =( NAMED_UNIT ( * ) PLANE_ANGLE_UNIT ( ) SI_UNIT ( $, .RADIAN. ) );
#239 = PRODUCT_CONTEXT ( 'NONE', #43, 'mechanical' ) ;
#240 = PRESENTATION_LAYER_ASSIGNMENT (  '', '', ( #64 ) ) ;
#241 = VERTEX_POINT ( 'NONE', #266 ) ;
#242 = PRESENTATION_LAYER_ASSIGNMENT (  '', '', ( #154 ) ) ;
#243 = SURFACE_SIDE_STYLE ('',( #272 ) ) ;
#244 = CARTESIAN_POINT ( 'NONE',  ( -1.224646799147352714E-16, 4.000000000000000000, 0.000000000000000000 ) ) ;
#245 =( LENGTH_UNIT ( ) NAMED_UNIT ( * ) SI_UNIT ( $, .METRE. ) );
#246 = UNCERTAINTY_MEASURE_WITH_UNIT (LENGTH_MEASURE( 1.000000000000000082E-05 ), #75, 'distance_accuracy_value', 'NONE');
#247 = SURFACE_STYLE_FILL_AREA ( #81 ) ;
#248 = LINE ( 'NONE', #36, #90 ) ;
#249 = DIRECTION ( 'NONE',  ( -0.000000000000000000, -1.000000000000000000, -0.000000000000000000 ) ) ;
#250 = PRESENTATION_STYLE_ASSIGNMENT (( #191 ) ) ;
#251 = DIRECTION ( 'NONE',  ( -1.000000000000000000, 0.000000000000000000, 0.000000000000000000 ) ) ;
#252 = EDGE_CURVE ( 'NONE', #201, #289, #44, .T. ) ;
#253 = FILL_AREA_STYLE_COLOUR ( '', #84 ) ;
#254 = PRESENTATION_LAYER_ASSIGNMENT (  '', '', ( #190 ) ) ;
#255 =( NAMED_UNIT ( * ) SI_UNIT ( $, .STERADIAN. ) SOLID_ANGLE_UNIT ( ) );
#256 = ADVANCED_FACE ( 'NONE', ( #50 ), #67, .T. ) ;
#257 = COLOUR_RGB ( '',1.000000000000000000, 0.000000000000000000, 0.000000000000000000 ) ;
#258 = FILL_AREA_STYLE ('',( #158 ) ) ;
#259 = ADVANCED_FACE ( 'NONE', ( #261 ), #139, .T. ) ;
#260 = CIRCLE ( 'NONE', #176, 0.3750000000000000555 ) ;
#261 = FACE_OUTER_BOUND ( 'NONE', #186, .T. ) ;
#262 = CARTESIAN_POINT ( 'NONE',  ( 0.3750000000000000555, 1.250000000000000000, 4.592425496802576684E-17 ) ) ;
#263 = CIRCLE ( 'NONE', #196, 0.3750000000000000555 ) ;
#264 = DIRECTION ( 'NONE',  ( -4.453261087808555212E-17, 1.000000000000000000, -0.000000000000000000 ) ) ;
#265 = ORIENTED_EDGE ( 'NONE', *, *, #271, .T. ) ;
#266 = CARTESIAN_POINT ( 'NONE',  ( 4.592425496802575451E-17, 0.000000000000000000, 0.3750000000000000555 ) ) ;
#267 = CARTESIAN_POINT ( 'NONE',  ( 0.000000000000000000, 1.250000000000000000, -0.3750000000000000555 ) ) ;
#268 = STYLED_ITEM ( 'NONE', ( #41 ), #303 ) ;
#269 = VERTEX_POINT ( 'NONE', #99 ) ;
#270 =( GEOMETRIC_REPRESENTATION_CONTEXT ( 3 ) GLOBAL_UNCERTAINTY_ASSIGNED_CONTEXT ( ( #143 ) ) GLOBAL_UNIT_ASSIGNED_CONTEXT ( ( #131, #16, #255 ) ) REPRESENTATION_CONTEXT ( 'NONE', 'WORKASPACE' ) );
#271 = EDGE_CURVE ( 'NONE', #89, #65, #15, .T. ) ;
#272 = SURFACE_STYLE_FILL_AREA ( #292 ) ;
#273 = DIRECTION ( 'NONE',  ( -4.453261087808555212E-17, 1.000000000000000000, -0.000000000000000000 ) ) ;
#274 = EDGE_CURVE ( 'NONE', #65, #241, #294, .T. ) ;
#275 = CYLINDRICAL_SURFACE ( 'NONE', #156, 0.3750000000000000555 ) ;
#276 = DIRECTION ( 'NONE',  ( 0.000000000000000000, 0.000000000000000000, -1.000000000000000000 ) ) ;
#277 = CARTESIAN_POINT ( 'NONE',  ( -1.224646799147352714E-16, 4.000000000000000000, 0.000000000000000000 ) ) ;
#278 = SURFACE_STYLE_USAGE ( .BOTH. , #243 ) ;
#279 = SURFACE_SIDE_STYLE ('',( #247 ) ) ;
#280 = ADVANCED_FACE ( 'NONE', ( #97 ), #275, .T. ) ;
#281 =( LENGTH_UNIT ( ) NAMED_UNIT ( * ) SI_UNIT ( $, .METRE. ) );
#282 = VECTOR ( 'NONE', #77, 39.37007874015748143 ) ;
#283 = ORIENTED_EDGE ( 'NONE', *, *, #221, .F. ) ;
#284 = CARTESIAN_POINT ( 'NONE',  ( 0.000000000000000000, 0.000000000000000000, 0.000000000000000000 ) ) ;
#285 = AXIS2_PLACEMENT_3D ( 'NONE', #208, #181, #27 ) ;
#286 = EDGE_LOOP ( 'NONE', ( #283, #236 ) ) ;
#287 = EDGE_CURVE ( 'NONE', #89, #269, #248, .T. ) ;
#288 = PLANE ( 'NONE',  #197 ) ;
#289 = VERTEX_POINT ( 'NONE', #127 ) ;
#290 = SURFACE_STYLE_USAGE ( .BOTH. , #209 ) ;
#291 = DIRECTION ( 'NONE',  ( 0.000000000000000000, 0.000000000000000000, -1.000000000000000000 ) ) ;
#292 = FILL_AREA_STYLE ('',( #53 ) ) ;
#293 = ORIENTED_EDGE ( 'NONE', *, *, #271, .F. ) ;
#294 = LINE ( 'NONE', #4, #57 ) ;
#295 = AXIS2_PLACEMENT_3D ( 'NONE', #5, #249, #276 ) ;
#296 = PRESENTATION_STYLE_ASSIGNMENT (( #123 ) ) ;
#297 = CYLINDRICAL_SURFACE ( 'NONE', #82, 0.3750000000000001110 ) ;
#298 =( LENGTH_UNIT ( ) NAMED_UNIT ( * ) SI_UNIT ( $, .METRE. ) );
#299 = DIRECTION ( 'NONE',  ( 0.000000000000000000, 1.000000000000000000, 0.000000000000000000 ) ) ;
#300 =( LENGTH_UNIT ( ) NAMED_UNIT ( * ) SI_UNIT ( $, .METRE. ) );
#301 = LENGTH_MEASURE_WITH_UNIT ( LENGTH_MEASURE( 0.02539999999999999897 ), #304 );
#302 = FACE_OUTER_BOUND ( 'NONE', #115, .T. ) ;
#303 = ADVANCED_FACE ( 'NONE', ( #103 ), #175, .T. ) ;
#304 =( LENGTH_UNIT ( ) NAMED_UNIT ( * ) SI_UNIT ( $, .METRE. ) );
#305 = UNCERTAINTY_MEASURE_WITH_UNIT (LENGTH_MEASURE( 1.000000000000000082E-05 ), #220, 'distance_accuracy_value', 'NONE');
#306 = ORIENTED_EDGE ( 'NONE', *, *, #252, .F. ) ;
#307 = ADVANCED_BREP_SHAPE_REPRESENTATION ( '30647', ( #86, #92, #198 ), #231 ) ;
#308 = ORIENTED_EDGE ( 'NONE', *, *, #177, .F. ) ;
#309 = SURFACE_STYLE_FILL_AREA ( #163 ) ;
ENDSEC;
END-ISO-10303-21;
