ISO-10303-21;
HEADER;
FILE_DESCRIPTION (( 'STEP AP214' ),
    '1' );
FILE_NAME ('Micro_SFPM-060-10.STEP',
    '2021-09-02T07:19:13',
    ( '' ),
    ( '' ),
    'SwSTEP 2.0',
    'SolidWorks 2020',
    '' );
FILE_SCHEMA (( 'AUTOMOTIVE_DESIGN' ));
ENDSEC;

DATA;
#1 = ADVANCED_FACE ( 'NONE', ( #145 ), #200, .T. ) ;
#2 = ORIENTED_EDGE ( 'NONE', *, *, #92, .F. ) ;
#3 = AXIS2_PLACEMENT_3D ( 'NONE', #138, #217, #214 ) ;
#4 = CARTESIAN_POINT ( 'NONE',  ( 0.1181100000000000899, 1.446430334472940009E-17, 0.6305908350957150077 ) ) ;
#5 = FACE_OUTER_BOUND ( 'NONE', #283, .T. ) ;
#6 = CARTESIAN_POINT ( 'NONE',  ( 0.0000000000000000000, 0.0000000000000000000, 0.0000000000000000000 ) ) ;
#7 = EDGE_CURVE ( 'NONE', #70, #97, #298, .T. ) ;
#8 = VECTOR ( 'NONE', #115, 39.37007874015748143 ) ;
#9 = DIRECTION ( 'NONE',  ( -1.224646799147353207E-16, -0.0000000000000000000, -1.000000000000000000 ) ) ;
#10 = ADVANCED_FACE ( 'NONE', ( #22 ), #277, .T. ) ;
#11 = LENGTH_MEASURE_WITH_UNIT ( LENGTH_MEASURE( 0.02539999999999999897 ), #171 );
#12 = ORIENTED_EDGE ( 'NONE', *, *, #101, .F. ) ;
#13 = VECTOR ( 'NONE', #156, 39.37007874015748854 ) ;
#14 = CARTESIAN_POINT ( 'NONE',  ( 7.722510477716238010E-17, 0.0000000000000000000, 0.6305908350957150077 ) ) ;
#15 = LINE ( 'NONE', #141, #192 ) ;
#16 = ORIENTED_EDGE ( 'NONE', *, *, #57, .F. ) ;
#17 = CARTESIAN_POINT ( 'NONE',  ( 0.0000000000000000000, 0.0000000000000000000, 2.244094000000000033 ) ) ;
#18 = ORIENTED_EDGE ( 'NONE', *, *, #44, .T. ) ;
#19 = CARTESIAN_POINT ( 'NONE',  ( 7.714307363656999460E-17, 0.0000000000000000000, 0.6299209999999999532 ) ) ;
#20 = ORIENTED_EDGE ( 'NONE', *, *, #272, .T. ) ;
#21 = SURFACE_STYLE_FILL_AREA ( #181 ) ;
#22 = FACE_OUTER_BOUND ( 'NONE', #128, .T. ) ;
#23 = EDGE_CURVE ( 'NONE', #27, #83, #130, .T. ) ;
#24 = AXIS2_PLACEMENT_3D ( 'NONE', #262, #186, #135 ) ;
#25 = ADVANCED_FACE ( 'NONE', ( #5 ), #235, .T. ) ;
#26 =( CONVERSION_BASED_UNIT ( 'INCH', #11 ) LENGTH_UNIT ( ) NAMED_UNIT ( #125 ) );
#27 = VERTEX_POINT ( 'NONE', #4 ) ;
#28 = CARTESIAN_POINT ( 'NONE',  ( -0.1181100000000000066, 0.0000000000000000000, 2.244094000000000033 ) ) ;
#29 = AXIS2_PLACEMENT_3D ( 'NONE', #41, #240, #87 ) ;
#30 = CIRCLE ( 'NONE', #276, 0.1181100000000000066 ) ;
#31 = DIMENSIONAL_EXPONENTS ( 1.000000000000000000, 0.0000000000000000000, 0.0000000000000000000, 0.0000000000000000000, 0.0000000000000000000, 0.0000000000000000000, 0.0000000000000000000 ) ;
#32 = LINE ( 'NONE', #28, #40 ) ;
#33 = ORIENTED_EDGE ( 'NONE', *, *, #189, .T. ) ;
#34 = LINE ( 'NONE', #134, #146 ) ;
#35 = AXIS2_PLACEMENT_3D ( 'NONE', #187, #53, #280 ) ;
#36 =( CONVERSION_BASED_UNIT ( 'INCH', #151 ) LENGTH_UNIT ( ) NAMED_UNIT ( #31 ) );
#37 = LINE ( 'NONE', #119, #198 ) ;
#38 = ORIENTED_EDGE ( 'NONE', *, *, #183, .F. ) ;
#39 = DIRECTION ( 'NONE',  ( -0.7071067811865358044, 0.0000000000000000000, -0.7071067811865590080 ) ) ;
#40 = VECTOR ( 'NONE', #54, 39.37007874015748143 ) ;
#41 = CARTESIAN_POINT ( 'NONE',  ( 7.714307363656999460E-17, 0.0000000000000000000, 0.6299209999999999532 ) ) ;
#42 = ORIENTED_EDGE ( 'NONE', *, *, #266, .T. ) ;
#43 = DIRECTION ( 'NONE',  ( 1.000000000000000000, 0.0000000000000000000, 0.0000000000000000000 ) ) ;
#44 = EDGE_CURVE ( 'NONE', #98, #88, #287, .T. ) ;
#45 = CARTESIAN_POINT ( 'NONE',  ( -0.1181100000000000066, 0.0000000000000000000, 2.229093999999999465 ) ) ;
#46 = EDGE_LOOP ( 'NONE', ( #244, #38, #204, #2 ) ) ;
#47 = SURFACE_STYLE_USAGE ( .BOTH. , #126 ) ;
#48 = ORIENTED_EDGE ( 'NONE', *, *, #49, .F. ) ;
#49 = EDGE_CURVE ( 'NONE', #246, #116, #227, .T. ) ;
#50 = DIMENSIONAL_EXPONENTS ( 1.000000000000000000, 0.0000000000000000000, 0.0000000000000000000, 0.0000000000000000000, 0.0000000000000000000, 0.0000000000000000000, 0.0000000000000000000 ) ;
#51 = LINE ( 'NONE', #79, #99 ) ;
#52 = PRODUCT_RELATED_PRODUCT_CATEGORY ( 'part', '', ( #71 ) ) ;
#53 = DIRECTION ( 'NONE',  ( 0.0000000000000000000, 0.0000000000000000000, 1.000000000000000000 ) ) ;
#54 = DIRECTION ( 'NONE',  ( -0.0000000000000000000, -0.0000000000000000000, -1.000000000000000000 ) ) ;
#55 = CYLINDRICAL_SURFACE ( 'NONE', #257, 0.1181100000000000066 ) ;
#56 = MANIFOLD_SOLID_BREP ( 'Cut-Revolve1', #239 ) ;
#57 = EDGE_CURVE ( 'NONE', #167, #83, #32, .T. ) ;
#58 = ORIENTED_EDGE ( 'NONE', *, *, #183, .T. ) ;
#59 = PRESENTATION_LAYER_ASSIGNMENT (  '', '', ( #165 ) ) ;
#60 = ORIENTED_EDGE ( 'NONE', *, *, #78, .F. ) ;
#61 = CARTESIAN_POINT ( 'NONE',  ( 0.0000000000000000000, 0.0000000000000000000, 0.0000000000000000000 ) ) ;
#62 = ORIENTED_EDGE ( 'NONE', *, *, #266, .F. ) ;
#63 = CARTESIAN_POINT ( 'NONE',  ( 0.1179918900000000992, 0.0000000000000000000, 0.6299209999999999532 ) ) ;
#64 = ADVANCED_FACE ( 'NONE', ( #206 ), #93, .T. ) ;
#65 = COLOUR_RGB ( '',0.7921568627450980005, 0.8196078431372548767, 0.9333333333333333481 ) ;
#66 = CARTESIAN_POINT ( 'NONE',  ( 0.0000000000000000000, 0.0000000000000000000, 2.244094000000000033 ) ) ;
#67 = EDGE_LOOP ( 'NONE', ( #91, #161, #295, #60 ) ) ;
#68 = DIRECTION ( 'NONE',  ( 1.000000000000000000, 0.0000000000000000000, 0.0000000000000000000 ) ) ;
#69 = ORIENTED_EDGE ( 'NONE', *, *, #57, .T. ) ;
#70 = VERTEX_POINT ( 'NONE', #152 ) ;
#71 = PRODUCT ( 'Micro_SFPM-060-10', 'Micro_SFPM-060-10', '', ( #294 ) ) ;
#72 =( NAMED_UNIT ( * ) PLANE_ANGLE_UNIT ( ) SI_UNIT ( $, .RADIAN. ) );
#73 = PRODUCT_DEFINITION ( 'UNKNOWN', '', #216, #127 ) ;
#74 = CARTESIAN_POINT ( 'NONE',  ( 1.769594913022618037E-33, 0.0000000000000000000, 1.444983904138465938E-17 ) ) ;
#75 = AXIS2_PLACEMENT_3D ( 'NONE', #215, #137, #68 ) ;
#76 = VERTEX_POINT ( 'NONE', #105 ) ;
#77 = CARTESIAN_POINT ( 'NONE',  ( 7.714307363656999460E-17, 0.0000000000000000000, 0.6299209999999999532 ) ) ;
#78 = EDGE_CURVE ( 'NONE', #116, #70, #51, .T. ) ;
#79 = CARTESIAN_POINT ( 'NONE',  ( -0.1179918900000000159, 0.0000000000000000000, 1.444983904138465938E-17 ) ) ;
#80 = SURFACE_SIDE_STYLE ('',( #132 ) ) ;
#81 = ORIENTED_EDGE ( 'NONE', *, *, #288, .T. ) ;
#82 = DIRECTION ( 'NONE',  ( -0.0000000000000000000, -0.0000000000000000000, -1.000000000000000000 ) ) ;
#83 = VERTEX_POINT ( 'NONE', #103 ) ;
#84 = CIRCLE ( 'NONE', #29, 0.1179918900000000159 ) ;
#85 = FACE_OUTER_BOUND ( 'NONE', #180, .T. ) ;
#86 = DIRECTION ( 'NONE',  ( 0.0000000000000000000, 0.0000000000000000000, -1.000000000000000000 ) ) ;
#87 = DIRECTION ( 'NONE',  ( -1.000000000000000000, 0.0000000000000000000, 0.0000000000000000000 ) ) ;
#88 = VERTEX_POINT ( 'NONE', #188 ) ;
#89 = AXIS2_PLACEMENT_3D ( 'NONE', #14, #291, #238 ) ;
#90 = DIRECTION ( 'NONE',  ( 0.0000000000000000000, 0.0000000000000000000, -1.000000000000000000 ) ) ;
#91 = ORIENTED_EDGE ( 'NONE', *, *, #160, .T. ) ;
#92 = EDGE_CURVE ( 'NONE', #76, #167, #30, .T. ) ;
#93 = CONICAL_SURFACE ( 'NONE', #205, 0.1031100000000002570, 0.7853981633974318477 ) ;
#94 =( NAMED_UNIT ( * ) SI_UNIT ( $, .STERADIAN. ) SOLID_ANGLE_UNIT ( ) );
#95 =( NAMED_UNIT ( * ) PLANE_ANGLE_UNIT ( ) SI_UNIT ( $, .RADIAN. ) );
#96 = UNCERTAINTY_MEASURE_WITH_UNIT (LENGTH_MEASURE( 1.000000000000000082E-05 ), #26, 'distance_accuracy_value', 'NONE');
#97 = VERTEX_POINT ( 'NONE', #234 ) ;
#98 = VERTEX_POINT ( 'NONE', #284 ) ;
#99 = VECTOR ( 'NONE', #232, 39.37007874015748143 ) ;
#100 =( NAMED_UNIT ( * ) PLANE_ANGLE_UNIT ( ) SI_UNIT ( $, .RADIAN. ) );
#101 = EDGE_CURVE ( 'NONE', #76, #27, #34, .T. ) ;
#102 = DIRECTION ( 'NONE',  ( -1.000000000000000000, 0.0000000000000000000, 0.0000000000000000000 ) ) ;
#103 = CARTESIAN_POINT ( 'NONE',  ( -0.1181099999999999234, 0.0000000000000000000, 0.6305908350957150077 ) ) ;
#104 = ADVANCED_FACE ( 'NONE', ( #170 ), #55, .T. ) ;
#105 = CARTESIAN_POINT ( 'NONE',  ( 0.1181100000000000066, 1.446430334472939084E-17, 2.229093999999999465 ) ) ;
#106 = FILL_AREA_STYLE_COLOUR ( '', #65 ) ;
#107 = ORIENTED_EDGE ( 'NONE', *, *, #223, .F. ) ;
#108 = LINE ( 'NONE', #174, #158 ) ;
#109 = ORIENTED_EDGE ( 'NONE', *, *, #23, .T. ) ;
#110 = AXIS2_PLACEMENT_3D ( 'NONE', #114, #274, #270 ) ;
#111 = CARTESIAN_POINT ( 'NONE',  ( -0.1179918899999999188, 1.445707119305702357E-17, 0.6299209999999999532 ) ) ;
#112 = ADVANCED_FACE ( 'NONE', ( #220 ), #162, .T. ) ;
#113 = DIRECTION ( 'NONE',  ( 0.0000000000000000000, 0.0000000000000000000, 1.000000000000000000 ) ) ;
#114 = CARTESIAN_POINT ( 'NONE',  ( 0.0000000000000000000, 0.0000000000000000000, 2.244094000000000033 ) ) ;
#115 = DIRECTION ( 'NONE',  ( 0.1736481776669314137, 0.0000000000000000000, 0.9848077530122077983 ) ) ;
#116 = VERTEX_POINT ( 'NONE', #111 ) ;
#117 = ADVANCED_FACE ( 'NONE', ( #247 ), #194, .T. ) ;
#118 = STYLED_ITEM ( 'NONE', ( #207 ), #56 ) ;
#119 = CARTESIAN_POINT ( 'NONE',  ( 0.1179918900000000159, 1.444983904138465938E-17, -1.444983904138465938E-17 ) ) ;
#120 = EDGE_LOOP ( 'NONE', ( #251, #20, #237, #213 ) ) ;
#121 =( LENGTH_UNIT ( ) NAMED_UNIT ( * ) SI_UNIT ( $, .METRE. ) );
#122 = FILL_AREA_STYLE_COLOUR ( '', #292 ) ;
#123 =( NAMED_UNIT ( * ) SI_UNIT ( $, .STERADIAN. ) SOLID_ANGLE_UNIT ( ) );
#124 = AXIS2_PLACEMENT_3D ( 'NONE', #19, #155, #157 ) ;
#125 = DIMENSIONAL_EXPONENTS ( 1.000000000000000000, 0.0000000000000000000, 0.0000000000000000000, 0.0000000000000000000, 0.0000000000000000000, 0.0000000000000000000, 0.0000000000000000000 ) ;
#126 = SURFACE_SIDE_STYLE ('',( #21 ) ) ;
#127 = PRODUCT_DEFINITION_CONTEXT ( 'detailed design', #250, 'design' ) ;
#128 = EDGE_LOOP ( 'NONE', ( #293, #249, #296, #273 ) ) ;
#129 =( LENGTH_UNIT ( ) NAMED_UNIT ( * ) SI_UNIT ( $, .METRE. ) );
#130 = CIRCLE ( 'NONE', #24, 0.1181100000000000066 ) ;
#131 = DIRECTION ( 'NONE',  ( 1.000000000000000000, 0.0000000000000000000, 0.0000000000000000000 ) ) ;
#132 = SURFACE_STYLE_FILL_AREA ( #190 ) ;
#133 = UNCERTAINTY_MEASURE_WITH_UNIT (LENGTH_MEASURE( 1.000000000000000082E-05 ), #36, 'distance_accuracy_value', 'NONE');
#134 = CARTESIAN_POINT ( 'NONE',  ( 0.1181100000000000066, 1.446430334472939084E-17, 2.244094000000000033 ) ) ;
#135 = DIRECTION ( 'NONE',  ( 1.000000000000000000, 0.0000000000000000000, 0.0000000000000000000 ) ) ;
#136 = CARTESIAN_POINT ( 'NONE',  ( 0.0000000000000000000, 0.0000000000000000000, 2.244094000000000033 ) ) ;
#137 = DIRECTION ( 'NONE',  ( 1.224646799147353207E-16, 0.0000000000000000000, 1.000000000000000000 ) ) ;
#138 = CARTESIAN_POINT ( 'NONE',  ( 1.769594913022618037E-33, 0.0000000000000000000, 1.444983904138465938E-17 ) ) ;
#139 = ORIENTED_EDGE ( 'NONE', *, *, #160, .F. ) ;
#140 = FACE_OUTER_BOUND ( 'NONE', #120, .T. ) ;
#141 = CARTESIAN_POINT ( 'NONE',  ( -0.1031100000000002570, 0.0000000000000000000, 2.244094000000000033 ) ) ;
#142 = EDGE_LOOP ( 'NONE', ( #107, #48, #177, #109 ) ) ;
#143 = PRESENTATION_LAYER_ASSIGNMENT (  '', '', ( #118 ) ) ;
#144 = PRESENTATION_STYLE_ASSIGNMENT (( #47 ) ) ;
#145 = FACE_OUTER_BOUND ( 'NONE', #285, .T. ) ;
#146 = VECTOR ( 'NONE', #82, 39.37007874015748143 ) ;
#147 = APPLICATION_PROTOCOL_DEFINITION ( 'draft international standard', 'automotive_design', 1998, #228 ) ;
#148 = DIRECTION ( 'NONE',  ( -1.000000000000000000, 0.0000000000000000000, 1.224646799147352961E-16 ) ) ;
#149 =( NAMED_UNIT ( * ) SI_UNIT ( $, .STERADIAN. ) SOLID_ANGLE_UNIT ( ) );
#150 = AXIS2_PLACEMENT_3D ( 'NONE', #17, #289, #290 ) ;
#151 = LENGTH_MEASURE_WITH_UNIT ( LENGTH_MEASURE( 0.02539999999999999897 ), #129 );
#152 = CARTESIAN_POINT ( 'NONE',  ( -0.1179918899999999882, 0.0000000000000000000, 2.889967808276931875E-17 ) ) ;
#153 = CARTESIAN_POINT ( 'NONE',  ( 0.0000000000000000000, 0.0000000000000000000, 2.229093999999999465 ) ) ;
#154 = AXIS2_PLACEMENT_3D ( 'NONE', #267, #191, #176 ) ;
#155 = DIRECTION ( 'NONE',  ( 1.224646799147353207E-16, 0.0000000000000000000, 1.000000000000000000 ) ) ;
#156 = DIRECTION ( 'NONE',  ( 0.7071067811865358044, 8.659560562354788645E-17, -0.7071067811865590080 ) ) ;
#157 = DIRECTION ( 'NONE',  ( 1.000000000000000000, 0.0000000000000000000, 0.0000000000000000000 ) ) ;
#158 = VECTOR ( 'NONE', #159, 39.37007874015747433 ) ;
#159 = DIRECTION ( 'NONE',  ( -0.1736481776669312194, 2.126576849575783625E-17, 0.9848077530122080203 ) ) ;
#160 = EDGE_CURVE ( 'NONE', #116, #246, #84, .T. ) ;
#161 = ORIENTED_EDGE ( 'NONE', *, *, #172, .T. ) ;
#162 = CONICAL_SURFACE ( 'NONE', #124, 0.1179918900000000159, 0.1745329251994339192 ) ;
#163 = ADVANCED_FACE ( 'NONE', ( #85 ), #271, .F. ) ;
#164 = UNCERTAINTY_MEASURE_WITH_UNIT (LENGTH_MEASURE( 1.000000000000000082E-05 ), #224, 'distance_accuracy_value', 'NONE');
#165 = STYLED_ITEM ( 'NONE', ( #144 ), #255 ) ;
#166 = SURFACE_STYLE_USAGE ( .BOTH. , #80 ) ;
#167 = VERTEX_POINT ( 'NONE', #45 ) ;
#168 = AXIS2_PLACEMENT_3D ( 'NONE', #74, #225, #196 ) ;
#169 = DIRECTION ( 'NONE',  ( 0.0000000000000000000, 0.0000000000000000000, -1.000000000000000000 ) ) ;
#170 = FACE_OUTER_BOUND ( 'NONE', #241, .T. ) ;
#171 =( LENGTH_UNIT ( ) NAMED_UNIT ( * ) SI_UNIT ( $, .METRE. ) );
#172 = EDGE_CURVE ( 'NONE', #246, #97, #37, .T. ) ;
#173 = MECHANICAL_DESIGN_GEOMETRIC_PRESENTATION_REPRESENTATION (  '', ( #118 ), #269 ) ;
#174 = CARTESIAN_POINT ( 'NONE',  ( -0.1179918899999999188, 1.444983904138465938E-17, 0.6299209999999999532 ) ) ;
#175 = DIRECTION ( 'NONE',  ( -1.000000000000000000, 0.0000000000000000000, 0.0000000000000000000 ) ) ;
#176 = DIRECTION ( 'NONE',  ( -1.000000000000000000, 0.0000000000000000000, 1.224646799147352961E-16 ) ) ;
#177 = ORIENTED_EDGE ( 'NONE', *, *, #248, .T. ) ;
#178 = CONICAL_SURFACE ( 'NONE', #231, 0.1031100000000002570, 0.7853981633974318477 ) ;
#179 = LINE ( 'NONE', #286, #13 ) ;
#180 = EDGE_LOOP ( 'NONE', ( #221, #81 ) ) ;
#181 = FILL_AREA_STYLE ('',( #122 ) ) ;
#182 = ORIENTED_EDGE ( 'NONE', *, *, #101, .T. ) ;
#183 = EDGE_CURVE ( 'NONE', #88, #98, #210, .T. ) ;
#184 = CIRCLE ( 'NONE', #3, 0.1179918899999999882 ) ;
#185 = ORIENTED_EDGE ( 'NONE', *, *, #92, .T. ) ;
#186 = DIRECTION ( 'NONE',  ( -1.224646799147353207E-16, -0.0000000000000000000, -1.000000000000000000 ) ) ;
#187 = CARTESIAN_POINT ( 'NONE',  ( 0.0000000000000000000, 0.0000000000000000000, 2.244094000000000033 ) ) ;
#188 = CARTESIAN_POINT ( 'NONE',  ( -0.1031100000000002570, 0.0000000000000000000, 2.244094000000000033 ) ) ;
#189 = EDGE_CURVE ( 'NONE', #167, #76, #202, .T. ) ;
#190 = FILL_AREA_STYLE ('',( #106 ) ) ;
#191 = DIRECTION ( 'NONE',  ( -1.224646799147353207E-16, -0.0000000000000000000, -1.000000000000000000 ) ) ;
#192 = VECTOR ( 'NONE', #39, 39.37007874015748854 ) ;
#193 = AXIS2_PLACEMENT_3D ( 'NONE', #201, #203, #275 ) ;
#194 = CYLINDRICAL_SURFACE ( 'NONE', #154, 0.1179918900000000159 ) ;
#195 = DIRECTION ( 'NONE',  ( 1.000000000000000000, 0.0000000000000000000, -0.0000000000000000000 ) ) ;
#196 = DIRECTION ( 'NONE',  ( -1.000000000000000000, 0.0000000000000000000, 1.224646799147353454E-16 ) ) ;
#197 = DIRECTION ( 'NONE',  ( -0.0000000000000000000, -0.0000000000000000000, -1.000000000000000000 ) ) ;
#198 = VECTOR ( 'NONE', #245, 39.37007874015748143 ) ;
#199 = FACE_OUTER_BOUND ( 'NONE', #264, .T. ) ;
#200 = CYLINDRICAL_SURFACE ( 'NONE', #110, 0.1181100000000000066 ) ;
#201 = CARTESIAN_POINT ( 'NONE',  ( 0.0000000000000000000, 0.0000000000000000000, 0.0000000000000000000 ) ) ;
#202 = CIRCLE ( 'NONE', #299, 0.1181100000000000066 ) ;
#203 = DIRECTION ( 'NONE',  ( 0.0000000000000000000, 0.0000000000000000000, 1.000000000000000000 ) ) ;
#204 = ORIENTED_EDGE ( 'NONE', *, *, #211, .T. ) ;
#205 = AXIS2_PLACEMENT_3D ( 'NONE', #282, #209, #208 ) ;
#206 = FACE_OUTER_BOUND ( 'NONE', #46, .T. ) ;
#207 = PRESENTATION_STYLE_ASSIGNMENT (( #166 ) ) ;
#208 = DIRECTION ( 'NONE',  ( -1.000000000000000000, 0.0000000000000000000, 0.0000000000000000000 ) ) ;
#209 = DIRECTION ( 'NONE',  ( 0.0000000000000000000, 0.0000000000000000000, -1.000000000000000000 ) ) ;
#210 = CIRCLE ( 'NONE', #150, 0.1031100000000002570 ) ;
#211 = EDGE_CURVE ( 'NONE', #88, #167, #15, .T. ) ;
#212 = DIRECTION ( 'NONE',  ( 1.000000000000000000, 0.0000000000000000000, 0.0000000000000000000 ) ) ;
#213 = ORIENTED_EDGE ( 'NONE', *, *, #211, .F. ) ;
#214 = DIRECTION ( 'NONE',  ( -1.000000000000000000, 0.0000000000000000000, 1.224646799147353454E-16 ) ) ;
#215 = CARTESIAN_POINT ( 'NONE',  ( 7.714307363656999460E-17, 0.0000000000000000000, 0.6299209999999999532 ) ) ;
#216 = PRODUCT_DEFINITION_FORMATION_WITH_SPECIFIED_SOURCE ( 'ANY', '', #71, .NOT_KNOWN. ) ;
#217 = DIRECTION ( 'NONE',  ( -1.224646799147353207E-16, -0.0000000000000000000, -1.000000000000000000 ) ) ;
#218 = ORIENTED_EDGE ( 'NONE', *, *, #223, .T. ) ;
#219 = CARTESIAN_POINT ( 'NONE',  ( 0.1179918900000000992, 0.0000000000000000000, 0.6299209999999999532 ) ) ;
#220 = FACE_OUTER_BOUND ( 'NONE', #142, .T. ) ;
#221 = ORIENTED_EDGE ( 'NONE', *, *, #7, .T. ) ;
#222 = AXIS2_PLACEMENT_3D ( 'NONE', #77, #9, #102 ) ;
#223 = EDGE_CURVE ( 'NONE', #116, #83, #108, .T. ) ;
#224 =( CONVERSION_BASED_UNIT ( 'INCH', #226 ) LENGTH_UNIT ( ) NAMED_UNIT ( #50 ) );
#225 = DIRECTION ( 'NONE',  ( -1.224646799147353207E-16, -0.0000000000000000000, -1.000000000000000000 ) ) ;
#226 = LENGTH_MEASURE_WITH_UNIT ( LENGTH_MEASURE( 0.02539999999999999897 ), #121 );
#227 = CIRCLE ( 'NONE', #222, 0.1179918900000000159 ) ;
#228 = APPLICATION_CONTEXT ( 'automotive_design' ) ;
#229 = CARTESIAN_POINT ( 'NONE',  ( 0.0000000000000000000, 0.0000000000000000000, 2.244094000000000033 ) ) ;
#230 = ADVANCED_FACE ( 'NONE', ( #140 ), #178, .T. ) ;
#231 = AXIS2_PLACEMENT_3D ( 'NONE', #136, #90, #265 ) ;
#232 = DIRECTION ( 'NONE',  ( -1.224646799147353207E-16, -0.0000000000000000000, -1.000000000000000000 ) ) ;
#233 = DIRECTION ( 'NONE',  ( 0.0000000000000000000, 0.0000000000000000000, 1.000000000000000000 ) ) ;
#234 = CARTESIAN_POINT ( 'NONE',  ( 0.1179918899999999882, 1.444983904138465938E-17, -1.895600338963814870E-33 ) ) ;
#235 = PLANE ( 'NONE',  #35 ) ;
#236 = CIRCLE ( 'NONE', #89, 0.1181100000000000066 ) ;
#237 = ORIENTED_EDGE ( 'NONE', *, *, #189, .F. ) ;
#238 = DIRECTION ( 'NONE',  ( 1.000000000000000000, 0.0000000000000000000, 0.0000000000000000000 ) ) ;
#239 = CLOSED_SHELL ( 'NONE', ( #117, #260, #230, #104, #1, #25, #64, #112, #10, #163 ) ) ;
#240 = DIRECTION ( 'NONE',  ( -1.224646799147353207E-16, -0.0000000000000000000, -1.000000000000000000 ) ) ;
#241 = EDGE_LOOP ( 'NONE', ( #33, #182, #62, #16 ) ) ;
#242 = LINE ( 'NONE', #219, #8 ) ;
#243 = AXIS2_PLACEMENT_3D ( 'NONE', #229, #233, #212 ) ;
#244 = ORIENTED_EDGE ( 'NONE', *, *, #272, .F. ) ;
#245 = DIRECTION ( 'NONE',  ( -1.224646799147353207E-16, -0.0000000000000000000, -1.000000000000000000 ) ) ;
#246 = VERTEX_POINT ( 'NONE', #63 ) ;
#247 = FACE_OUTER_BOUND ( 'NONE', #67, .T. ) ;
#248 = EDGE_CURVE ( 'NONE', #246, #27, #242, .T. ) ;
#249 = ORIENTED_EDGE ( 'NONE', *, *, #49, .T. ) ;
#250 = APPLICATION_CONTEXT ( 'automotive_design' ) ;
#251 = ORIENTED_EDGE ( 'NONE', *, *, #44, .F. ) ;
#252 = AXIS2_PLACEMENT_3D ( 'NONE', #6, #263, #148 ) ;
#253 = MECHANICAL_DESIGN_GEOMETRIC_PRESENTATION_REPRESENTATION (  '', ( #165 ), #258 ) ;
#254 = APPLICATION_PROTOCOL_DEFINITION ( 'draft international standard', 'automotive_design', 1998, #250 ) ;
#255 = ADVANCED_BREP_SHAPE_REPRESENTATION ( 'Micro_SFPM-060-10', ( #56, #193 ), #261 ) ;
#256 = SHAPE_DEFINITION_REPRESENTATION ( #297, #255 ) ;
#257 = AXIS2_PLACEMENT_3D ( 'NONE', #66, #197, #175 ) ;
#258 =( GEOMETRIC_REPRESENTATION_CONTEXT ( 3 ) GLOBAL_UNCERTAINTY_ASSIGNED_CONTEXT ( ( #164 ) ) GLOBAL_UNIT_ASSIGNED_CONTEXT ( ( #224, #95, #123 ) ) REPRESENTATION_CONTEXT ( 'NONE', 'WORKASPACE' ) );
#259 = ORIENTED_EDGE ( 'NONE', *, *, #248, .F. ) ;
#260 = ADVANCED_FACE ( 'NONE', ( #199 ), #278, .T. ) ;
#261 =( GEOMETRIC_REPRESENTATION_CONTEXT ( 3 ) GLOBAL_UNCERTAINTY_ASSIGNED_CONTEXT ( ( #96 ) ) GLOBAL_UNIT_ASSIGNED_CONTEXT ( ( #26, #72, #94 ) ) REPRESENTATION_CONTEXT ( 'NONE', 'WORKASPACE' ) );
#262 = CARTESIAN_POINT ( 'NONE',  ( 7.722510477716238010E-17, 0.0000000000000000000, 0.6305908350957150077 ) ) ;
#263 = DIRECTION ( 'NONE',  ( -1.224646799147353207E-16, -0.0000000000000000000, -1.000000000000000000 ) ) ;
#264 = EDGE_LOOP ( 'NONE', ( #139, #218, #42, #259 ) ) ;
#265 = DIRECTION ( 'NONE',  ( -1.000000000000000000, 0.0000000000000000000, 0.0000000000000000000 ) ) ;
#266 = EDGE_CURVE ( 'NONE', #83, #27, #236, .T. ) ;
#267 = CARTESIAN_POINT ( 'NONE',  ( 0.0000000000000000000, 0.0000000000000000000, 0.0000000000000000000 ) ) ;
#268 = CARTESIAN_POINT ( 'NONE',  ( 0.0000000000000000000, 0.0000000000000000000, 2.229093999999999465 ) ) ;
#269 =( GEOMETRIC_REPRESENTATION_CONTEXT ( 3 ) GLOBAL_UNCERTAINTY_ASSIGNED_CONTEXT ( ( #133 ) ) GLOBAL_UNIT_ASSIGNED_CONTEXT ( ( #36, #100, #149 ) ) REPRESENTATION_CONTEXT ( 'NONE', 'WORKASPACE' ) );
#270 = DIRECTION ( 'NONE',  ( -1.000000000000000000, 0.0000000000000000000, 0.0000000000000000000 ) ) ;
#271 = PLANE ( 'NONE',  #281 ) ;
#272 = EDGE_CURVE ( 'NONE', #98, #76, #179, .T. ) ;
#273 = ORIENTED_EDGE ( 'NONE', *, *, #288, .F. ) ;
#274 = DIRECTION ( 'NONE',  ( -0.0000000000000000000, -0.0000000000000000000, -1.000000000000000000 ) ) ;
#275 = DIRECTION ( 'NONE',  ( 1.000000000000000000, 0.0000000000000000000, 0.0000000000000000000 ) ) ;
#276 = AXIS2_PLACEMENT_3D ( 'NONE', #153, #169, #131 ) ;
#277 = CYLINDRICAL_SURFACE ( 'NONE', #252, 0.1179918900000000159 ) ;
#278 = CONICAL_SURFACE ( 'NONE', #75, 0.1179918900000000159, 0.1745329251994339192 ) ;
#279 = ORIENTED_EDGE ( 'NONE', *, *, #23, .F. ) ;
#280 = DIRECTION ( 'NONE',  ( 1.000000000000000000, 0.0000000000000000000, -0.0000000000000000000 ) ) ;
#281 = AXIS2_PLACEMENT_3D ( 'NONE', #61, #113, #195 ) ;
#282 = CARTESIAN_POINT ( 'NONE',  ( 0.0000000000000000000, 0.0000000000000000000, 2.244094000000000033 ) ) ;
#283 = EDGE_LOOP ( 'NONE', ( #58, #18 ) ) ;
#284 = CARTESIAN_POINT ( 'NONE',  ( 0.1031100000000002570, 1.354581824536888722E-17, 2.244094000000000033 ) ) ;
#285 = EDGE_LOOP ( 'NONE', ( #12, #185, #69, #279 ) ) ;
#286 = CARTESIAN_POINT ( 'NONE',  ( 0.1031100000000002570, 1.262733314600838667E-17, 2.244094000000000033 ) ) ;
#287 = CIRCLE ( 'NONE', #243, 0.1031100000000002570 ) ;
#288 = EDGE_CURVE ( 'NONE', #97, #70, #184, .T. ) ;
#289 = DIRECTION ( 'NONE',  ( 0.0000000000000000000, 0.0000000000000000000, 1.000000000000000000 ) ) ;
#290 = DIRECTION ( 'NONE',  ( 1.000000000000000000, 0.0000000000000000000, 0.0000000000000000000 ) ) ;
#291 = DIRECTION ( 'NONE',  ( -1.224646799147353207E-16, -0.0000000000000000000, -1.000000000000000000 ) ) ;
#292 = COLOUR_RGB ( '',0.7921568627450980005, 0.8196078431372548767, 0.9333333333333333481 ) ;
#293 = ORIENTED_EDGE ( 'NONE', *, *, #172, .F. ) ;
#294 = PRODUCT_CONTEXT ( 'NONE', #228, 'mechanical' ) ;
#295 = ORIENTED_EDGE ( 'NONE', *, *, #7, .F. ) ;
#296 = ORIENTED_EDGE ( 'NONE', *, *, #78, .T. ) ;
#297 = PRODUCT_DEFINITION_SHAPE ( 'NONE', 'NONE',  #73 ) ;
#298 = CIRCLE ( 'NONE', #168, 0.1179918899999999882 ) ;
#299 = AXIS2_PLACEMENT_3D ( 'NONE', #268, #86, #43 ) ;
ENDSEC;
END-ISO-10303-21;
