ISO-10303-21;
HEADER;
FILE_DESCRIPTION (( 'STEP AP214' ),
    '1' );
FILE_NAME ('Micro_SFBM-060-12X.STEP',
    '2021-09-03T16:44:36',
    ( '' ),
    ( '' ),
    'SwSTEP 2.0',
    'SolidWorks 2020',
    '' );
FILE_SCHEMA (( 'AUTOMOTIVE_DESIGN' ));
ENDSEC;

DATA;
#1 = CARTESIAN_POINT ( 'NONE',  ( 0.0000000000000000000, 0.0000000000000000000, 2.244094000000000033 ) ) ;
#2 = CARTESIAN_POINT ( 'NONE',  ( 0.0000000000000000000, 0.0000000000000000000, 2.244094000000000033 ) ) ;
#3 = CARTESIAN_POINT ( 'NONE',  ( 0.1181100000000000066, 1.446430334472939084E-17, 2.244094000000000033 ) ) ;
#4 = AXIS2_PLACEMENT_3D ( 'NONE', #98, #125, #182 ) ;
#5 = AXIS2_PLACEMENT_3D ( 'NONE', #374, #113, #200 ) ;
#6 = DIRECTION ( 'NONE',  ( -1.000000000000000000, 0.0000000000000000000, 0.0000000000000000000 ) ) ;
#7 = ADVANCED_FACE ( 'NONE', ( #92 ), #231, .T. ) ;
#8 = CARTESIAN_POINT ( 'NONE',  ( 0.0000000000000000000, 0.0000000000000000000, 2.244094000000000033 ) ) ;
#9 = DIRECTION ( 'NONE',  ( -1.000000000000000000, 0.0000000000000000000, 0.0000000000000000000 ) ) ;
#10 = COLOUR_RGB ( '',0.7921568627450980005, 0.8196078431372548767, 0.9333333333333333481 ) ;
#11 = CARTESIAN_POINT ( 'NONE',  ( 0.1180981890000000339, 1.446285691439492047E-17, 0.2952759999999999829 ) ) ;
#12 = LINE ( 'NONE', #270, #123 ) ;
#13 = CYLINDRICAL_SURFACE ( 'NONE', #54, 0.1161415000000000364 ) ;
#14 = EDGE_LOOP ( 'NONE', ( #46, #162, #260, #293 ) ) ;
#15 = DIRECTION ( 'NONE',  ( 0.0000000000000000000, 0.0000000000000000000, 1.000000000000000000 ) ) ;
#16 = DIRECTION ( 'NONE',  ( -0.0000000000000000000, -0.0000000000000000000, -1.000000000000000000 ) ) ;
#17 = EDGE_CURVE ( 'NONE', #18, #192, #347, .T. ) ;
#18 = VERTEX_POINT ( 'NONE', #230 ) ;
#19 = APPLICATION_CONTEXT ( 'automotive_design' ) ;
#20 = LINE ( 'NONE', #107, #24 ) ;
#21 = ORIENTED_EDGE ( 'NONE', *, *, #103, .F. ) ;
#22 = DIRECTION ( 'NONE',  ( -0.0000000000000000000, -0.0000000000000000000, -1.000000000000000000 ) ) ;
#23 = ORIENTED_EDGE ( 'NONE', *, *, #84, .T. ) ;
#24 = VECTOR ( 'NONE', #222, 39.37007874015748143 ) ;
#25 = PRESENTATION_LAYER_ASSIGNMENT (  '', '', ( #257 ) ) ;
#26 = EDGE_LOOP ( 'NONE', ( #305, #379 ) ) ;
#27 = APPLICATION_PROTOCOL_DEFINITION ( 'draft international standard', 'automotive_design', 1998, #19 ) ;
#28 = CARTESIAN_POINT ( 'NONE',  ( 0.0000000000000000000, 0.0000000000000000000, 2.244094000000000033 ) ) ;
#29 =( CONVERSION_BASED_UNIT ( 'INCH', #233 ) LENGTH_UNIT ( ) NAMED_UNIT ( #203 ) );
#30 = ORIENTED_EDGE ( 'NONE', *, *, #240, .F. ) ;
#31 = VECTOR ( 'NONE', #190, 39.37007874015748854 ) ;
#32 = DIRECTION ( 'NONE',  ( -0.0000000000000000000, -0.0000000000000000000, -1.000000000000000000 ) ) ;
#33 = DIRECTION ( 'NONE',  ( -0.1736481776669312471, 0.0000000000000000000, -0.9848077530122077983 ) ) ;
#34 = EDGE_CURVE ( 'NONE', #320, #368, #327, .T. ) ;
#35 = DIRECTION ( 'NONE',  ( -0.0000000000000000000, -0.0000000000000000000, -1.000000000000000000 ) ) ;
#36 = DIRECTION ( 'NONE',  ( 1.000000000000000000, 0.0000000000000000000, -0.0000000000000000000 ) ) ;
#37 = EDGE_CURVE ( 'NONE', #122, #170, #326, .T. ) ;
#38 = AXIS2_PLACEMENT_3D ( 'NONE', #67, #181, #71 ) ;
#39 = CARTESIAN_POINT ( 'NONE',  ( -0.1180981890000000339, 0.0000000000000000000, 0.2952759999999999829 ) ) ;
#40 = CARTESIAN_POINT ( 'NONE',  ( -0.1180981890000000339, 0.0000000000000000000, 0.0000000000000000000 ) ) ;
#41 = CARTESIAN_POINT ( 'NONE',  ( 0.0000000000000000000, 0.0000000000000000000, 2.244094000000000033 ) ) ;
#42 = CONICAL_SURFACE ( 'NONE', #351, 0.1031100000000002570, 0.7853981633974318477 ) ;
#43 = EDGE_CURVE ( 'NONE', #336, #261, #201, .T. ) ;
#44 = DIRECTION ( 'NONE',  ( -1.000000000000000000, 0.0000000000000000000, 0.0000000000000000000 ) ) ;
#45 = CARTESIAN_POINT ( 'NONE',  ( 0.1181100000000000066, 1.446430334472939084E-17, 2.229093999999999465 ) ) ;
#46 = ORIENTED_EDGE ( 'NONE', *, *, #180, .F. ) ;
#47 = EDGE_CURVE ( 'NONE', #179, #196, #127, .T. ) ;
#48 = FACE_OUTER_BOUND ( 'NONE', #143, .T. ) ;
#49 = CIRCLE ( 'NONE', #285, 0.1180981890000000339 ) ;
#50 = ORIENTED_EDGE ( 'NONE', *, *, #145, .T. ) ;
#51 = CARTESIAN_POINT ( 'NONE',  ( 0.0000000000000000000, 0.0000000000000000000, 0.2952759999999999829 ) ) ;
#52 = PLANE ( 'NONE',  #377 ) ;
#53 = ORIENTED_EDGE ( 'NONE', *, *, #284, .F. ) ;
#54 = AXIS2_PLACEMENT_3D ( 'NONE', #362, #102, #219 ) ;
#55 = ORIENTED_EDGE ( 'NONE', *, *, #103, .T. ) ;
#56 = APPLICATION_PROTOCOL_DEFINITION ( 'draft international standard', 'automotive_design', 1998, #243 ) ;
#57 = DIRECTION ( 'NONE',  ( -1.000000000000000000, 0.0000000000000000000, 0.0000000000000000000 ) ) ;
#58 =( CONVERSION_BASED_UNIT ( 'INCH', #64 ) LENGTH_UNIT ( ) NAMED_UNIT ( #104 ) );
#59 = CARTESIAN_POINT ( 'NONE',  ( -0.1180981890000000339, 0.0000000000000000000, 0.2952759999999999829 ) ) ;
#60 = ADVANCED_FACE ( 'NONE', ( #86 ), #66, .T. ) ;
#61 = ORIENTED_EDGE ( 'NONE', *, *, #216, .T. ) ;
#62 = CIRCLE ( 'NONE', #247, 0.1031100000000002570 ) ;
#63 = AXIS2_PLACEMENT_3D ( 'NONE', #2, #32, #265 ) ;
#64 = LENGTH_MEASURE_WITH_UNIT ( LENGTH_MEASURE( 0.02539999999999999897 ), #235 );
#65 = CARTESIAN_POINT ( 'NONE',  ( 0.0000000000000000000, 0.0000000000000000000, 0.2952759999999999829 ) ) ;
#66 = CYLINDRICAL_SURFACE ( 'NONE', #188, 0.1161415000000000364 ) ;
#67 = CARTESIAN_POINT ( 'NONE',  ( 0.0000000000000000000, 0.0000000000000000000, 0.4803150000000000475 ) ) ;
#68 = AXIS2_PLACEMENT_3D ( 'NONE', #51, #335, #134 ) ;
#69 = DIRECTION ( 'NONE',  ( 0.0000000000000000000, 0.0000000000000000000, 1.000000000000000000 ) ) ;
#70 =( LENGTH_UNIT ( ) NAMED_UNIT ( * ) SI_UNIT ( $, .METRE. ) );
#71 = DIRECTION ( 'NONE',  ( -1.000000000000000000, 0.0000000000000000000, 0.0000000000000000000 ) ) ;
#72 = CARTESIAN_POINT ( 'NONE',  ( 0.1181100000000000066, 1.446430334472939084E-17, 0.4803150000000001030 ) ) ;
#73 = EDGE_CURVE ( 'NONE', #192, #170, #49, .T. ) ;
#74 = PLANE ( 'NONE',  #76 ) ;
#75 = DIRECTION ( 'NONE',  ( -0.0000000000000000000, -0.0000000000000000000, -1.000000000000000000 ) ) ;
#76 = AXIS2_PLACEMENT_3D ( 'NONE', #195, #246, #165 ) ;
#77 = FACE_OUTER_BOUND ( 'NONE', #291, .T. ) ;
#78 = EDGE_LOOP ( 'NONE', ( #83, #61, #114, #266 ) ) ;
#79 =( LENGTH_UNIT ( ) NAMED_UNIT ( * ) SI_UNIT ( $, .METRE. ) );
#80 = CARTESIAN_POINT ( 'NONE',  ( 0.1180981890000000339, 1.446285691439492047E-17, 0.2952759999999999829 ) ) ;
#81 = VECTOR ( 'NONE', #263, 39.37007874015748143 ) ;
#82 = SURFACE_SIDE_STYLE ('',( #115 ) ) ;
#83 = ORIENTED_EDGE ( 'NONE', *, *, #117, .F. ) ;
#84 = EDGE_CURVE ( 'NONE', #223, #320, #352, .T. ) ;
#85 = PRODUCT_CONTEXT ( 'NONE', #243, 'mechanical' ) ;
#86 = FACE_OUTER_BOUND ( 'NONE', #238, .T. ) ;
#87 = MANIFOLD_SOLID_BREP ( 'Cut-Revolve1', #176 ) ;
#88 = FACE_OUTER_BOUND ( 'NONE', #342, .T. ) ;
#89 = ORIENTED_EDGE ( 'NONE', *, *, #96, .F. ) ;
#90 = CIRCLE ( 'NONE', #300, 0.1180981890000000339 ) ;
#91 = EDGE_CURVE ( 'NONE', #322, #122, #12, .T. ) ;
#92 = FACE_OUTER_BOUND ( 'NONE', #344, .T. ) ;
#93 = SURFACE_STYLE_FILL_AREA ( #354 ) ;
#94 = CIRCLE ( 'NONE', #273, 0.1181100000000000066 ) ;
#95 =( CONVERSION_BASED_UNIT ( 'INCH', #298 ) LENGTH_UNIT ( ) NAMED_UNIT ( #302 ) );
#96 = EDGE_CURVE ( 'NONE', #366, #368, #158, .T. ) ;
#97 = UNCERTAINTY_MEASURE_WITH_UNIT (LENGTH_MEASURE( 1.000000000000000082E-05 ), #58, 'distance_accuracy_value', 'NONE');
#98 = CARTESIAN_POINT ( 'NONE',  ( 0.0000000000000000000, 0.0000000000000000000, 2.229093999999999465 ) ) ;
#99 = DIRECTION ( 'NONE',  ( -0.0000000000000000000, -0.0000000000000000000, -1.000000000000000000 ) ) ;
#100 = CIRCLE ( 'NONE', #38, 0.1161415000000000641 ) ;
#101 = AXIS2_PLACEMENT_3D ( 'NONE', #283, #22, #44 ) ;
#102 = DIRECTION ( 'NONE',  ( -0.0000000000000000000, -0.0000000000000000000, -1.000000000000000000 ) ) ;
#103 = EDGE_CURVE ( 'NONE', #133, #322, #100, .T. ) ;
#104 = DIMENSIONAL_EXPONENTS ( 1.000000000000000000, 0.0000000000000000000, 0.0000000000000000000, 0.0000000000000000000, 0.0000000000000000000, 0.0000000000000000000, 0.0000000000000000000 ) ;
#105 = CARTESIAN_POINT ( 'NONE',  ( 0.1031100000000002570, 1.354581824536888722E-17, 2.244094000000000033 ) ) ;
#106 = ORIENTED_EDGE ( 'NONE', *, *, #151, .T. ) ;
#107 = CARTESIAN_POINT ( 'NONE',  ( 0.1161415000000000364, 1.422323162231723669E-17, 0.0000000000000000000 ) ) ;
#108 = DIRECTION ( 'NONE',  ( -1.000000000000000000, 0.0000000000000000000, 0.0000000000000000000 ) ) ;
#109 = ORIENTED_EDGE ( 'NONE', *, *, #96, .T. ) ;
#110 = ADVANCED_FACE ( 'NONE', ( #187 ), #358, .T. ) ;
#111 = DIRECTION ( 'NONE',  ( -0.0000000000000000000, -0.0000000000000000000, -1.000000000000000000 ) ) ;
#112 = ORIENTED_EDGE ( 'NONE', *, *, #131, .T. ) ;
#113 = DIRECTION ( 'NONE',  ( 0.0000000000000000000, 0.0000000000000000000, 1.000000000000000000 ) ) ;
#114 = ORIENTED_EDGE ( 'NONE', *, *, #145, .F. ) ;
#115 = SURFACE_STYLE_FILL_AREA ( #119 ) ;
#116 = ORIENTED_EDGE ( 'NONE', *, *, #151, .F. ) ;
#117 = EDGE_CURVE ( 'NONE', #196, #179, #62, .T. ) ;
#118 = AXIS2_PLACEMENT_3D ( 'NONE', #28, #204, #345 ) ;
#119 = FILL_AREA_STYLE ('',( #142 ) ) ;
#120 = CARTESIAN_POINT ( 'NONE',  ( 0.0000000000000000000, 0.0000000000000000000, 0.0000000000000000000 ) ) ;
#121 = DIRECTION ( 'NONE',  ( -0.0000000000000000000, -0.0000000000000000000, -1.000000000000000000 ) ) ;
#122 = VERTEX_POINT ( 'NONE', #244 ) ;
#123 = VECTOR ( 'NONE', #241, 39.37007874015748143 ) ;
#124 = DIRECTION ( 'NONE',  ( 1.000000000000000000, 0.0000000000000000000, 0.0000000000000000000 ) ) ;
#125 = DIRECTION ( 'NONE',  ( 0.0000000000000000000, 0.0000000000000000000, -1.000000000000000000 ) ) ;
#126 = PRODUCT_RELATED_PRODUCT_CATEGORY ( 'part', '', ( #331 ) ) ;
#127 = CIRCLE ( 'NONE', #268, 0.1031100000000002570 ) ;
#128 = CIRCLE ( 'NONE', #208, 0.1161415000000000641 ) ;
#129 = DIRECTION ( 'NONE',  ( 0.0000000000000000000, 0.0000000000000000000, 1.000000000000000000 ) ) ;
#130 = LINE ( 'NONE', #40, #183 ) ;
#131 = EDGE_CURVE ( 'NONE', #261, #336, #316, .T. ) ;
#132 = CARTESIAN_POINT ( 'NONE',  ( 0.0000000000000000000, 0.0000000000000000000, 0.4803150000000000475 ) ) ;
#133 = VERTEX_POINT ( 'NONE', #330 ) ;
#134 = DIRECTION ( 'NONE',  ( -1.000000000000000000, 0.0000000000000000000, 0.0000000000000000000 ) ) ;
#135 = ORIENTED_EDGE ( 'NONE', *, *, #47, .F. ) ;
#136 = LINE ( 'NONE', #160, #31 ) ;
#137 = ORIENTED_EDGE ( 'NONE', *, *, #193, .T. ) ;
#138 = DIRECTION ( 'NONE',  ( -0.7071067811865358044, 0.0000000000000000000, -0.7071067811865590080 ) ) ;
#139 = CARTESIAN_POINT ( 'NONE',  ( 0.0000000000000000000, 0.0000000000000000000, 0.4803150000000001030 ) ) ;
#140 = VECTOR ( 'NONE', #215, 39.37007874015748143 ) ;
#141 = ORIENTED_EDGE ( 'NONE', *, *, #240, .T. ) ;
#142 = FILL_AREA_STYLE_COLOUR ( '', #315 ) ;
#143 = EDGE_LOOP ( 'NONE', ( #376, #226 ) ) ;
#144 = CARTESIAN_POINT ( 'NONE',  ( -0.1181100000000000066, 0.0000000000000000000, 2.229093999999999465 ) ) ;
#145 = EDGE_CURVE ( 'NONE', #366, #223, #94, .T. ) ;
#146 = DIRECTION ( 'NONE',  ( 0.0000000000000000000, 0.0000000000000000000, 1.000000000000000000 ) ) ;
#147 = EDGE_LOOP ( 'NONE', ( #199, #312, #53, #236 ) ) ;
#148 = CARTESIAN_POINT ( 'NONE',  ( 0.0000000000000000000, 0.0000000000000000000, 0.0000000000000000000 ) ) ;
#149 = UNCERTAINTY_MEASURE_WITH_UNIT (LENGTH_MEASURE( 1.000000000000000082E-05 ), #95, 'distance_accuracy_value', 'NONE');
#150 = DIRECTION ( 'NONE',  ( -1.000000000000000000, 0.0000000000000000000, 0.0000000000000000000 ) ) ;
#151 = EDGE_CURVE ( 'NONE', #223, #366, #307, .T. ) ;
#152 = CARTESIAN_POINT ( 'NONE',  ( 0.0000000000000000000, 0.0000000000000000000, 2.244094000000000033 ) ) ;
#153 = AXIS2_PLACEMENT_3D ( 'NONE', #41, #99, #9 ) ;
#154 = CYLINDRICAL_SURFACE ( 'NONE', #153, 0.1181100000000000066 ) ;
#155 = CARTESIAN_POINT ( 'NONE',  ( 0.1180981890000000339, 1.446285691439492047E-17, 0.0000000000000000000 ) ) ;
#156 = AXIS2_PLACEMENT_3D ( 'NONE', #306, #220, #337 ) ;
#157 = CIRCLE ( 'NONE', #214, 0.1181100000000000066 ) ;
#158 = LINE ( 'NONE', #328, #140 ) ;
#159 = EDGE_CURVE ( 'NONE', #170, #336, #130, .T. ) ;
#160 = CARTESIAN_POINT ( 'NONE',  ( 0.1031100000000002570, 1.262733314600838667E-17, 2.244094000000000033 ) ) ;
#161 = DIRECTION ( 'NONE',  ( -1.000000000000000000, 0.0000000000000000000, 0.0000000000000000000 ) ) ;
#162 = ORIENTED_EDGE ( 'NONE', *, *, #73, .T. ) ;
#163 = PRESENTATION_LAYER_ASSIGNMENT (  '', '', ( #340 ) ) ;
#164 = AXIS2_PLACEMENT_3D ( 'NONE', #277, #16, #254 ) ;
#165 = DIRECTION ( 'NONE',  ( -1.000000000000000000, 0.0000000000000000000, 0.0000000000000000000 ) ) ;
#166 = DIRECTION ( 'NONE',  ( -0.0000000000000000000, -0.0000000000000000000, -1.000000000000000000 ) ) ;
#167 = PRODUCT_DEFINITION ( 'UNKNOWN', '', #248, #186 ) ;
#168 = CARTESIAN_POINT ( 'NONE',  ( 0.0000000000000000000, 0.0000000000000000000, 0.0000000000000000000 ) ) ;
#169 = AXIS2_PLACEMENT_3D ( 'NONE', #271, #269, #6 ) ;
#170 = VERTEX_POINT ( 'NONE', #39 ) ;
#171 = ADVANCED_FACE ( 'NONE', ( #185 ), #154, .T. ) ;
#172 = DIRECTION ( 'NONE',  ( -1.000000000000000000, 0.0000000000000000000, 0.0000000000000000000 ) ) ;
#173 = ORIENTED_EDGE ( 'NONE', *, *, #43, .T. ) ;
#174 = EDGE_LOOP ( 'NONE', ( #251, #141, #373, #349 ) ) ;
#175 = SURFACE_STYLE_USAGE ( .BOTH. , #82 ) ;
#176 = CLOSED_SHELL ( 'NONE', ( #290, #329, #221, #350, #171, #332, #110, #7, #250, #207, #60, #297, #303 ) ) ;
#177 = ORIENTED_EDGE ( 'NONE', *, *, #274, .T. ) ;
#178 =( NAMED_UNIT ( * ) PLANE_ANGLE_UNIT ( ) SI_UNIT ( $, .RADIAN. ) );
#179 = VERTEX_POINT ( 'NONE', #242 ) ;
#180 = EDGE_CURVE ( 'NONE', #192, #261, #217, .T. ) ;
#181 = DIRECTION ( 'NONE',  ( -0.0000000000000000000, -0.0000000000000000000, -1.000000000000000000 ) ) ;
#182 = DIRECTION ( 'NONE',  ( 1.000000000000000000, 0.0000000000000000000, 0.0000000000000000000 ) ) ;
#183 = VECTOR ( 'NONE', #360, 39.37007874015748143 ) ;
#184 = DIRECTION ( 'NONE',  ( 0.0000000000000000000, 0.0000000000000000000, -1.000000000000000000 ) ) ;
#185 = FACE_OUTER_BOUND ( 'NONE', #210, .T. ) ;
#186 = PRODUCT_DEFINITION_CONTEXT ( 'detailed design', #19, 'design' ) ;
#187 = FACE_OUTER_BOUND ( 'NONE', #26, .T. ) ;
#188 = AXIS2_PLACEMENT_3D ( 'NONE', #148, #121, #209 ) ;
#189 = CARTESIAN_POINT ( 'NONE',  ( -0.1161415000000000641, 0.0000000000000000000, 0.4803150000000000475 ) ) ;
#190 = DIRECTION ( 'NONE',  ( 0.7071067811865358044, 8.659560562354788645E-17, -0.7071067811865590080 ) ) ;
#191 = DIRECTION ( 'NONE',  ( -1.000000000000000000, 0.0000000000000000000, 0.0000000000000000000 ) ) ;
#192 = VERTEX_POINT ( 'NONE', #11 ) ;
#193 = EDGE_CURVE ( 'NONE', #18, #122, #370, .T. ) ;
#194 = VECTOR ( 'NONE', #287, 39.37007874015748143 ) ;
#195 = CARTESIAN_POINT ( 'NONE',  ( 0.1161415000000000641, 0.0000000000000000000, 0.4803150000000000475 ) ) ;
#196 = VERTEX_POINT ( 'NONE', #105 ) ;
#197 = CARTESIAN_POINT ( 'NONE',  ( 0.1180981890000000339, 1.446285691439492047E-17, 0.0000000000000000000 ) ) ;
#198 = ORIENTED_EDGE ( 'NONE', *, *, #37, .T. ) ;
#199 = ORIENTED_EDGE ( 'NONE', *, *, #311, .T. ) ;
#200 = DIRECTION ( 'NONE',  ( 1.000000000000000000, 0.0000000000000000000, 0.0000000000000000000 ) ) ;
#201 = CIRCLE ( 'NONE', #237, 0.1180981890000000339 ) ;
#202 = DIRECTION ( 'NONE',  ( -0.0000000000000000000, -0.0000000000000000000, -1.000000000000000000 ) ) ;
#203 = DIMENSIONAL_EXPONENTS ( 1.000000000000000000, 0.0000000000000000000, 0.0000000000000000000, 0.0000000000000000000, 0.0000000000000000000, 0.0000000000000000000, 0.0000000000000000000 ) ;
#204 = DIRECTION ( 'NONE',  ( 0.0000000000000000000, 0.0000000000000000000, -1.000000000000000000 ) ) ;
#205 =( NAMED_UNIT ( * ) SI_UNIT ( $, .STERADIAN. ) SOLID_ANGLE_UNIT ( ) );
#206 = ORIENTED_EDGE ( 'NONE', *, *, #216, .F. ) ;
#207 = ADVANCED_FACE ( 'NONE', ( #77 ), #323, .T. ) ;
#208 = AXIS2_PLACEMENT_3D ( 'NONE', #132, #166, #161 ) ;
#209 = DIRECTION ( 'NONE',  ( -1.000000000000000000, 0.0000000000000000000, 0.0000000000000000000 ) ) ;
#210 = EDGE_LOOP ( 'NONE', ( #50, #23, #295, #89 ) ) ;
#211 = SURFACE_STYLE_USAGE ( .BOTH. , #356 ) ;
#212 =( NAMED_UNIT ( * ) SI_UNIT ( $, .STERADIAN. ) SOLID_ANGLE_UNIT ( ) );
#213 =( GEOMETRIC_REPRESENTATION_CONTEXT ( 3 ) GLOBAL_UNCERTAINTY_ASSIGNED_CONTEXT ( ( #149 ) ) GLOBAL_UNIT_ASSIGNED_CONTEXT ( ( #95, #296, #212 ) ) REPRESENTATION_CONTEXT ( 'NONE', 'WORKASPACE' ) );
#214 = AXIS2_PLACEMENT_3D ( 'NONE', #139, #111, #227 ) ;
#215 = DIRECTION ( 'NONE',  ( -0.0000000000000000000, -0.0000000000000000000, -1.000000000000000000 ) ) ;
#216 = EDGE_CURVE ( 'NONE', #196, #223, #136, .T. ) ;
#217 = LINE ( 'NONE', #155, #218 ) ;
#218 = VECTOR ( 'NONE', #272, 39.37007874015748143 ) ;
#219 = DIRECTION ( 'NONE',  ( -1.000000000000000000, 0.0000000000000000000, 0.0000000000000000000 ) ) ;
#220 = DIRECTION ( 'NONE',  ( -0.0000000000000000000, -0.0000000000000000000, -1.000000000000000000 ) ) ;
#221 = ADVANCED_FACE ( 'NONE', ( #304 ), #292, .T. ) ;
#222 = DIRECTION ( 'NONE',  ( -0.0000000000000000000, -0.0000000000000000000, -1.000000000000000000 ) ) ;
#223 = VERTEX_POINT ( 'NONE', #45 ) ;
#224 = MECHANICAL_DESIGN_GEOMETRIC_PRESENTATION_REPRESENTATION (  '', ( #340 ), #213 ) ;
#225 = FACE_OUTER_BOUND ( 'NONE', #267, .T. ) ;
#226 = ORIENTED_EDGE ( 'NONE', *, *, #34, .T. ) ;
#227 = DIRECTION ( 'NONE',  ( -1.000000000000000000, 0.0000000000000000000, 0.0000000000000000000 ) ) ;
#228 = ORIENTED_EDGE ( 'NONE', *, *, #284, .T. ) ;
#229 = UNCERTAINTY_MEASURE_WITH_UNIT (LENGTH_MEASURE( 1.000000000000000082E-05 ), #29, 'distance_accuracy_value', 'NONE');
#230 = CARTESIAN_POINT ( 'NONE',  ( 0.1161415000000000225, 1.434304426835607550E-17, 0.3063729347523458935 ) ) ;
#231 = CONICAL_SURFACE ( 'NONE', #118, 0.1031100000000002570, 0.7853981633974318477 ) ;
#232 = CARTESIAN_POINT ( 'NONE',  ( 0.0000000000000000000, 0.0000000000000000000, 0.4803150000000001030 ) ) ;
#233 = LENGTH_MEASURE_WITH_UNIT ( LENGTH_MEASURE( 0.02539999999999999897 ), #79 );
#234 = DIRECTION ( 'NONE',  ( -0.0000000000000000000, -0.0000000000000000000, -1.000000000000000000 ) ) ;
#235 =( LENGTH_UNIT ( ) NAMED_UNIT ( * ) SI_UNIT ( $, .METRE. ) );
#236 = ORIENTED_EDGE ( 'NONE', *, *, #37, .F. ) ;
#237 = AXIS2_PLACEMENT_3D ( 'NONE', #120, #234, #57 ) ;
#238 = EDGE_LOOP ( 'NONE', ( #30, #55, #282, #253 ) ) ;
#239 = AXIS2_PLACEMENT_3D ( 'NONE', #367, #369, #108 ) ;
#240 = EDGE_CURVE ( 'NONE', #133, #18, #20, .T. ) ;
#241 = DIRECTION ( 'NONE',  ( -0.0000000000000000000, -0.0000000000000000000, -1.000000000000000000 ) ) ;
#242 = CARTESIAN_POINT ( 'NONE',  ( -0.1031100000000002570, 0.0000000000000000000, 2.244094000000000033 ) ) ;
#243 = APPLICATION_CONTEXT ( 'automotive_design' ) ;
#244 = CARTESIAN_POINT ( 'NONE',  ( -0.1161415000000000225, 0.0000000000000000000, 0.3063729347523458935 ) ) ;
#245 = PRESENTATION_STYLE_ASSIGNMENT (( #211 ) ) ;
#246 = DIRECTION ( 'NONE',  ( -0.0000000000000000000, 0.0000000000000000000, -1.000000000000000000 ) ) ;
#247 = AXIS2_PLACEMENT_3D ( 'NONE', #152, #129, #359 ) ;
#248 = PRODUCT_DEFINITION_FORMATION_WITH_SPECIFIED_SOURCE ( 'ANY', '', #331, .NOT_KNOWN. ) ;
#249 = DIRECTION ( 'NONE',  ( 1.000000000000000000, 0.0000000000000000000, -0.0000000000000000000 ) ) ;
#250 = ADVANCED_FACE ( 'NONE', ( #308, #48 ), #74, .T. ) ;
#251 = ORIENTED_EDGE ( 'NONE', *, *, #264, .T. ) ;
#252 = FACE_OUTER_BOUND ( 'NONE', #14, .T. ) ;
#253 = ORIENTED_EDGE ( 'NONE', *, *, #193, .F. ) ;
#254 = DIRECTION ( 'NONE',  ( -1.000000000000000000, 0.0000000000000000000, 0.0000000000000000000 ) ) ;
#255 = ORIENTED_EDGE ( 'NONE', *, *, #84, .F. ) ;
#256 = VECTOR ( 'NONE', #138, 39.37007874015748854 ) ;
#257 = STYLED_ITEM ( 'NONE', ( #319 ), #355 ) ;
#258 = CYLINDRICAL_SURFACE ( 'NONE', #239, 0.1180981890000000339 ) ;
#259 = ORIENTED_EDGE ( 'NONE', *, *, #17, .F. ) ;
#260 = ORIENTED_EDGE ( 'NONE', *, *, #159, .T. ) ;
#261 = VERTEX_POINT ( 'NONE', #197 ) ;
#262 = VECTOR ( 'NONE', #33, 39.37007874015748143 ) ;
#263 = DIRECTION ( 'NONE',  ( 0.1736481776669312471, 2.126576849575782700E-17, -0.9848077530122077983 ) ) ;
#264 = EDGE_CURVE ( 'NONE', #322, #133, #128, .T. ) ;
#265 = DIRECTION ( 'NONE',  ( -1.000000000000000000, 0.0000000000000000000, 0.0000000000000000000 ) ) ;
#266 = ORIENTED_EDGE ( 'NONE', *, *, #274, .F. ) ;
#267 = EDGE_LOOP ( 'NONE', ( #173, #112 ) ) ;
#268 = AXIS2_PLACEMENT_3D ( 'NONE', #1, #146, #348 ) ;
#269 = DIRECTION ( 'NONE',  ( -0.0000000000000000000, -0.0000000000000000000, -1.000000000000000000 ) ) ;
#270 = CARTESIAN_POINT ( 'NONE',  ( -0.1161415000000000364, 0.0000000000000000000, 0.0000000000000000000 ) ) ;
#271 = CARTESIAN_POINT ( 'NONE',  ( 0.0000000000000000000, 0.0000000000000000000, 0.0000000000000000000 ) ) ;
#272 = DIRECTION ( 'NONE',  ( -0.0000000000000000000, -0.0000000000000000000, -1.000000000000000000 ) ) ;
#273 = AXIS2_PLACEMENT_3D ( 'NONE', #276, #184, #124 ) ;
#274 = EDGE_CURVE ( 'NONE', #179, #366, #279, .T. ) ;
#275 = MECHANICAL_DESIGN_GEOMETRIC_PRESENTATION_REPRESENTATION (  '', ( #257 ), #361 ) ;
#276 = CARTESIAN_POINT ( 'NONE',  ( 0.0000000000000000000, 0.0000000000000000000, 2.229093999999999465 ) ) ;
#277 = CARTESIAN_POINT ( 'NONE',  ( 0.0000000000000000000, 0.0000000000000000000, 0.0000000000000000000 ) ) ;
#278 = DIRECTION ( 'NONE',  ( -0.0000000000000000000, -0.0000000000000000000, -1.000000000000000000 ) ) ;
#279 = LINE ( 'NONE', #310, #256 ) ;
#280 = ORIENTED_EDGE ( 'NONE', *, *, #180, .T. ) ;
#281 = FACE_OUTER_BOUND ( 'NONE', #364, .T. ) ;
#282 = ORIENTED_EDGE ( 'NONE', *, *, #91, .T. ) ;
#283 = CARTESIAN_POINT ( 'NONE',  ( 0.0000000000000000000, 0.0000000000000000000, 0.3063729347523458935 ) ) ;
#284 = EDGE_CURVE ( 'NONE', #170, #192, #90, .T. ) ;
#285 = AXIS2_PLACEMENT_3D ( 'NONE', #65, #35, #150 ) ;
#286 = CYLINDRICAL_SURFACE ( 'NONE', #63, 0.1181100000000000066 ) ;
#287 = DIRECTION ( 'NONE',  ( -0.0000000000000000000, -0.0000000000000000000, -1.000000000000000000 ) ) ;
#288 = ORIENTED_EDGE ( 'NONE', *, *, #264, .F. ) ;
#289 = CARTESIAN_POINT ( 'NONE',  ( -0.1180981890000000339, 0.0000000000000000000, 0.0000000000000000000 ) ) ;
#290 = ADVANCED_FACE ( 'NONE', ( #281 ), #365, .T. ) ;
#291 = EDGE_LOOP ( 'NONE', ( #259, #137, #198, #314 ) ) ;
#292 = CONICAL_SURFACE ( 'NONE', #156, 0.1180981890000000339, 0.1745329251994338637 ) ;
#293 = ORIENTED_EDGE ( 'NONE', *, *, #131, .F. ) ;
#294 = CARTESIAN_POINT ( 'NONE',  ( 0.0000000000000000000, 0.0000000000000000000, 2.244094000000000033 ) ) ;
#295 = ORIENTED_EDGE ( 'NONE', *, *, #318, .F. ) ;
#296 =( NAMED_UNIT ( * ) PLANE_ANGLE_UNIT ( ) SI_UNIT ( $, .RADIAN. ) );
#297 = ADVANCED_FACE ( 'NONE', ( #252 ), #258, .T. ) ;
#298 = LENGTH_MEASURE_WITH_UNIT ( LENGTH_MEASURE( 0.02539999999999999897 ), #70 );
#299 = FILL_AREA_STYLE_COLOUR ( '', #10 ) ;
#300 = AXIS2_PLACEMENT_3D ( 'NONE', #372, #278, #191 ) ;
#301 = FACE_OUTER_BOUND ( 'NONE', #174, .T. ) ;
#302 = DIMENSIONAL_EXPONENTS ( 1.000000000000000000, 0.0000000000000000000, 0.0000000000000000000, 0.0000000000000000000, 0.0000000000000000000, 0.0000000000000000000, 0.0000000000000000000 ) ;
#303 = ADVANCED_FACE ( 'NONE', ( #225 ), #52, .F. ) ;
#304 = FACE_OUTER_BOUND ( 'NONE', #147, .T. ) ;
#305 = ORIENTED_EDGE ( 'NONE', *, *, #47, .T. ) ;
#306 = CARTESIAN_POINT ( 'NONE',  ( 0.0000000000000000000, 0.0000000000000000000, 0.2952759999999999829 ) ) ;
#307 = CIRCLE ( 'NONE', #4, 0.1181100000000000066 ) ;
#308 = FACE_BOUND ( 'NONE', #375, .T. ) ;
#309 = ORIENTED_EDGE ( 'NONE', *, *, #159, .F. ) ;
#310 = CARTESIAN_POINT ( 'NONE',  ( -0.1031100000000002570, 0.0000000000000000000, 2.244094000000000033 ) ) ;
#311 = EDGE_CURVE ( 'NONE', #122, #18, #371, .T. ) ;
#312 = ORIENTED_EDGE ( 'NONE', *, *, #17, .T. ) ;
#313 = DIRECTION ( 'NONE',  ( 0.0000000000000000000, 0.0000000000000000000, -1.000000000000000000 ) ) ;
#314 = ORIENTED_EDGE ( 'NONE', *, *, #73, .F. ) ;
#315 = COLOUR_RGB ( '',0.7921568627450980005, 0.8196078431372548767, 0.9333333333333333481 ) ;
#316 = CIRCLE ( 'NONE', #169, 0.1180981890000000339 ) ;
#317 = DIRECTION ( 'NONE',  ( -1.000000000000000000, 0.0000000000000000000, 0.0000000000000000000 ) ) ;
#318 = EDGE_CURVE ( 'NONE', #368, #320, #157, .T. ) ;
#319 = PRESENTATION_STYLE_ASSIGNMENT (( #175 ) ) ;
#320 = VERTEX_POINT ( 'NONE', #72 ) ;
#321 = SHAPE_DEFINITION_REPRESENTATION ( #353, #355 ) ;
#322 = VERTEX_POINT ( 'NONE', #189 ) ;
#323 = CONICAL_SURFACE ( 'NONE', #68, 0.1180981890000000339, 0.1745329251994338637 ) ;
#324 = CARTESIAN_POINT ( 'NONE',  ( -0.1181100000000000066, 0.0000000000000000000, 0.4803150000000001030 ) ) ;
#325 = ORIENTED_EDGE ( 'NONE', *, *, #34, .F. ) ;
#326 = LINE ( 'NONE', #59, #262 ) ;
#327 = CIRCLE ( 'NONE', #357, 0.1181100000000000066 ) ;
#328 = CARTESIAN_POINT ( 'NONE',  ( -0.1181100000000000066, 0.0000000000000000000, 2.244094000000000033 ) ) ;
#329 = ADVANCED_FACE ( 'NONE', ( #301 ), #13, .T. ) ;
#330 = CARTESIAN_POINT ( 'NONE',  ( 0.1161415000000000780, 1.422323162231723977E-17, 0.4803150000000000475 ) ) ;
#331 = PRODUCT ( 'Micro_SFBM-060-12X', 'Micro_SFBM-060-12X', '', ( #85 ) ) ;
#332 = ADVANCED_FACE ( 'NONE', ( #88 ), #286, .T. ) ;
#333 = AXIS2_PLACEMENT_3D ( 'NONE', #8, #69, #36 ) ;
#334 =( GEOMETRIC_REPRESENTATION_CONTEXT ( 3 ) GLOBAL_UNCERTAINTY_ASSIGNED_CONTEXT ( ( #229 ) ) GLOBAL_UNIT_ASSIGNED_CONTEXT ( ( #29, #346, #205 ) ) REPRESENTATION_CONTEXT ( 'NONE', 'WORKASPACE' ) );
#335 = DIRECTION ( 'NONE',  ( -0.0000000000000000000, -0.0000000000000000000, -1.000000000000000000 ) ) ;
#336 = VERTEX_POINT ( 'NONE', #289 ) ;
#337 = DIRECTION ( 'NONE',  ( -1.000000000000000000, 0.0000000000000000000, 0.0000000000000000000 ) ) ;
#338 = CARTESIAN_POINT ( 'NONE',  ( 0.0000000000000000000, 0.0000000000000000000, 0.3063729347523458935 ) ) ;
#339 = ORIENTED_EDGE ( 'NONE', *, *, #43, .F. ) ;
#340 = STYLED_ITEM ( 'NONE', ( #245 ), #87 ) ;
#341 = DIRECTION ( 'NONE',  ( -1.000000000000000000, 0.0000000000000000000, 0.0000000000000000000 ) ) ;
#342 = EDGE_LOOP ( 'NONE', ( #255, #106, #109, #325 ) ) ;
#343 =( NAMED_UNIT ( * ) SI_UNIT ( $, .STERADIAN. ) SOLID_ANGLE_UNIT ( ) );
#344 = EDGE_LOOP ( 'NONE', ( #206, #135, #177, #116 ) ) ;
#345 = DIRECTION ( 'NONE',  ( -1.000000000000000000, 0.0000000000000000000, 0.0000000000000000000 ) ) ;
#346 =( NAMED_UNIT ( * ) PLANE_ANGLE_UNIT ( ) SI_UNIT ( $, .RADIAN. ) );
#347 = LINE ( 'NONE', #80, #81 ) ;
#348 = DIRECTION ( 'NONE',  ( 1.000000000000000000, 0.0000000000000000000, 0.0000000000000000000 ) ) ;
#349 = ORIENTED_EDGE ( 'NONE', *, *, #91, .F. ) ;
#350 = ADVANCED_FACE ( 'NONE', ( #378 ), #42, .T. ) ;
#351 = AXIS2_PLACEMENT_3D ( 'NONE', #294, #313, #172 ) ;
#352 = LINE ( 'NONE', #3, #194 ) ;
#353 = PRODUCT_DEFINITION_SHAPE ( 'NONE', 'NONE',  #167 ) ;
#354 = FILL_AREA_STYLE ('',( #299 ) ) ;
#355 = ADVANCED_BREP_SHAPE_REPRESENTATION ( 'Micro_SFBM-060-12X', ( #87, #5 ), #334 ) ;
#356 = SURFACE_SIDE_STYLE ('',( #93 ) ) ;
#357 = AXIS2_PLACEMENT_3D ( 'NONE', #232, #202, #317 ) ;
#358 = PLANE ( 'NONE',  #333 ) ;
#359 = DIRECTION ( 'NONE',  ( 1.000000000000000000, 0.0000000000000000000, 0.0000000000000000000 ) ) ;
#360 = DIRECTION ( 'NONE',  ( -0.0000000000000000000, -0.0000000000000000000, -1.000000000000000000 ) ) ;
#361 =( GEOMETRIC_REPRESENTATION_CONTEXT ( 3 ) GLOBAL_UNCERTAINTY_ASSIGNED_CONTEXT ( ( #97 ) ) GLOBAL_UNIT_ASSIGNED_CONTEXT ( ( #58, #178, #343 ) ) REPRESENTATION_CONTEXT ( 'NONE', 'WORKASPACE' ) );
#362 = CARTESIAN_POINT ( 'NONE',  ( 0.0000000000000000000, 0.0000000000000000000, 0.0000000000000000000 ) ) ;
#363 = AXIS2_PLACEMENT_3D ( 'NONE', #338, #75, #341 ) ;
#364 = EDGE_LOOP ( 'NONE', ( #228, #280, #339, #309 ) ) ;
#365 = CYLINDRICAL_SURFACE ( 'NONE', #164, 0.1180981890000000339 ) ;
#366 = VERTEX_POINT ( 'NONE', #144 ) ;
#367 = CARTESIAN_POINT ( 'NONE',  ( 0.0000000000000000000, 0.0000000000000000000, 0.0000000000000000000 ) ) ;
#368 = VERTEX_POINT ( 'NONE', #324 ) ;
#369 = DIRECTION ( 'NONE',  ( -0.0000000000000000000, -0.0000000000000000000, -1.000000000000000000 ) ) ;
#370 = CIRCLE ( 'NONE', #363, 0.1161415000000000225 ) ;
#371 = CIRCLE ( 'NONE', #101, 0.1161415000000000225 ) ;
#372 = CARTESIAN_POINT ( 'NONE',  ( 0.0000000000000000000, 0.0000000000000000000, 0.2952759999999999829 ) ) ;
#373 = ORIENTED_EDGE ( 'NONE', *, *, #311, .F. ) ;
#374 = CARTESIAN_POINT ( 'NONE',  ( 0.0000000000000000000, 0.0000000000000000000, 0.0000000000000000000 ) ) ;
#375 = EDGE_LOOP ( 'NONE', ( #288, #21 ) ) ;
#376 = ORIENTED_EDGE ( 'NONE', *, *, #318, .T. ) ;
#377 = AXIS2_PLACEMENT_3D ( 'NONE', #168, #15, #249 ) ;
#378 = FACE_OUTER_BOUND ( 'NONE', #78, .T. ) ;
#379 = ORIENTED_EDGE ( 'NONE', *, *, #117, .T. ) ;
ENDSEC;
END-ISO-10303-21;
