ISO-10303-21;
HEADER;
FILE_DESCRIPTION (( 'STEP AP214' ),
    '1' );
FILE_NAME ('Micro_GEC-375-3-030.STEP',
    '2021-09-03T17:20:54',
    ( '' ),
    ( '' ),
    'SwSTEP 2.0',
    'SolidWorks 2020',
    '' );
FILE_SCHEMA (( 'AUTOMOTIVE_DESIGN' ));
ENDSEC;

DATA;
#1 = AXIS2_PLACEMENT_3D ( 'NONE', #255, #254, #221 ) ;
#2 = CONICAL_SURFACE ( 'NONE', #304, 0.1724999999999995981, 0.7853981633974357335 ) ;
#3 = PRESENTATION_STYLE_ASSIGNMENT (( #118 ) ) ;
#4 = DIRECTION ( 'NONE',  ( -0.0000000000000000000, -0.0000000000000000000, -1.000000000000000000 ) ) ;
#5 = ORIENTED_EDGE ( 'NONE', *, *, #81, .F. ) ;
#6 = CARTESIAN_POINT ( 'NONE',  ( 1.071565949253934025E-16, 0.0000000000000000000, 0.8750000000000000000 ) ) ;
#7 = LINE ( 'NONE', #279, #209 ) ;
#8 = CIRCLE ( 'NONE', #326, 0.1573124999999999940 ) ;
#9 = AXIS2_PLACEMENT_3D ( 'NONE', #61, #106, #258 ) ;
#10 = CARTESIAN_POINT ( 'NONE',  ( 0.0000000000000000000, 0.0000000000000000000, 0.0000000000000000000 ) ) ;
#11 = CLOSED_SHELL ( 'NONE', ( #87, #133, #218, #19, #213, #121, #189, #331, #307, #348, #276, #324 ) ) ;
#12 = EDGE_CURVE ( 'NONE', #177, #305, #225, .T. ) ;
#13 = EDGE_LOOP ( 'NONE', ( #42, #15 ) ) ;
#14 = EDGE_CURVE ( 'NONE', #147, #289, #246, .T. ) ;
#15 = ORIENTED_EDGE ( 'NONE', *, *, #81, .T. ) ;
#16 = AXIS2_PLACEMENT_3D ( 'NONE', #62, #169, #273 ) ;
#17 =( NAMED_UNIT ( * ) SI_UNIT ( $, .STERADIAN. ) SOLID_ANGLE_UNIT ( ) );
#18 = EDGE_LOOP ( 'NONE', ( #79, #99, #49, #64 ) ) ;
#19 = ADVANCED_FACE ( 'NONE', ( #85 ), #299, .T. ) ;
#20 = FACE_OUTER_BOUND ( 'NONE', #174, .T. ) ;
#21 = ORIENTED_EDGE ( 'NONE', *, *, #12, .F. ) ;
#22 = ORIENTED_EDGE ( 'NONE', *, *, #186, .F. ) ;
#23 = CARTESIAN_POINT ( 'NONE',  ( 0.0000000000000000000, 0.0000000000000000000, 2.500000000000000000 ) ) ;
#24 = AXIS2_PLACEMENT_3D ( 'NONE', #315, #202, #309 ) ;
#25 = UNCERTAINTY_MEASURE_WITH_UNIT (LENGTH_MEASURE( 1.000000000000000082E-05 ), #98, 'distance_accuracy_value', 'NONE');
#26 = PLANE ( 'NONE',  #238 ) ;
#27 = DIRECTION ( 'NONE',  ( 1.000000000000000000, 0.0000000000000000000, 0.0000000000000000000 ) ) ;
#28 = VECTOR ( 'NONE', #243, 39.37007874015748143 ) ;
#29 = DIRECTION ( 'NONE',  ( 1.000000000000000000, 0.0000000000000000000, 0.0000000000000000000 ) ) ;
#30 = DIRECTION ( 'NONE',  ( 0.0000000000000000000, 0.0000000000000000000, -1.000000000000000000 ) ) ;
#31 = AXIS2_PLACEMENT_3D ( 'NONE', #271, #207, #181 ) ;
#32 = DIMENSIONAL_EXPONENTS ( 1.000000000000000000, 0.0000000000000000000, 0.0000000000000000000, 0.0000000000000000000, 0.0000000000000000000, 0.0000000000000000000, 0.0000000000000000000 ) ;
#33 = DIRECTION ( 'NONE',  ( -1.000000000000000000, 1.224646799147353454E-16, 0.0000000000000000000 ) ) ;
#34 = EDGE_CURVE ( 'NONE', #305, #259, #344, .T. ) ;
#35 = CARTESIAN_POINT ( 'NONE',  ( -0.1724999999999995981, 0.0000000000000000000, 2.500000000000000000 ) ) ;
#36 = DIMENSIONAL_EXPONENTS ( 1.000000000000000000, 0.0000000000000000000, 0.0000000000000000000, 0.0000000000000000000, 0.0000000000000000000, 0.0000000000000000000, 0.0000000000000000000 ) ;
#37 = ORIENTED_EDGE ( 'NONE', *, *, #12, .T. ) ;
#38 = EDGE_CURVE ( 'NONE', #253, #312, #111, .T. ) ;
#39 = FACE_OUTER_BOUND ( 'NONE', #13, .T. ) ;
#40 =( LENGTH_UNIT ( ) NAMED_UNIT ( * ) SI_UNIT ( $, .METRE. ) );
#41 = CARTESIAN_POINT ( 'NONE',  ( 3.673940397442059190E-18, 0.0000000000000000000, 0.02999999999999999889 ) ) ;
#42 = ORIENTED_EDGE ( 'NONE', *, *, #38, .T. ) ;
#43 = DIRECTION ( 'NONE',  ( 0.0000000000000000000, 0.0000000000000000000, 1.000000000000000000 ) ) ;
#44 = ORIENTED_EDGE ( 'NONE', *, *, #128, .T. ) ;
#45 = EDGE_LOOP ( 'NONE', ( #256, #44, #134, #180 ) ) ;
#46 = AXIS2_PLACEMENT_3D ( 'NONE', #294, #270, #59 ) ;
#47 = APPLICATION_PROTOCOL_DEFINITION ( 'draft international standard', 'automotive_design', 1998, #196 ) ;
#48 = EDGE_CURVE ( 'NONE', #177, #108, #296, .T. ) ;
#49 = ORIENTED_EDGE ( 'NONE', *, *, #34, .T. ) ;
#50 = PRODUCT_DEFINITION_CONTEXT ( 'detailed design', #257, 'design' ) ;
#51 = CARTESIAN_POINT ( 'NONE',  ( 0.0000000000000000000, 0.0000000000000000000, 2.500000000000000000 ) ) ;
#52 = AXIS2_PLACEMENT_3D ( 'NONE', #6, #172, #351 ) ;
#53 = VECTOR ( 'NONE', #4, 39.37007874015748143 ) ;
#54 = CARTESIAN_POINT ( 'NONE',  ( 0.1573124999999999940, 0.0000000000000000000, 0.02999999999999999889 ) ) ;
#55 = EDGE_CURVE ( 'NONE', #317, #74, #200, .T. ) ;
#56 = CARTESIAN_POINT ( 'NONE',  ( -0.1873124999999998541, 2.293916535652885288E-17, 0.8750000000000000000 ) ) ;
#57 =( NAMED_UNIT ( * ) SI_UNIT ( $, .STERADIAN. ) SOLID_ANGLE_UNIT ( ) );
#58 = CARTESIAN_POINT ( 'NONE',  ( 3.673940397442059960E-18, 0.0000000000000000000, 0.03000000000000000583 ) ) ;
#59 = DIRECTION ( 'NONE',  ( 1.000000000000000000, 0.0000000000000000000, 0.0000000000000000000 ) ) ;
#60 = EDGE_CURVE ( 'NONE', #284, #147, #139, .T. ) ;
#61 = CARTESIAN_POINT ( 'NONE',  ( 1.071565949253934025E-16, 0.0000000000000000000, 0.8750000000000000000 ) ) ;
#62 = CARTESIAN_POINT ( 'NONE',  ( 0.0000000000000000000, 0.0000000000000000000, 0.0000000000000000000 ) ) ;
#63 =( LENGTH_UNIT ( ) NAMED_UNIT ( * ) SI_UNIT ( $, .METRE. ) );
#64 = ORIENTED_EDGE ( 'NONE', *, *, #204, .T. ) ;
#65 = CARTESIAN_POINT ( 'NONE',  ( 1.072868196215332765E-16, 0.0000000000000000000, 0.8760633653411785682 ) ) ;
#66 = CARTESIAN_POINT ( 'NONE',  ( -0.1875000000000000278, 0.0000000000000000000, 2.500000000000000000 ) ) ;
#67 = AXIS2_PLACEMENT_3D ( 'NONE', #164, #269, #241 ) ;
#68 = TOROIDAL_SURFACE ( 'NONE', #250, 0.1573124999999999940, 0.02999999999999999889 ) ;
#69 = VECTOR ( 'NONE', #109, 39.37007874015748854 ) ;
#70 = ORIENTED_EDGE ( 'NONE', *, *, #78, .F. ) ;
#71 = SURFACE_STYLE_USAGE ( .BOTH. , #153 ) ;
#72 = ORIENTED_EDGE ( 'NONE', *, *, #280, .T. ) ;
#73 = DIRECTION ( 'NONE',  ( -1.224646799147353207E-16, -0.0000000000000000000, -1.000000000000000000 ) ) ;
#74 = VERTEX_POINT ( 'NONE', #322 ) ;
#75 = CARTESIAN_POINT ( 'NONE',  ( 0.1873124999999999929, 2.293916535652885596E-17, -2.293916535652885596E-17 ) ) ;
#76 = EDGE_LOOP ( 'NONE', ( #5, #335, #105, #103 ) ) ;
#77 = CIRCLE ( 'NONE', #90, 0.1873124999999999929 ) ;
#78 = EDGE_CURVE ( 'NONE', #108, #259, #143, .T. ) ;
#79 = ORIENTED_EDGE ( 'NONE', *, *, #48, .F. ) ;
#80 = FACE_OUTER_BOUND ( 'NONE', #179, .T. ) ;
#81 = EDGE_CURVE ( 'NONE', #312, #253, #8, .T. ) ;
#82 = CARTESIAN_POINT ( 'NONE',  ( 3.673940397442059190E-18, 0.0000000000000000000, 0.0000000000000000000 ) ) ;
#83 = VECTOR ( 'NONE', #73, 39.37007874015748143 ) ;
#84 = CARTESIAN_POINT ( 'NONE',  ( 0.0000000000000000000, 0.0000000000000000000, 0.0000000000000000000 ) ) ;
#85 = FACE_OUTER_BOUND ( 'NONE', #199, .T. ) ;
#86 = CARTESIAN_POINT ( 'NONE',  ( 0.1875000000000000278, 2.296212748401287726E-17, 2.500000000000000000 ) ) ;
#87 = ADVANCED_FACE ( 'NONE', ( #212 ), #68, .T. ) ;
#88 = PRODUCT_CONTEXT ( 'NONE', #196, 'mechanical' ) ;
#89 = FACE_OUTER_BOUND ( 'NONE', #157, .T. ) ;
#90 = AXIS2_PLACEMENT_3D ( 'NONE', #345, #210, #224 ) ;
#91 = FACE_OUTER_BOUND ( 'NONE', #18, .T. ) ;
#92 = AXIS2_PLACEMENT_3D ( 'NONE', #206, #261, #107 ) ;
#93 = DIRECTION ( 'NONE',  ( 1.000000000000000000, 0.0000000000000000000, 0.0000000000000000000 ) ) ;
#94 = LENGTH_MEASURE_WITH_UNIT ( LENGTH_MEASURE( 0.02539999999999999897 ), #63 );
#95 = CIRCLE ( 'NONE', #159, 0.1875000000000000278 ) ;
#96 =( GEOMETRIC_REPRESENTATION_CONTEXT ( 3 ) GLOBAL_UNCERTAINTY_ASSIGNED_CONTEXT ( ( #25 ) ) GLOBAL_UNIT_ASSIGNED_CONTEXT ( ( #98, #175, #57 ) ) REPRESENTATION_CONTEXT ( 'NONE', 'WORKASPACE' ) );
#97 = CARTESIAN_POINT ( 'NONE',  ( 0.0000000000000000000, 0.0000000000000000000, 2.484999999999999432 ) ) ;
#98 =( CONVERSION_BASED_UNIT ( 'INCH', #332 ) LENGTH_UNIT ( ) NAMED_UNIT ( #126 ) );
#99 = ORIENTED_EDGE ( 'NONE', *, *, #128, .F. ) ;
#100 = AXIS2_PLACEMENT_3D ( 'NONE', #97, #217, #93 ) ;
#101 =( LENGTH_UNIT ( ) NAMED_UNIT ( * ) SI_UNIT ( $, .METRE. ) );
#102 = AXIS2_PLACEMENT_3D ( 'NONE', #282, #43, #203 ) ;
#103 = ORIENTED_EDGE ( 'NONE', *, *, #142, .F. ) ;
#104 = PRODUCT_RELATED_PRODUCT_CATEGORY ( 'part', '', ( #167 ) ) ;
#105 = ORIENTED_EDGE ( 'NONE', *, *, #190, .F. ) ;
#106 = DIRECTION ( 'NONE',  ( 1.224646799147353207E-16, 0.0000000000000000000, 1.000000000000000000 ) ) ;
#107 = DIRECTION ( 'NONE',  ( 1.000000000000000000, 0.0000000000000000000, 0.0000000000000000000 ) ) ;
#108 = VERTEX_POINT ( 'NONE', #137 ) ;
#109 = DIRECTION ( 'NONE',  ( 0.7071067811865385799, 8.659560562354823157E-17, -0.7071067811865563435 ) ) ;
#110 = DIRECTION ( 'NONE',  ( 0.0000000000000000000, 0.0000000000000000000, 1.000000000000000000 ) ) ;
#111 = CIRCLE ( 'NONE', #46, 0.1573124999999999940 ) ;
#112 = CYLINDRICAL_SURFACE ( 'NONE', #31, 0.1873124999999999929 ) ;
#113 = UNCERTAINTY_MEASURE_WITH_UNIT (LENGTH_MEASURE( 1.000000000000000082E-05 ), #328, 'distance_accuracy_value', 'NONE');
#114 = DIRECTION ( 'NONE',  ( 1.000000000000000000, 0.0000000000000000000, 0.0000000000000000000 ) ) ;
#115 = PRODUCT_DEFINITION_SHAPE ( 'NONE', 'NONE',  #226 ) ;
#116 = VECTOR ( 'NONE', #320, 39.37007874015748143 ) ;
#117 = FACE_OUTER_BOUND ( 'NONE', #152, .T. ) ;
#118 = SURFACE_STYLE_USAGE ( .BOTH. , #327 ) ;
#119 = MECHANICAL_DESIGN_GEOMETRIC_PRESENTATION_REPRESENTATION (  '', ( #346 ), #310 ) ;
#120 = CARTESIAN_POINT ( 'NONE',  ( 0.1724999999999995981, 2.204364238465233357E-17, 2.500000000000000000 ) ) ;
#121 = ADVANCED_FACE ( 'NONE', ( #89 ), #188, .T. ) ;
#122 = FACE_OUTER_BOUND ( 'NONE', #275, .T. ) ;
#123 = ORIENTED_EDGE ( 'NONE', *, *, #14, .F. ) ;
#124 = AXIS2_PLACEMENT_3D ( 'NONE', #187, #247, #27 ) ;
#125 = CARTESIAN_POINT ( 'NONE',  ( 0.0000000000000000000, 0.0000000000000000000, 2.500000000000000000 ) ) ;
#126 = DIMENSIONAL_EXPONENTS ( 1.000000000000000000, 0.0000000000000000000, 0.0000000000000000000, 0.0000000000000000000, 0.0000000000000000000, 0.0000000000000000000, 0.0000000000000000000 ) ;
#127 = ORIENTED_EDGE ( 'NONE', *, *, #313, .F. ) ;
#128 = EDGE_CURVE ( 'NONE', #305, #177, #286, .T. ) ;
#129 = ORIENTED_EDGE ( 'NONE', *, *, #158, .F. ) ;
#130 = DIRECTION ( 'NONE',  ( 1.000000000000000000, 0.0000000000000000000, 0.0000000000000000000 ) ) ;
#131 = ORIENTED_EDGE ( 'NONE', *, *, #14, .T. ) ;
#132 = APPLICATION_PROTOCOL_DEFINITION ( 'draft international standard', 'automotive_design', 1998, #257 ) ;
#133 = ADVANCED_FACE ( 'NONE', ( #135 ), #112, .T. ) ;
#134 = ORIENTED_EDGE ( 'NONE', *, *, #186, .T. ) ;
#135 = FACE_OUTER_BOUND ( 'NONE', #333, .T. ) ;
#136 = DIRECTION ( 'NONE',  ( 1.000000000000000000, 0.0000000000000000000, -0.0000000000000000000 ) ) ;
#137 = CARTESIAN_POINT ( 'NONE',  ( -0.1874999999999999167, 0.0000000000000000000, 0.8760633653411785682 ) ) ;
#138 = AXIS2_PLACEMENT_3D ( 'NONE', #23, #297, #211 ) ;
#139 = LINE ( 'NONE', #163, #69 ) ;
#140 = DIRECTION ( 'NONE',  ( 1.224646799147353207E-16, 1.000000000000000000, -0.0000000000000000000 ) ) ;
#141 = FILL_AREA_STYLE ('',( #146 ) ) ;
#142 = EDGE_CURVE ( 'NONE', #253, #74, #329, .T. ) ;
#143 = CIRCLE ( 'NONE', #124, 0.1875000000000000278 ) ;
#144 = DIRECTION ( 'NONE',  ( 1.000000000000000000, 0.0000000000000000000, 0.0000000000000000000 ) ) ;
#145 = ORIENTED_EDGE ( 'NONE', *, *, #190, .T. ) ;
#146 = FILL_AREA_STYLE_COLOUR ( '', #274 ) ;
#147 = VERTEX_POINT ( 'NONE', #323 ) ;
#148 = DIRECTION ( 'NONE',  ( 1.000000000000000000, 0.0000000000000000000, 0.0000000000000000000 ) ) ;
#149 = STYLED_ITEM ( 'NONE', ( #260 ), #252 ) ;
#150 = LENGTH_MEASURE_WITH_UNIT ( LENGTH_MEASURE( 0.02539999999999999897 ), #101 );
#151 = ORIENTED_EDGE ( 'NONE', *, *, #204, .F. ) ;
#152 = EDGE_LOOP ( 'NONE', ( #264, #201, #70, #319 ) ) ;
#153 = SURFACE_SIDE_STYLE ('',( #318 ) ) ;
#154 = AXIS2_PLACEMENT_3D ( 'NONE', #84, #242, #184 ) ;
#155 = ORIENTED_EDGE ( 'NONE', *, *, #295, .T. ) ;
#156 = ORIENTED_EDGE ( 'NONE', *, *, #142, .T. ) ;
#157 = EDGE_LOOP ( 'NONE', ( #129, #131, #171, #151 ) ) ;
#158 = EDGE_CURVE ( 'NONE', #147, #259, #162, .T. ) ;
#159 = AXIS2_PLACEMENT_3D ( 'NONE', #65, #308, #148 ) ;
#160 = DIRECTION ( 'NONE',  ( 0.0000000000000000000, 0.0000000000000000000, 1.000000000000000000 ) ) ;
#161 = CONICAL_SURFACE ( 'NONE', #9, 0.1873124999999999374, 0.1745329251994340025 ) ;
#162 = LINE ( 'NONE', #86, #222 ) ;
#163 = CARTESIAN_POINT ( 'NONE',  ( 0.1724999999999995981, 2.112515728529179297E-17, 2.500000000000000000 ) ) ;
#164 = CARTESIAN_POINT ( 'NONE',  ( 0.0000000000000000000, 0.0000000000000000000, 2.500000000000000000 ) ) ;
#165 = CIRCLE ( 'NONE', #330, 0.1724999999999995981 ) ;
#166 = DIRECTION ( 'NONE',  ( -1.000000000000000000, 0.0000000000000000000, 0.0000000000000000000 ) ) ;
#167 = PRODUCT ( 'Micro_GEC-375-3-030', 'Micro_GEC-375-3-030', '', ( #88 ) ) ;
#168 = UNCERTAINTY_MEASURE_WITH_UNIT (LENGTH_MEASURE( 1.000000000000000082E-05 ), #287, 'distance_accuracy_value', 'NONE');
#169 = DIRECTION ( 'NONE',  ( 0.0000000000000000000, 0.0000000000000000000, 1.000000000000000000 ) ) ;
#170 = CARTESIAN_POINT ( 'NONE',  ( 0.1873125000000000484, 0.0000000000000000000, 0.8750000000000000000 ) ) ;
#171 = ORIENTED_EDGE ( 'NONE', *, *, #300, .T. ) ;
#172 = DIRECTION ( 'NONE',  ( 1.224646799147353207E-16, 0.0000000000000000000, 1.000000000000000000 ) ) ;
#173 = CYLINDRICAL_SURFACE ( 'NONE', #245, 0.1873124999999999929 ) ;
#174 = EDGE_LOOP ( 'NONE', ( #338, #127, #72, #123 ) ) ;
#175 =( NAMED_UNIT ( * ) PLANE_ANGLE_UNIT ( ) SI_UNIT ( $, .RADIAN. ) );
#176 = ORIENTED_EDGE ( 'NONE', *, *, #280, .F. ) ;
#177 = VERTEX_POINT ( 'NONE', #342 ) ;
#178 = FACE_OUTER_BOUND ( 'NONE', #45, .T. ) ;
#179 = EDGE_LOOP ( 'NONE', ( #340, #155 ) ) ;
#180 = ORIENTED_EDGE ( 'NONE', *, *, #55, .T. ) ;
#181 = DIRECTION ( 'NONE',  ( -1.000000000000000000, 0.0000000000000000000, 1.224646799147352961E-16 ) ) ;
#182 = DIRECTION ( 'NONE',  ( 0.1736481776669314969, 0.0000000000000000000, 0.9848077530122077983 ) ) ;
#183 = PRESENTATION_LAYER_ASSIGNMENT (  '', '', ( #149 ) ) ;
#184 = DIRECTION ( 'NONE',  ( 1.000000000000000000, 0.0000000000000000000, 0.0000000000000000000 ) ) ;
#185 = CARTESIAN_POINT ( 'NONE',  ( 0.1873125000000000484, 0.0000000000000000000, 0.8750000000000000000 ) ) ;
#186 = EDGE_CURVE ( 'NONE', #177, #317, #267, .T. ) ;
#187 = CARTESIAN_POINT ( 'NONE',  ( 1.072868196215332765E-16, 0.0000000000000000000, 0.8760633653411785682 ) ) ;
#188 = CYLINDRICAL_SURFACE ( 'NONE', #138, 0.1875000000000000278 ) ;
#189 = ADVANCED_FACE ( 'NONE', ( #80 ), #26, .T. ) ;
#190 = EDGE_CURVE ( 'NONE', #74, #317, #77, .T. ) ;
#191 =( NAMED_UNIT ( * ) PLANE_ANGLE_UNIT ( ) SI_UNIT ( $, .RADIAN. ) );
#192 = CARTESIAN_POINT ( 'NONE',  ( 0.1573124999999999940, 0.0000000000000000000, 0.0000000000000000000 ) ) ;
#193 = LINE ( 'NONE', #66, #53 ) ;
#194 = AXIS2_PLACEMENT_3D ( 'NONE', #58, #110, #29 ) ;
#195 =( NAMED_UNIT ( * ) SI_UNIT ( $, .STERADIAN. ) SOLID_ANGLE_UNIT ( ) );
#196 = APPLICATION_CONTEXT ( 'automotive_design' ) ;
#197 = CARTESIAN_POINT ( 'NONE',  ( -0.1573124999999999940, 1.926522495908680139E-17, 0.02999999999999999889 ) ) ;
#198 = FILL_AREA_STYLE_COLOUR ( '', #311 ) ;
#199 = EDGE_LOOP ( 'NONE', ( #288, #278, #219, #176 ) ) ;
#200 = CIRCLE ( 'NONE', #194, 0.1873124999999999929 ) ;
#201 = ORIENTED_EDGE ( 'NONE', *, *, #158, .T. ) ;
#202 = DIRECTION ( 'NONE',  ( -1.224646799147353207E-16, -0.0000000000000000000, -1.000000000000000000 ) ) ;
#203 = DIRECTION ( 'NONE',  ( 1.000000000000000000, 0.0000000000000000000, 0.0000000000000000000 ) ) ;
#204 = EDGE_CURVE ( 'NONE', #259, #108, #95, .T. ) ;
#205 = VERTEX_POINT ( 'NONE', #35 ) ;
#206 = CARTESIAN_POINT ( 'NONE',  ( 0.0000000000000000000, 0.0000000000000000000, 2.484999999999999432 ) ) ;
#207 = DIRECTION ( 'NONE',  ( -1.224646799147353207E-16, -0.0000000000000000000, -1.000000000000000000 ) ) ;
#208 = DIRECTION ( 'NONE',  ( -1.224646799147353207E-16, -0.0000000000000000000, -1.000000000000000000 ) ) ;
#209 = VECTOR ( 'NONE', #298, 39.37007874015748854 ) ;
#210 = DIRECTION ( 'NONE',  ( 0.0000000000000000000, 0.0000000000000000000, 1.000000000000000000 ) ) ;
#211 = DIRECTION ( 'NONE',  ( -1.000000000000000000, 0.0000000000000000000, 0.0000000000000000000 ) ) ;
#212 = FACE_OUTER_BOUND ( 'NONE', #76, .T. ) ;
#213 = ADVANCED_FACE ( 'NONE', ( #117 ), #277, .T. ) ;
#214 = DIRECTION ( 'NONE',  ( 0.0000000000000000000, 0.0000000000000000000, 1.000000000000000000 ) ) ;
#215 = CIRCLE ( 'NONE', #100, 0.1875000000000000278 ) ;
#216 =( GEOMETRIC_REPRESENTATION_CONTEXT ( 3 ) GLOBAL_UNCERTAINTY_ASSIGNED_CONTEXT ( ( #168 ) ) GLOBAL_UNIT_ASSIGNED_CONTEXT ( ( #287, #227, #17 ) ) REPRESENTATION_CONTEXT ( 'NONE', 'WORKASPACE' ) );
#217 = DIRECTION ( 'NONE',  ( 0.0000000000000000000, 0.0000000000000000000, -1.000000000000000000 ) ) ;
#218 = ADVANCED_FACE ( 'NONE', ( #272 ), #229, .T. ) ;
#219 = ORIENTED_EDGE ( 'NONE', *, *, #236, .F. ) ;
#220 = MANIFOLD_SOLID_BREP ( 'Fillet1', #11 ) ;
#221 = DIRECTION ( 'NONE',  ( -1.000000000000000000, 0.0000000000000000000, 0.0000000000000000000 ) ) ;
#222 = VECTOR ( 'NONE', #240, 39.37007874015748143 ) ;
#223 = TOROIDAL_SURFACE ( 'NONE', #347, 0.1573124999999999940, 0.02999999999999999889 ) ;
#224 = DIRECTION ( 'NONE',  ( 1.000000000000000000, 0.0000000000000000000, 0.0000000000000000000 ) ) ;
#225 = CIRCLE ( 'NONE', #24, 0.1873124999999999374 ) ;
#226 = PRODUCT_DEFINITION ( 'UNKNOWN', '', #292, #50 ) ;
#227 =( NAMED_UNIT ( * ) PLANE_ANGLE_UNIT ( ) SI_UNIT ( $, .RADIAN. ) );
#228 = ORIENTED_EDGE ( 'NONE', *, *, #34, .F. ) ;
#229 = CONICAL_SURFACE ( 'NONE', #52, 0.1873124999999999374, 0.1745329251994340025 ) ;
#230 = DIRECTION ( 'NONE',  ( 0.0000000000000000000, 0.0000000000000000000, 1.000000000000000000 ) ) ;
#231 = ORIENTED_EDGE ( 'NONE', *, *, #55, .F. ) ;
#232 = VECTOR ( 'NONE', #182, 39.37007874015748143 ) ;
#233 = DIRECTION ( 'NONE',  ( -1.000000000000000000, 0.0000000000000000000, 1.224646799147352961E-16 ) ) ;
#234 = ORIENTED_EDGE ( 'NONE', *, *, #38, .F. ) ;
#235 = DIRECTION ( 'NONE',  ( 0.0000000000000000000, 0.0000000000000000000, -1.000000000000000000 ) ) ;
#236 = EDGE_CURVE ( 'NONE', #289, #147, #215, .T. ) ;
#237 = ORIENTED_EDGE ( 'NONE', *, *, #48, .T. ) ;
#238 = AXIS2_PLACEMENT_3D ( 'NONE', #51, #160, #136 ) ;
#239 = AXIS2_PLACEMENT_3D ( 'NONE', #197, #140, #33 ) ;
#240 = DIRECTION ( 'NONE',  ( -0.0000000000000000000, -0.0000000000000000000, -1.000000000000000000 ) ) ;
#241 = DIRECTION ( 'NONE',  ( -1.000000000000000000, 0.0000000000000000000, 0.0000000000000000000 ) ) ;
#242 = DIRECTION ( 'NONE',  ( 0.0000000000000000000, 0.0000000000000000000, 1.000000000000000000 ) ) ;
#243 = DIRECTION ( 'NONE',  ( -0.1736481776669312749, 2.126576849575784241E-17, 0.9848077530122077983 ) ) ;
#244 = DIRECTION ( 'NONE',  ( 0.0000000000000000000, 0.0000000000000000000, 1.000000000000000000 ) ) ;
#245 = AXIS2_PLACEMENT_3D ( 'NONE', #10, #339, #233 ) ;
#246 = CIRCLE ( 'NONE', #92, 0.1875000000000000278 ) ;
#247 = DIRECTION ( 'NONE',  ( -1.224646799147353207E-16, -0.0000000000000000000, -1.000000000000000000 ) ) ;
#248 = CARTESIAN_POINT ( 'NONE',  ( 0.0000000000000000000, 0.0000000000000000000, 2.500000000000000000 ) ) ;
#249 = SURFACE_STYLE_FILL_AREA ( #141 ) ;
#250 = AXIS2_PLACEMENT_3D ( 'NONE', #325, #244, #349 ) ;
#251 = CIRCLE ( 'NONE', #102, 0.1724999999999995981 ) ;
#252 = ADVANCED_BREP_SHAPE_REPRESENTATION ( 'Micro_GEC-375-3-030', ( #220, #154 ), #216 ) ;
#253 = VERTEX_POINT ( 'NONE', #192 ) ;
#254 = DIRECTION ( 'NONE',  ( -0.0000000000000000000, -0.0000000000000000000, -1.000000000000000000 ) ) ;
#255 = CARTESIAN_POINT ( 'NONE',  ( 0.0000000000000000000, 0.0000000000000000000, 2.500000000000000000 ) ) ;
#256 = ORIENTED_EDGE ( 'NONE', *, *, #343, .F. ) ;
#257 = APPLICATION_CONTEXT ( 'automotive_design' ) ;
#258 = DIRECTION ( 'NONE',  ( 1.000000000000000000, 0.0000000000000000000, 0.0000000000000000000 ) ) ;
#259 = VERTEX_POINT ( 'NONE', #301 ) ;
#260 = PRESENTATION_STYLE_ASSIGNMENT (( #71 ) ) ;
#261 = DIRECTION ( 'NONE',  ( 0.0000000000000000000, 0.0000000000000000000, -1.000000000000000000 ) ) ;
#262 = FILL_AREA_STYLE ('',( #198 ) ) ;
#263 = ORIENTED_EDGE ( 'NONE', *, *, #78, .T. ) ;
#264 = ORIENTED_EDGE ( 'NONE', *, *, #236, .T. ) ;
#265 = AXIS2_PLACEMENT_3D ( 'NONE', #54, #321, #30 ) ;
#266 = AXIS2_PLACEMENT_3D ( 'NONE', #293, #208, #166 ) ;
#267 = LINE ( 'NONE', #268, #116 ) ;
#268 = CARTESIAN_POINT ( 'NONE',  ( -0.1873124999999999929, 0.0000000000000000000, 2.293916535652885596E-17 ) ) ;
#269 = DIRECTION ( 'NONE',  ( 0.0000000000000000000, 0.0000000000000000000, -1.000000000000000000 ) ) ;
#270 = DIRECTION ( 'NONE',  ( -0.0000000000000000000, -0.0000000000000000000, -1.000000000000000000 ) ) ;
#271 = CARTESIAN_POINT ( 'NONE',  ( 0.0000000000000000000, 0.0000000000000000000, 0.0000000000000000000 ) ) ;
#272 = FACE_OUTER_BOUND ( 'NONE', #283, .T. ) ;
#273 = DIRECTION ( 'NONE',  ( 1.000000000000000000, 0.0000000000000000000, -0.0000000000000000000 ) ) ;
#274 = COLOUR_RGB ( '',0.7921568627450980005, 0.8196078431372548767, 0.9333333333333333481 ) ;
#275 = EDGE_LOOP ( 'NONE', ( #281, #234, #156, #231 ) ) ;
#276 = ADVANCED_FACE ( 'NONE', ( #39 ), #302, .F. ) ;
#277 = CYLINDRICAL_SURFACE ( 'NONE', #1, 0.1875000000000000278 ) ;
#278 = ORIENTED_EDGE ( 'NONE', *, *, #60, .T. ) ;
#279 = CARTESIAN_POINT ( 'NONE',  ( -0.1724999999999995981, 0.0000000000000000000, 2.500000000000000000 ) ) ;
#280 = EDGE_CURVE ( 'NONE', #205, #289, #7, .T. ) ;
#281 = ORIENTED_EDGE ( 'NONE', *, *, #285, .F. ) ;
#282 = CARTESIAN_POINT ( 'NONE',  ( 0.0000000000000000000, 0.0000000000000000000, 2.500000000000000000 ) ) ;
#283 = EDGE_LOOP ( 'NONE', ( #21, #237, #263, #228 ) ) ;
#284 = VERTEX_POINT ( 'NONE', #120 ) ;
#285 = EDGE_CURVE ( 'NONE', #312, #317, #303, .T. ) ;
#286 = CIRCLE ( 'NONE', #266, 0.1873124999999999374 ) ;
#287 =( CONVERSION_BASED_UNIT ( 'INCH', #150 ) LENGTH_UNIT ( ) NAMED_UNIT ( #32 ) );
#288 = ORIENTED_EDGE ( 'NONE', *, *, #295, .F. ) ;
#289 = VERTEX_POINT ( 'NONE', #306 ) ;
#290 = SHAPE_DEFINITION_REPRESENTATION ( #115, #252 ) ;
#291 = PRESENTATION_LAYER_ASSIGNMENT (  '', '', ( #346 ) ) ;
#292 = PRODUCT_DEFINITION_FORMATION_WITH_SPECIFIED_SOURCE ( 'ANY', '', #167, .NOT_KNOWN. ) ;
#293 = CARTESIAN_POINT ( 'NONE',  ( 1.071565949253934025E-16, 0.0000000000000000000, 0.8750000000000000000 ) ) ;
#294 = CARTESIAN_POINT ( 'NONE',  ( 3.673940397442059190E-18, 0.0000000000000000000, 0.0000000000000000000 ) ) ;
#295 = EDGE_CURVE ( 'NONE', #284, #205, #165, .T. ) ;
#296 = LINE ( 'NONE', #56, #28 ) ;
#297 = DIRECTION ( 'NONE',  ( -0.0000000000000000000, -0.0000000000000000000, -1.000000000000000000 ) ) ;
#298 = DIRECTION ( 'NONE',  ( -0.7071067811865385799, 0.0000000000000000000, -0.7071067811865563435 ) ) ;
#299 = CONICAL_SURFACE ( 'NONE', #67, 0.1724999999999995981, 0.7853981633974357335 ) ;
#300 = EDGE_CURVE ( 'NONE', #289, #108, #193, .T. ) ;
#301 = CARTESIAN_POINT ( 'NONE',  ( 0.1875000000000000833, 2.296212748401288650E-17, 0.8760633653411785682 ) ) ;
#302 = PLANE ( 'NONE',  #16 ) ;
#303 = CIRCLE ( 'NONE', #239, 0.02999999999999998848 ) ;
#304 = AXIS2_PLACEMENT_3D ( 'NONE', #125, #235, #316 ) ;
#305 = VERTEX_POINT ( 'NONE', #170 ) ;
#306 = CARTESIAN_POINT ( 'NONE',  ( -0.1875000000000000278, 0.0000000000000000000, 2.484999999999999432 ) ) ;
#307 = ADVANCED_FACE ( 'NONE', ( #91 ), #161, .T. ) ;
#308 = DIRECTION ( 'NONE',  ( -1.224646799147353207E-16, -0.0000000000000000000, -1.000000000000000000 ) ) ;
#309 = DIRECTION ( 'NONE',  ( -1.000000000000000000, 0.0000000000000000000, 0.0000000000000000000 ) ) ;
#310 =( GEOMETRIC_REPRESENTATION_CONTEXT ( 3 ) GLOBAL_UNCERTAINTY_ASSIGNED_CONTEXT ( ( #113 ) ) GLOBAL_UNIT_ASSIGNED_CONTEXT ( ( #328, #191, #195 ) ) REPRESENTATION_CONTEXT ( 'NONE', 'WORKASPACE' ) );
#311 = COLOUR_RGB ( '',0.7921568627450980005, 0.8196078431372548767, 0.9333333333333333481 ) ;
#312 = VERTEX_POINT ( 'NONE', #334 ) ;
#313 = EDGE_CURVE ( 'NONE', #205, #284, #251, .T. ) ;
#314 = CARTESIAN_POINT ( 'NONE',  ( -0.1873124999999999929, 0.0000000000000000000, 0.03000000000000000583 ) ) ;
#315 = CARTESIAN_POINT ( 'NONE',  ( 1.071565949253934025E-16, 0.0000000000000000000, 0.8750000000000000000 ) ) ;
#316 = DIRECTION ( 'NONE',  ( -1.000000000000000000, 0.0000000000000000000, 0.0000000000000000000 ) ) ;
#317 = VERTEX_POINT ( 'NONE', #314 ) ;
#318 = SURFACE_STYLE_FILL_AREA ( #262 ) ;
#319 = ORIENTED_EDGE ( 'NONE', *, *, #300, .F. ) ;
#320 = DIRECTION ( 'NONE',  ( -1.224646799147353207E-16, -0.0000000000000000000, -1.000000000000000000 ) ) ;
#321 = DIRECTION ( 'NONE',  ( 0.0000000000000000000, -1.000000000000000000, 0.0000000000000000000 ) ) ;
#322 = CARTESIAN_POINT ( 'NONE',  ( 0.1873124999999999929, 2.293916535652885596E-17, 0.03000000000000000583 ) ) ;
#323 = CARTESIAN_POINT ( 'NONE',  ( 0.1875000000000000278, 2.296212748401287726E-17, 2.484999999999999432 ) ) ;
#324 = ADVANCED_FACE ( 'NONE', ( #122 ), #223, .T. ) ;
#325 = CARTESIAN_POINT ( 'NONE',  ( 3.673940397442059190E-18, 0.0000000000000000000, 0.02999999999999999889 ) ) ;
#326 = AXIS2_PLACEMENT_3D ( 'NONE', #82, #350, #114 ) ;
#327 = SURFACE_SIDE_STYLE ('',( #249 ) ) ;
#328 =( CONVERSION_BASED_UNIT ( 'INCH', #94 ) LENGTH_UNIT ( ) NAMED_UNIT ( #36 ) );
#329 = CIRCLE ( 'NONE', #265, 0.02999999999999999889 ) ;
#330 = AXIS2_PLACEMENT_3D ( 'NONE', #248, #214, #144 ) ;
#331 = ADVANCED_FACE ( 'NONE', ( #20 ), #2, .T. ) ;
#332 = LENGTH_MEASURE_WITH_UNIT ( LENGTH_MEASURE( 0.02539999999999999897 ), #40 );
#333 = EDGE_LOOP ( 'NONE', ( #37, #337, #145, #22 ) ) ;
#334 = CARTESIAN_POINT ( 'NONE',  ( -0.1573124999999999940, 2.110219515780783022E-17, 0.0000000000000000000 ) ) ;
#335 = ORIENTED_EDGE ( 'NONE', *, *, #285, .T. ) ;
#336 = LINE ( 'NONE', #75, #83 ) ;
#337 = ORIENTED_EDGE ( 'NONE', *, *, #343, .T. ) ;
#338 = ORIENTED_EDGE ( 'NONE', *, *, #60, .F. ) ;
#339 = DIRECTION ( 'NONE',  ( -1.224646799147353207E-16, -0.0000000000000000000, -1.000000000000000000 ) ) ;
#340 = ORIENTED_EDGE ( 'NONE', *, *, #313, .T. ) ;
#341 = MECHANICAL_DESIGN_GEOMETRIC_PRESENTATION_REPRESENTATION (  '', ( #149 ), #96 ) ;
#342 = CARTESIAN_POINT ( 'NONE',  ( -0.1873124999999998541, 2.295064642027086199E-17, 0.8750000000000000000 ) ) ;
#343 = EDGE_CURVE ( 'NONE', #305, #74, #336, .T. ) ;
#344 = LINE ( 'NONE', #185, #232 ) ;
#345 = CARTESIAN_POINT ( 'NONE',  ( 3.673940397442059960E-18, 0.0000000000000000000, 0.03000000000000000583 ) ) ;
#346 = STYLED_ITEM ( 'NONE', ( #3 ), #220 ) ;
#347 = AXIS2_PLACEMENT_3D ( 'NONE', #41, #230, #130 ) ;
#348 = ADVANCED_FACE ( 'NONE', ( #178 ), #173, .T. ) ;
#349 = DIRECTION ( 'NONE',  ( 1.000000000000000000, 0.0000000000000000000, 0.0000000000000000000 ) ) ;
#350 = DIRECTION ( 'NONE',  ( -0.0000000000000000000, -0.0000000000000000000, -1.000000000000000000 ) ) ;
#351 = DIRECTION ( 'NONE',  ( 1.000000000000000000, 0.0000000000000000000, 0.0000000000000000000 ) ) ;
ENDSEC;
END-ISO-10303-21;
