ISO-10303-21;
HEADER;
FILE_DESCRIPTION (( 'STEP AP214' ),
    '1' );
FILE_NAME ('Micro_BEM-093-03X.STEP',
    '2021-09-03T13:00:49',
    ( '' ),
    ( '' ),
    'SwSTEP 2.0',
    'SolidWorks 2020',
    '' );
FILE_SCHEMA (( 'AUTOMOTIVE_DESIGN' ));
ENDSEC;

DATA;
#1 = FACE_OUTER_BOUND ( 'NONE', #170, .T. ) ;
#2 = PRESENTATION_STYLE_ASSIGNMENT (( #136 ) ) ;
#3 = PRODUCT_DEFINITION ( 'UNKNOWN', '', #186, #157 ) ;
#4 =( GEOMETRIC_REPRESENTATION_CONTEXT ( 3 ) GLOBAL_UNCERTAINTY_ASSIGNED_CONTEXT ( ( #95 ) ) GLOBAL_UNIT_ASSIGNED_CONTEXT ( ( #28, #75, #22 ) ) REPRESENTATION_CONTEXT ( 'NONE', 'WORKASPACE' ) );
#5 = DIRECTION ( 'NONE',  ( 0.0000000000000000000, 0.0000000000000000000, -1.000000000000000000 ) ) ;
#6 = ORIENTED_EDGE ( 'NONE', *, *, #267, .F. ) ;
#7 = DIRECTION ( 'NONE',  ( 0.0000000000000000000, 0.0000000000000000000, 1.000000000000000000 ) ) ;
#8 = ORIENTED_EDGE ( 'NONE', *, *, #71, .T. ) ;
#9 = SHAPE_DEFINITION_REPRESENTATION ( #315, #259 ) ;
#10 = FACE_OUTER_BOUND ( 'NONE', #120, .T. ) ;
#11 = VECTOR ( 'NONE', #96, 39.37007874015748143 ) ;
#12 = MECHANICAL_DESIGN_GEOMETRIC_PRESENTATION_REPRESENTATION (  '', ( #37 ), #295 ) ;
#13 = CYLINDRICAL_SURFACE ( 'NONE', #72, 0.06250000000000002776 ) ;
#14 = FACE_OUTER_BOUND ( 'NONE', #229, .T. ) ;
#15 = CLOSED_SHELL ( 'NONE', ( #275, #325, #108, #311, #297, #226, #27, #134, #262, #238, #257 ) ) ;
#16 = CARTESIAN_POINT ( 'NONE',  ( 0.04750000000000064587, 5.817072295950006528E-18, 1.500000000000000222 ) ) ;
#17 = DIRECTION ( 'NONE',  ( -1.224646799147353700E-16, -0.0000000000000000000, -1.000000000000000000 ) ) ;
#18 = APPLICATION_CONTEXT ( 'automotive_design' ) ;
#19 = ORIENTED_EDGE ( 'NONE', *, *, #172, .F. ) ;
#20 = CARTESIAN_POINT ( 'NONE',  ( 5.731732783751346705E-18, 0.0000000000000000000, 0.04680315000000000170 ) ) ;
#21 = VERTEX_POINT ( 'NONE', #80 ) ;
#22 =( NAMED_UNIT ( * ) SI_UNIT ( $, .STERADIAN. ) SOLID_ANGLE_UNIT ( ) );
#23 = ORIENTED_EDGE ( 'NONE', *, *, #207, .T. ) ;
#24 = AXIS2_PLACEMENT_3D ( 'NONE', #273, #26, #81 ) ;
#25 = ORIENTED_EDGE ( 'NONE', *, *, #203, .T. ) ;
#26 = DIRECTION ( 'NONE',  ( 0.0000000000000000000, 1.000000000000000000, 0.0000000000000000000 ) ) ;
#27 = ADVANCED_FACE ( 'NONE', ( #205 ), #179, .T. ) ;
#28 =( CONVERSION_BASED_UNIT ( 'INCH', #147 ) LENGTH_UNIT ( ) NAMED_UNIT ( #190 ) );
#29 = AXIS2_PLACEMENT_3D ( 'NONE', #208, #82, #184 ) ;
#30 = CYLINDRICAL_SURFACE ( 'NONE', #91, 0.06250000000000002776 ) ;
#31 = DIMENSIONAL_EXPONENTS ( 1.000000000000000000, 0.0000000000000000000, 0.0000000000000000000, 0.0000000000000000000, 0.0000000000000000000, 0.0000000000000000000, 0.0000000000000000000 ) ;
#32 =( NAMED_UNIT ( * ) SI_UNIT ( $, .STERADIAN. ) SOLID_ANGLE_UNIT ( ) );
#33 = VECTOR ( 'NONE', #282, 39.37007874015748143 ) ;
#34 = DIRECTION ( 'NONE',  ( 1.000000000000000000, 0.0000000000000000000, -0.0000000000000000000 ) ) ;
#35 = DIRECTION ( 'NONE',  ( 1.000000000000000000, 0.0000000000000000000, 0.0000000000000000000 ) ) ;
#36 = CARTESIAN_POINT ( 'NONE',  ( 0.0000000000000000000, 0.0000000000000000000, 1.485000000000000764 ) ) ;
#37 = STYLED_ITEM ( 'NONE', ( #319 ), #259 ) ;
#38 = DIRECTION ( 'NONE',  ( 0.0000000000000000000, 0.0000000000000000000, 1.000000000000000000 ) ) ;
#39 = CARTESIAN_POINT ( 'NONE',  ( 4.592425496802576684E-17, 0.0000000000000000000, 0.3750000000000000555 ) ) ;
#40 = CARTESIAN_POINT ( 'NONE',  ( -0.04750000000000064587, 0.0000000000000000000, 1.500000000000000222 ) ) ;
#41 = AXIS2_PLACEMENT_3D ( 'NONE', #289, #45, #145 ) ;
#42 = DIMENSIONAL_EXPONENTS ( 1.000000000000000000, 0.0000000000000000000, 0.0000000000000000000, 0.0000000000000000000, 0.0000000000000000000, 0.0000000000000000000, 0.0000000000000000000 ) ;
#43 = EDGE_LOOP ( 'NONE', ( #146, #227, #150, #97 ) ) ;
#44 = VECTOR ( 'NONE', #90, 39.37007874015747433 ) ;
#45 = DIRECTION ( 'NONE',  ( -1.224646799147353700E-16, -0.0000000000000000000, -1.000000000000000000 ) ) ;
#46 = ORIENTED_EDGE ( 'NONE', *, *, #300, .T. ) ;
#47 = FACE_OUTER_BOUND ( 'NONE', #243, .T. ) ;
#48 = ORIENTED_EDGE ( 'NONE', *, *, #183, .F. ) ;
#49 = FACE_OUTER_BOUND ( 'NONE', #317, .T. ) ;
#50 = DIRECTION ( 'NONE',  ( -1.000000000000000000, 0.0000000000000000000, 1.224646799147353700E-16 ) ) ;
#51 = EDGE_CURVE ( 'NONE', #165, #245, #74, .T. ) ;
#52 = DIRECTION ( 'NONE',  ( -1.000000000000000000, 0.0000000000000000000, 0.0000000000000000000 ) ) ;
#53 = VECTOR ( 'NONE', #314, 39.37007874015748854 ) ;
#54 =( NAMED_UNIT ( * ) PLANE_ANGLE_UNIT ( ) SI_UNIT ( $, .RADIAN. ) );
#55 = LINE ( 'NONE', #158, #181 ) ;
#56 = DIRECTION ( 'NONE',  ( 0.0000000000000000000, 0.0000000000000000000, -1.000000000000000000 ) ) ;
#57 = MECHANICAL_DESIGN_GEOMETRIC_PRESENTATION_REPRESENTATION (  '', ( #280 ), #310 ) ;
#58 = FILL_AREA_STYLE ('',( #84 ) ) ;
#59 = DIRECTION ( 'NONE',  ( 1.224646799147353207E-16, 1.000000000000000000, -0.0000000000000000000 ) ) ;
#60 = CARTESIAN_POINT ( 'NONE',  ( 0.04750000000000064587, 6.735557395310483192E-18, 1.500000000000000222 ) ) ;
#61 = DIRECTION ( 'NONE',  ( 1.224646799147353700E-16, 0.0000000000000000000, 1.000000000000000000 ) ) ;
#62 = FACE_OUTER_BOUND ( 'NONE', #220, .T. ) ;
#63 = UNCERTAINTY_MEASURE_WITH_UNIT (LENGTH_MEASURE( 1.000000000000000082E-05 ), #70, 'distance_accuracy_value', 'NONE');
#64 = CARTESIAN_POINT ( 'NONE',  ( -0.06250000000000002776, 0.0000000000000000000, 1.500000000000000222 ) ) ;
#65 = VECTOR ( 'NONE', #119, 39.37007874015748143 ) ;
#66 = ORIENTED_EDGE ( 'NONE', *, *, #172, .T. ) ;
#67 = DIRECTION ( 'NONE',  ( 0.0000000000000000000, 1.000000000000000000, 0.0000000000000000000 ) ) ;
#68 = ORIENTED_EDGE ( 'NONE', *, *, #198, .F. ) ;
#69 = CARTESIAN_POINT ( 'NONE',  ( 0.06250000000000008327, 7.654042494670966789E-18, 0.4640212600302659474 ) ) ;
#70 =( CONVERSION_BASED_UNIT ( 'INCH', #194 ) LENGTH_UNIT ( ) NAMED_UNIT ( #42 ) );
#71 = EDGE_CURVE ( 'NONE', #156, #199, #299, .T. ) ;
#72 = AXIS2_PLACEMENT_3D ( 'NONE', #211, #308, #244 ) ;
#73 = AXIS2_PLACEMENT_3D ( 'NONE', #187, #287, #215 ) ;
#74 = CIRCLE ( 'NONE', #276, 0.06250000000000002776 ) ;
#75 =( NAMED_UNIT ( * ) PLANE_ANGLE_UNIT ( ) SI_UNIT ( $, .RADIAN. ) );
#76 = CARTESIAN_POINT ( 'NONE',  ( 5.682621508323871149E-17, 0.0000000000000000000, 0.4640212600302659474 ) ) ;
#77 = AXIS2_PLACEMENT_3D ( 'NONE', #312, #61, #188 ) ;
#78 = CARTESIAN_POINT ( 'NONE',  ( 0.04680315000000004333, 0.0000000000000000000, 0.3750000000000000555 ) ) ;
#79 = ORIENTED_EDGE ( 'NONE', *, *, #203, .F. ) ;
#80 = CARTESIAN_POINT ( 'NONE',  ( -0.04750000000000064587, 0.0000000000000000000, 1.500000000000000222 ) ) ;
#81 = DIRECTION ( 'NONE',  ( 1.000000000000000000, 0.0000000000000000000, 0.0000000000000000000 ) ) ;
#82 = DIRECTION ( 'NONE',  ( 0.0000000000000000000, -1.000000000000000000, 0.0000000000000000000 ) ) ;
#83 = AXIS2_PLACEMENT_3D ( 'NONE', #278, #56, #159 ) ;
#84 = FILL_AREA_STYLE_COLOUR ( '', #130 ) ;
#85 = APPLICATION_CONTEXT ( 'automotive_design' ) ;
#86 = VECTOR ( 'NONE', #142, 39.37007874015748854 ) ;
#87 = DIRECTION ( 'NONE',  ( 0.0000000000000000000, 0.0000000000000000000, 1.000000000000000000 ) ) ;
#88 = LINE ( 'NONE', #141, #269 ) ;
#89 = CARTESIAN_POINT ( 'NONE',  ( 0.0000000000000000000, 0.0000000000000000000, 0.0000000000000000000 ) ) ;
#90 = DIRECTION ( 'NONE',  ( -0.1736481776669311083, 2.126576849575782084E-17, 0.9848077530122080203 ) ) ;
#91 = AXIS2_PLACEMENT_3D ( 'NONE', #128, #105, #52 ) ;
#92 = DIRECTION ( 'NONE',  ( 1.000000000000000000, 0.0000000000000000000, 0.0000000000000000000 ) ) ;
#93 = LINE ( 'NONE', #16, #53 ) ;
#94 = EDGE_CURVE ( 'NONE', #156, #121, #161, .T. ) ;
#95 = UNCERTAINTY_MEASURE_WITH_UNIT (LENGTH_MEASURE( 1.000000000000000082E-05 ), #28, 'distance_accuracy_value', 'NONE');
#96 = DIRECTION ( 'NONE',  ( -1.224646799147353700E-16, -0.0000000000000000000, -1.000000000000000000 ) ) ;
#97 = ORIENTED_EDGE ( 'NONE', *, *, #51, .F. ) ;
#98 =( LENGTH_UNIT ( ) NAMED_UNIT ( * ) SI_UNIT ( $, .METRE. ) );
#99 = EDGE_CURVE ( 'NONE', #103, #301, #112, .T. ) ;
#100 =( NAMED_UNIT ( * ) PLANE_ANGLE_UNIT ( ) SI_UNIT ( $, .RADIAN. ) );
#101 = AXIS2_PLACEMENT_3D ( 'NONE', #20, #67, #309 ) ;
#102 = AXIS2_PLACEMENT_3D ( 'NONE', #162, #38, #92 ) ;
#103 = VERTEX_POINT ( 'NONE', #304 ) ;
#104 = AXIS2_PLACEMENT_3D ( 'NONE', #230, #59, #232 ) ;
#105 = DIRECTION ( 'NONE',  ( -0.0000000000000000000, -0.0000000000000000000, -1.000000000000000000 ) ) ;
#106 = LENGTH_MEASURE_WITH_UNIT ( LENGTH_MEASURE( 0.02539999999999999897 ), #302 );
#107 = CARTESIAN_POINT ( 'NONE',  ( 0.04680315000000000863, 5.731732783751344394E-18, 0.04680314999999999476 ) ) ;
#108 = ADVANCED_FACE ( 'NONE', ( #10 ), #290, .T. ) ;
#109 = FACE_OUTER_BOUND ( 'NONE', #43, .T. ) ;
#110 = AXIS2_PLACEMENT_3D ( 'NONE', #139, #87, #34 ) ;
#111 = EDGE_LOOP ( 'NONE', ( #19, #256, #316, #123 ) ) ;
#112 = LINE ( 'NONE', #78, #33 ) ;
#113 = DIRECTION ( 'NONE',  ( 1.000000000000000000, 0.0000000000000000000, 0.0000000000000000000 ) ) ;
#114 = MANIFOLD_SOLID_BREP ( 'Fillet1', #15 ) ;
#115 = DIRECTION ( 'NONE',  ( 1.000000000000000000, 0.0000000000000000000, 0.0000000000000000000 ) ) ;
#116 = AXIS2_PLACEMENT_3D ( 'NONE', #239, #213, #263 ) ;
#117 = CARTESIAN_POINT ( 'NONE',  ( 4.592425496802576684E-17, 0.0000000000000000000, 0.3750000000000000555 ) ) ;
#118 = AXIS2_PLACEMENT_3D ( 'NONE', #76, #200, #298 ) ;
#119 = DIRECTION ( 'NONE',  ( -0.0000000000000000000, -0.0000000000000000000, -1.000000000000000000 ) ) ;
#120 = EDGE_LOOP ( 'NONE', ( #125, #66, #46, #191 ) ) ;
#121 = VERTEX_POINT ( 'NONE', #107 ) ;
#122 = FACE_OUTER_BOUND ( 'NONE', #218, .T. ) ;
#123 = ORIENTED_EDGE ( 'NONE', *, *, #251, .T. ) ;
#124 = FILL_AREA_STYLE_COLOUR ( '', #246 ) ;
#125 = ORIENTED_EDGE ( 'NONE', *, *, #222, .F. ) ;
#126 = SPHERICAL_SURFACE ( 'NONE', #24, 0.04680315000000000170 ) ;
#127 = ORIENTED_EDGE ( 'NONE', *, *, #155, .T. ) ;
#128 = CARTESIAN_POINT ( 'NONE',  ( 0.0000000000000000000, 0.0000000000000000000, 1.500000000000000222 ) ) ;
#129 = CONICAL_SURFACE ( 'NONE', #83, 0.04750000000000064587, 0.7853981633974466137 ) ;
#130 = COLOUR_RGB ( '',0.7921568627450980005, 0.8196078431372548767, 0.9333333333333333481 ) ;
#131 = SURFACE_STYLE_FILL_AREA ( #249 ) ;
#132 = EDGE_CURVE ( 'NONE', #165, #301, #55, .T. ) ;
#133 = EDGE_LOOP ( 'NONE', ( #322, #320 ) ) ;
#134 = ADVANCED_FACE ( 'NONE', ( #109 ), #129, .T. ) ;
#135 = AXIS2_PLACEMENT_3D ( 'NONE', #39, #288, #115 ) ;
#136 = SURFACE_STYLE_USAGE ( .BOTH. , #182 ) ;
#137 = DIRECTION ( 'NONE',  ( 0.0000000000000000000, 0.0000000000000000000, -1.000000000000000000 ) ) ;
#138 = ORIENTED_EDGE ( 'NONE', *, *, #251, .F. ) ;
#139 = CARTESIAN_POINT ( 'NONE',  ( 0.0000000000000000000, 0.0000000000000000000, 1.500000000000000222 ) ) ;
#140 = LINE ( 'NONE', #163, #44 ) ;
#141 = CARTESIAN_POINT ( 'NONE',  ( -0.04680315000000000170, 0.0000000000000000000, 5.731732783751346705E-18 ) ) ;
#142 = DIRECTION ( 'NONE',  ( -0.7071067811865462405, 0.0000000000000000000, -0.7071067811865486830 ) ) ;
#143 = AXIS2_PLACEMENT_3D ( 'NONE', #307, #210, #35 ) ;
#144 = SPHERICAL_SURFACE ( 'NONE', #101, 0.04680315000000000170 ) ;
#145 = DIRECTION ( 'NONE',  ( -1.000000000000000000, 0.0000000000000000000, 1.224646799147353700E-16 ) ) ;
#146 = ORIENTED_EDGE ( 'NONE', *, *, #207, .F. ) ;
#147 = LENGTH_MEASURE_WITH_UNIT ( LENGTH_MEASURE( 0.02539999999999999897 ), #274 );
#148 = DIRECTION ( 'NONE',  ( -1.000000000000000000, 0.0000000000000000000, 0.0000000000000000000 ) ) ;
#149 = CIRCLE ( 'NONE', #306, 0.04750000000000064587 ) ;
#150 = ORIENTED_EDGE ( 'NONE', *, *, #198, .T. ) ;
#151 = CARTESIAN_POINT ( 'NONE',  ( -0.04680314999999996006, 6.692887639211152895E-18, 0.3750000000000000555 ) ) ;
#152 = DIRECTION ( 'NONE',  ( 0.0000000000000000000, 0.0000000000000000000, 1.000000000000000000 ) ) ;
#153 = AXIS2_PLACEMENT_3D ( 'NONE', #117, #17, #216 ) ;
#154 = ORIENTED_EDGE ( 'NONE', *, *, #164, .T. ) ;
#155 = EDGE_CURVE ( 'NONE', #245, #165, #209, .T. ) ;
#156 = VERTEX_POINT ( 'NONE', #318 ) ;
#157 = PRODUCT_DEFINITION_CONTEXT ( 'detailed design', #18, 'design' ) ;
#158 = CARTESIAN_POINT ( 'NONE',  ( 0.06250000000000002776, 7.654042494670959086E-18, 1.500000000000000222 ) ) ;
#159 = DIRECTION ( 'NONE',  ( -1.000000000000000000, 0.0000000000000000000, 0.0000000000000000000 ) ) ;
#160 = SURFACE_STYLE_FILL_AREA ( #58 ) ;
#161 = CIRCLE ( 'NONE', #29, 0.04680315000000000170 ) ;
#162 = CARTESIAN_POINT ( 'NONE',  ( 0.0000000000000000000, 0.0000000000000000000, 1.500000000000000222 ) ) ;
#163 = CARTESIAN_POINT ( 'NONE',  ( -0.04680314999999996006, 5.731732783751344394E-18, 0.3750000000000000555 ) ) ;
#164 = EDGE_CURVE ( 'NONE', #121, #199, #323, .T. ) ;
#165 = VERTEX_POINT ( 'NONE', #185 ) ;
#166 = LINE ( 'NONE', #40, #86 ) ;
#167 = AXIS2_PLACEMENT_3D ( 'NONE', #260, #137, #113 ) ;
#168 = CARTESIAN_POINT ( 'NONE',  ( -0.04680314999999999476, 0.0000000000000000000, 0.04680315000000000863 ) ) ;
#169 = PRESENTATION_LAYER_ASSIGNMENT (  '', '', ( #37 ) ) ;
#170 = EDGE_LOOP ( 'NONE', ( #6, #23, #195, #68 ) ) ;
#171 = LINE ( 'NONE', #64, #65 ) ;
#172 = EDGE_CURVE ( 'NONE', #291, #206, #140, .T. ) ;
#173 = EDGE_LOOP ( 'NONE', ( #79, #281, #197, #178 ) ) ;
#174 = DIRECTION ( 'NONE',  ( 1.000000000000000000, 0.0000000000000000000, 0.0000000000000000000 ) ) ;
#175 = PRESENTATION_LAYER_ASSIGNMENT (  '', '', ( #280 ) ) ;
#176 = ORIENTED_EDGE ( 'NONE', *, *, #183, .T. ) ;
#177 = APPLICATION_PROTOCOL_DEFINITION ( 'draft international standard', 'automotive_design', 1998, #85 ) ;
#178 = ORIENTED_EDGE ( 'NONE', *, *, #272, .T. ) ;
#179 = PLANE ( 'NONE',  #110 ) ;
#180 = CARTESIAN_POINT ( 'NONE',  ( 0.0000000000000000000, 0.0000000000000000000, 1.500000000000000222 ) ) ;
#181 = VECTOR ( 'NONE', #253, 39.37007874015748143 ) ;
#182 = SURFACE_SIDE_STYLE ('',( #160 ) ) ;
#183 = EDGE_CURVE ( 'NONE', #245, #206, #171, .T. ) ;
#184 = DIRECTION ( 'NONE',  ( 0.0000000000000000000, 0.0000000000000000000, -1.000000000000000000 ) ) ;
#185 = CARTESIAN_POINT ( 'NONE',  ( 0.06250000000000002776, 7.654042494670959086E-18, 1.485000000000000764 ) ) ;
#186 = PRODUCT_DEFINITION_FORMATION_WITH_SPECIFIED_SOURCE ( 'ANY', '', #240, .NOT_KNOWN. ) ;
#187 = CARTESIAN_POINT ( 'NONE',  ( 5.731732783751346705E-18, 0.0000000000000000000, 0.04680315000000000170 ) ) ;
#188 = DIRECTION ( 'NONE',  ( -1.000000000000000000, 0.0000000000000000000, 1.824027865688703052E-16 ) ) ;
#189 = DIRECTION ( 'NONE',  ( -1.000000000000000000, 0.0000000000000000000, 0.0000000000000000000 ) ) ;
#190 = DIMENSIONAL_EXPONENTS ( 1.000000000000000000, 0.0000000000000000000, 0.0000000000000000000, 0.0000000000000000000, 0.0000000000000000000, 0.0000000000000000000, 0.0000000000000000000 ) ;
#191 = ORIENTED_EDGE ( 'NONE', *, *, #99, .F. ) ;
#192 = CARTESIAN_POINT ( 'NONE',  ( -0.06249999999999996531, 0.0000000000000000000, 0.4640212600302659474 ) ) ;
#193 = EDGE_CURVE ( 'NONE', #103, #291, #305, .T. ) ;
#194 = LENGTH_MEASURE_WITH_UNIT ( LENGTH_MEASURE( 0.02539999999999999897 ), #98 );
#195 = ORIENTED_EDGE ( 'NONE', *, *, #155, .F. ) ;
#196 = CARTESIAN_POINT ( 'NONE',  ( 0.0000000000000000000, 0.0000000000000000000, 0.0000000000000000000 ) ) ;
#197 = ORIENTED_EDGE ( 'NONE', *, *, #231, .T. ) ;
#198 = EDGE_CURVE ( 'NONE', #21, #245, #166, .T. ) ;
#199 = VERTEX_POINT ( 'NONE', #168 ) ;
#200 = DIRECTION ( 'NONE',  ( -1.224646799147353700E-16, -0.0000000000000000000, -1.000000000000000000 ) ) ;
#201 =( CONVERSION_BASED_UNIT ( 'INCH', #106 ) LENGTH_UNIT ( ) NAMED_UNIT ( #31 ) );
#202 = AXIS2_PLACEMENT_3D ( 'NONE', #321, #292, #148 ) ;
#203 = EDGE_CURVE ( 'NONE', #103, #121, #265, .T. ) ;
#204 = ORIENTED_EDGE ( 'NONE', *, *, #222, .T. ) ;
#205 = FACE_OUTER_BOUND ( 'NONE', #133, .T. ) ;
#206 = VERTEX_POINT ( 'NONE', #192 ) ;
#207 = EDGE_CURVE ( 'NONE', #264, #165, #93, .T. ) ;
#208 = CARTESIAN_POINT ( 'NONE',  ( 5.731732783751346705E-18, 0.0000000000000000000, 0.04680315000000000170 ) ) ;
#209 = CIRCLE ( 'NONE', #167, 0.06250000000000002776 ) ;
#210 = DIRECTION ( 'NONE',  ( 1.224646799147353700E-16, 0.0000000000000000000, 1.000000000000000000 ) ) ;
#211 = CARTESIAN_POINT ( 'NONE',  ( 0.0000000000000000000, 0.0000000000000000000, 1.500000000000000222 ) ) ;
#212 = PRODUCT_RELATED_PRODUCT_CATEGORY ( 'part', '', ( #240 ) ) ;
#213 = DIRECTION ( 'NONE',  ( -1.224646799147353700E-16, -0.0000000000000000000, -1.000000000000000000 ) ) ;
#214 = AXIS2_PLACEMENT_3D ( 'NONE', #266, #237, #189 ) ;
#215 = DIRECTION ( 'NONE',  ( -1.000000000000000000, 0.0000000000000000000, 1.824027865688703052E-16 ) ) ;
#216 = DIRECTION ( 'NONE',  ( -1.000000000000000000, 0.0000000000000000000, 0.0000000000000000000 ) ) ;
#217 = DIRECTION ( 'NONE',  ( -1.224646799147353700E-16, -0.0000000000000000000, -1.000000000000000000 ) ) ;
#218 = EDGE_LOOP ( 'NONE', ( #296, #277, #248 ) ) ;
#219 = SURFACE_SIDE_STYLE ('',( #131 ) ) ;
#220 = EDGE_LOOP ( 'NONE', ( #271, #8, #294 ) ) ;
#221 = CYLINDRICAL_SURFACE ( 'NONE', #324, 0.04680315000000000170 ) ;
#222 = EDGE_CURVE ( 'NONE', #291, #103, #236, .T. ) ;
#223 = ORIENTED_EDGE ( 'NONE', *, *, #300, .F. ) ;
#224 = CONICAL_SURFACE ( 'NONE', #135, 0.04680315000000000170, 0.1745329251994338082 ) ;
#225 = ORIENTED_EDGE ( 'NONE', *, *, #132, .T. ) ;
#226 = ADVANCED_FACE ( 'NONE', ( #14 ), #13, .T. ) ;
#227 = ORIENTED_EDGE ( 'NONE', *, *, #284, .F. ) ;
#228 = CIRCLE ( 'NONE', #102, 0.04750000000000064587 ) ;
#229 = EDGE_LOOP ( 'NONE', ( #233, #252, #176, #138 ) ) ;
#230 = CARTESIAN_POINT ( 'NONE',  ( 5.731732783751346705E-18, 0.0000000000000000000, 0.04680315000000000170 ) ) ;
#231 = EDGE_CURVE ( 'NONE', #291, #199, #88, .T. ) ;
#232 = DIRECTION ( 'NONE',  ( -1.000000000000000000, 1.224646799147353207E-16, 0.0000000000000000000 ) ) ;
#233 = ORIENTED_EDGE ( 'NONE', *, *, #132, .F. ) ;
#234 = PRODUCT_CONTEXT ( 'NONE', #85, 'mechanical' ) ;
#235 = DIRECTION ( 'NONE',  ( 1.000000000000000000, 0.0000000000000000000, 0.0000000000000000000 ) ) ;
#236 = CIRCLE ( 'NONE', #214, 0.04680315000000000170 ) ;
#237 = DIRECTION ( 'NONE',  ( -1.224646799147353700E-16, -0.0000000000000000000, -1.000000000000000000 ) ) ;
#238 = ADVANCED_FACE ( 'NONE', ( #268 ), #241, .T. ) ;
#239 = CARTESIAN_POINT ( 'NONE',  ( 5.682621508323871149E-17, 0.0000000000000000000, 0.4640212600302659474 ) ) ;
#240 = PRODUCT ( 'Micro_BEM-093-03X', 'Micro_BEM-093-03X', '', ( #234 ) ) ;
#241 = CYLINDRICAL_SURFACE ( 'NONE', #41, 0.04680315000000000170 ) ;
#242 = FACE_OUTER_BOUND ( 'NONE', #111, .T. ) ;
#243 = EDGE_LOOP ( 'NONE', ( #204, #25, #154, #250 ) ) ;
#244 = DIRECTION ( 'NONE',  ( -1.000000000000000000, 0.0000000000000000000, 0.0000000000000000000 ) ) ;
#245 = VERTEX_POINT ( 'NONE', #285 ) ;
#246 = COLOUR_RGB ( '',0.7921568627450980005, 0.8196078431372548767, 0.9333333333333333481 ) ;
#247 = DIRECTION ( 'NONE',  ( -1.224646799147353700E-16, -0.0000000000000000000, -1.000000000000000000 ) ) ;
#248 = ORIENTED_EDGE ( 'NONE', *, *, #272, .F. ) ;
#249 = FILL_AREA_STYLE ('',( #124 ) ) ;
#250 = ORIENTED_EDGE ( 'NONE', *, *, #231, .F. ) ;
#251 = EDGE_CURVE ( 'NONE', #301, #206, #254, .T. ) ;
#252 = ORIENTED_EDGE ( 'NONE', *, *, #51, .T. ) ;
#253 = DIRECTION ( 'NONE',  ( -0.0000000000000000000, -0.0000000000000000000, -1.000000000000000000 ) ) ;
#254 = CIRCLE ( 'NONE', #116, 0.06250000000000002776 ) ;
#255 = CIRCLE ( 'NONE', #73, 0.04680315000000000170 ) ;
#256 = ORIENTED_EDGE ( 'NONE', *, *, #193, .F. ) ;
#257 = ADVANCED_FACE ( 'NONE', ( #122 ), #144, .T. ) ;
#258 =( NAMED_UNIT ( * ) SI_UNIT ( $, .STERADIAN. ) SOLID_ANGLE_UNIT ( ) );
#259 = ADVANCED_BREP_SHAPE_REPRESENTATION ( 'Micro_BEM-093-03X', ( #114, #279 ), #4 ) ;
#260 = CARTESIAN_POINT ( 'NONE',  ( 0.0000000000000000000, 0.0000000000000000000, 1.485000000000000764 ) ) ;
#261 = CONICAL_SURFACE ( 'NONE', #202, 0.04750000000000064587, 0.7853981633974466137 ) ;
#262 = ADVANCED_FACE ( 'NONE', ( #242 ), #224, .T. ) ;
#263 = DIRECTION ( 'NONE',  ( 1.000000000000000000, 0.0000000000000000000, 0.0000000000000000000 ) ) ;
#264 = VERTEX_POINT ( 'NONE', #60 ) ;
#265 = LINE ( 'NONE', #270, #11 ) ;
#266 = CARTESIAN_POINT ( 'NONE',  ( 4.592425496802576684E-17, 0.0000000000000000000, 0.3750000000000000555 ) ) ;
#267 = EDGE_CURVE ( 'NONE', #264, #21, #228, .T. ) ;
#268 = FACE_OUTER_BOUND ( 'NONE', #173, .T. ) ;
#269 = VECTOR ( 'NONE', #217, 39.37007874015748143 ) ;
#270 = CARTESIAN_POINT ( 'NONE',  ( 0.04680315000000000170, 5.731732783751344394E-18, -5.731732783751346705E-18 ) ) ;
#271 = ORIENTED_EDGE ( 'NONE', *, *, #94, .F. ) ;
#272 = EDGE_CURVE ( 'NONE', #199, #121, #255, .T. ) ;
#273 = CARTESIAN_POINT ( 'NONE',  ( 5.731732783751346705E-18, 0.0000000000000000000, 0.04680315000000000170 ) ) ;
#274 =( LENGTH_UNIT ( ) NAMED_UNIT ( * ) SI_UNIT ( $, .METRE. ) );
#275 = ADVANCED_FACE ( 'NONE', ( #62 ), #126, .T. ) ;
#276 = AXIS2_PLACEMENT_3D ( 'NONE', #36, #5, #235 ) ;
#277 = ORIENTED_EDGE ( 'NONE', *, *, #94, .T. ) ;
#278 = CARTESIAN_POINT ( 'NONE',  ( 0.0000000000000000000, 0.0000000000000000000, 1.500000000000000222 ) ) ;
#279 = AXIS2_PLACEMENT_3D ( 'NONE', #89, #7, #303 ) ;
#280 = STYLED_ITEM ( 'NONE', ( #2 ), #114 ) ;
#281 = ORIENTED_EDGE ( 'NONE', *, *, #193, .T. ) ;
#282 = DIRECTION ( 'NONE',  ( 0.1736481776669313026, 0.0000000000000000000, 0.9848077530122077983 ) ) ;
#283 = APPLICATION_PROTOCOL_DEFINITION ( 'draft international standard', 'automotive_design', 1998, #18 ) ;
#284 = EDGE_CURVE ( 'NONE', #21, #264, #149, .T. ) ;
#285 = CARTESIAN_POINT ( 'NONE',  ( -0.06250000000000002776, 0.0000000000000000000, 1.485000000000000764 ) ) ;
#286 = CIRCLE ( 'NONE', #118, 0.06250000000000002776 ) ;
#287 = DIRECTION ( 'NONE',  ( 1.224646799147353700E-16, 0.0000000000000000000, 1.000000000000000000 ) ) ;
#288 = DIRECTION ( 'NONE',  ( 1.224646799147353700E-16, 0.0000000000000000000, 1.000000000000000000 ) ) ;
#289 = CARTESIAN_POINT ( 'NONE',  ( 0.0000000000000000000, 0.0000000000000000000, 0.0000000000000000000 ) ) ;
#290 = CONICAL_SURFACE ( 'NONE', #143, 0.04680315000000000170, 0.1745329251994338082 ) ;
#291 = VERTEX_POINT ( 'NONE', #151 ) ;
#292 = DIRECTION ( 'NONE',  ( 0.0000000000000000000, 0.0000000000000000000, -1.000000000000000000 ) ) ;
#293 = SURFACE_STYLE_USAGE ( .BOTH. , #219 ) ;
#294 = ORIENTED_EDGE ( 'NONE', *, *, #164, .F. ) ;
#295 =( GEOMETRIC_REPRESENTATION_CONTEXT ( 3 ) GLOBAL_UNCERTAINTY_ASSIGNED_CONTEXT ( ( #63 ) ) GLOBAL_UNIT_ASSIGNED_CONTEXT ( ( #70, #100, #258 ) ) REPRESENTATION_CONTEXT ( 'NONE', 'WORKASPACE' ) );
#296 = ORIENTED_EDGE ( 'NONE', *, *, #71, .F. ) ;
#297 = ADVANCED_FACE ( 'NONE', ( #49 ), #30, .T. ) ;
#298 = DIRECTION ( 'NONE',  ( 1.000000000000000000, 0.0000000000000000000, 0.0000000000000000000 ) ) ;
#299 = CIRCLE ( 'NONE', #104, 0.04680315000000000170 ) ;
#300 = EDGE_CURVE ( 'NONE', #206, #301, #286, .T. ) ;
#301 = VERTEX_POINT ( 'NONE', #69 ) ;
#302 =( LENGTH_UNIT ( ) NAMED_UNIT ( * ) SI_UNIT ( $, .METRE. ) );
#303 = DIRECTION ( 'NONE',  ( 1.000000000000000000, 0.0000000000000000000, 0.0000000000000000000 ) ) ;
#304 = CARTESIAN_POINT ( 'NONE',  ( 0.04680315000000004333, 0.0000000000000000000, 0.3750000000000000555 ) ) ;
#305 = CIRCLE ( 'NONE', #153, 0.04680315000000000170 ) ;
#306 = AXIS2_PLACEMENT_3D ( 'NONE', #180, #152, #174 ) ;
#307 = CARTESIAN_POINT ( 'NONE',  ( 4.592425496802576684E-17, 0.0000000000000000000, 0.3750000000000000555 ) ) ;
#308 = DIRECTION ( 'NONE',  ( -0.0000000000000000000, -0.0000000000000000000, -1.000000000000000000 ) ) ;
#309 = DIRECTION ( 'NONE',  ( 1.000000000000000000, 0.0000000000000000000, 0.0000000000000000000 ) ) ;
#310 =( GEOMETRIC_REPRESENTATION_CONTEXT ( 3 ) GLOBAL_UNCERTAINTY_ASSIGNED_CONTEXT ( ( #313 ) ) GLOBAL_UNIT_ASSIGNED_CONTEXT ( ( #201, #54, #32 ) ) REPRESENTATION_CONTEXT ( 'NONE', 'WORKASPACE' ) );
#311 = ADVANCED_FACE ( 'NONE', ( #1 ), #261, .T. ) ;
#312 = CARTESIAN_POINT ( 'NONE',  ( 5.731732783751346705E-18, 0.0000000000000000000, 0.04680315000000000170 ) ) ;
#313 = UNCERTAINTY_MEASURE_WITH_UNIT (LENGTH_MEASURE( 1.000000000000000082E-05 ), #201, 'distance_accuracy_value', 'NONE');
#314 = DIRECTION ( 'NONE',  ( 0.7071067811865462405, 8.659560562354916834E-17, -0.7071067811865486830 ) ) ;
#315 = PRODUCT_DEFINITION_SHAPE ( 'NONE', 'NONE',  #3 ) ;
#316 = ORIENTED_EDGE ( 'NONE', *, *, #99, .T. ) ;
#317 = EDGE_LOOP ( 'NONE', ( #127, #225, #223, #48 ) ) ;
#318 = CARTESIAN_POINT ( 'NONE',  ( 8.597599175627018516E-18, 0.0000000000000000000, 0.0000000000000000000 ) ) ;
#319 = PRESENTATION_STYLE_ASSIGNMENT (( #293 ) ) ;
#320 = ORIENTED_EDGE ( 'NONE', *, *, #267, .T. ) ;
#321 = CARTESIAN_POINT ( 'NONE',  ( 0.0000000000000000000, 0.0000000000000000000, 1.500000000000000222 ) ) ;
#322 = ORIENTED_EDGE ( 'NONE', *, *, #284, .T. ) ;
#323 = CIRCLE ( 'NONE', #77, 0.04680315000000000170 ) ;
#324 = AXIS2_PLACEMENT_3D ( 'NONE', #196, #247, #50 ) ;
#325 = ADVANCED_FACE ( 'NONE', ( #47 ), #221, .T. ) ;
ENDSEC;
END-ISO-10303-21;
