ISO-10303-21;
HEADER;
FILE_DESCRIPTION (( 'STEP AP214' ),
    '1' );
FILE_NAME ('81406.STEP',
    '2023-06-23T01:16:15',
    ( '' ),
    ( '' ),
    'SwSTEP 2.0',
    'SolidWorks 2023',
    '' );
FILE_SCHEMA (( 'AUTOMOTIVE_DESIGN' ));
ENDSEC;

DATA;
#1 = CIRCLE ( 'NONE', #234, 0.1562500000000000000 ) ;
#2 = DIRECTION ( 'NONE',  ( 0.000000000000000000, 0.000000000000000000, -1.000000000000000000 ) ) ;
#3 = EDGE_CURVE ( 'NONE', #39, #255, #44, .T. ) ;
#4 = FILL_AREA_STYLE ('',( #106 ) ) ;
#5 = UNCERTAINTY_MEASURE_WITH_UNIT (LENGTH_MEASURE( 1.000000000000000082E-05 ), #85, 'distance_accuracy_value', 'NONE');
#6 = EDGE_LOOP ( 'NONE', ( #88, #240 ) ) ;
#7 = PRESENTATION_LAYER_ASSIGNMENT (  '', '', ( #104 ) ) ;
#8 =( LENGTH_UNIT ( ) NAMED_UNIT ( * ) SI_UNIT ( $, .METRE. ) );
#9 = AXIS2_PLACEMENT_3D ( 'NONE', #304, #20, #94 ) ;
#10 = CARTESIAN_POINT ( 'NONE',  ( 1.224646799147353700E-16, 2.000000000000000000, 0.000000000000000000 ) ) ;
#11 = CARTESIAN_POINT ( 'NONE',  ( 0.000000000000000000, 0.4374999999999998890, 0.000000000000000000 ) ) ;
#12 = ORIENTED_EDGE ( 'NONE', *, *, #3, .T. ) ;
#13 = DIMENSIONAL_EXPONENTS ( 1.000000000000000000, 0.000000000000000000, 0.000000000000000000, 0.000000000000000000, 0.000000000000000000, 0.000000000000000000, 0.000000000000000000 ) ;
#14 = ORIENTED_EDGE ( 'NONE', *, *, #135, .T. ) ;
#15 = DIRECTION ( 'NONE',  ( -0.000000000000000000, -1.000000000000000000, -0.000000000000000000 ) ) ;
#16 = DIRECTION ( 'NONE',  ( 7.837739514543064125E-17, 1.000000000000000000, -0.000000000000000000 ) ) ;
#17 = EDGE_LOOP ( 'NONE', ( #295, #109 ) ) ;
#18 =( NAMED_UNIT ( * ) PLANE_ANGLE_UNIT ( ) SI_UNIT ( $, .RADIAN. ) );
#19 = AXIS2_PLACEMENT_3D ( 'NONE', #47, #148, #123 ) ;
#20 = DIRECTION ( 'NONE',  ( 0.000000000000000000, 1.000000000000000000, 0.000000000000000000 ) ) ;
#21 = DIRECTION ( 'NONE',  ( -0.000000000000000000, -1.000000000000000000, -0.000000000000000000 ) ) ;
#22 = DIMENSIONAL_EXPONENTS ( 1.000000000000000000, 0.000000000000000000, 0.000000000000000000, 0.000000000000000000, 0.000000000000000000, 0.000000000000000000, 0.000000000000000000 ) ;
#23 =( CONVERSION_BASED_UNIT ( 'INCH', #97 ) LENGTH_UNIT ( ) NAMED_UNIT ( #120 ) );
#24 = EDGE_CURVE ( 'NONE', #255, #306, #92, .T. ) ;
#25 = CARTESIAN_POINT ( 'NONE',  ( -0.1562500000000000000, 0.4374999999999998890, 0.000000000000000000 ) ) ;
#26 = COLOUR_RGB ( '',0.7921568627450980005, 0.8196078431372548767, 0.9333333333333333481 ) ;
#27 = FILL_AREA_STYLE_COLOUR ( '', #64 ) ;
#28 = AXIS2_PLACEMENT_3D ( 'NONE', #10, #180, #105 ) ;
#29 =( NAMED_UNIT ( * ) SI_UNIT ( $, .STERADIAN. ) SOLID_ANGLE_UNIT ( ) );
#30 = DIRECTION ( 'NONE',  ( -0.000000000000000000, -1.000000000000000000, -0.000000000000000000 ) ) ;
#31 = CARTESIAN_POINT ( 'NONE',  ( 0.000000000000000000, 0.000000000000000000, 0.000000000000000000 ) ) ;
#32 = ORIENTED_EDGE ( 'NONE', *, *, #55, .T. ) ;
#33 = CARTESIAN_POINT ( 'NONE',  ( 0.000000000000000000, 0.000000000000000000, 0.000000000000000000 ) ) ;
#34 = EDGE_LOOP ( 'NONE', ( #140, #263 ) ) ;
#35 =( GEOMETRIC_REPRESENTATION_CONTEXT ( 3 ) GLOBAL_UNCERTAINTY_ASSIGNED_CONTEXT ( ( #5 ) ) GLOBAL_UNIT_ASSIGNED_CONTEXT ( ( #85, #275, #196 ) ) REPRESENTATION_CONTEXT ( 'NONE', 'WORKASPACE' ) );
#36 = ORIENTED_EDGE ( 'NONE', *, *, #151, .F. ) ;
#37 = UNCERTAINTY_MEASURE_WITH_UNIT (LENGTH_MEASURE( 1.000000000000000082E-05 ), #226, 'distance_accuracy_value', 'NONE');
#38 = CARTESIAN_POINT ( 'NONE',  ( 1.913510623667739463E-17, 0.4374999999999998890, 0.1562500000000000000 ) ) ;
#39 = VERTEX_POINT ( 'NONE', #175 ) ;
#40 = DIRECTION ( 'NONE',  ( 1.000000000000000000, 0.000000000000000000, 0.000000000000000000 ) ) ;
#41 = COLOUR_RGB ( '',1.000000000000000000, 0.000000000000000000, 0.000000000000000000 ) ;
#42 = CARTESIAN_POINT ( 'NONE',  ( 0.1562500000000000000, 2.000000000000000000, 0.000000000000000000 ) ) ;
#43 = EDGE_CURVE ( 'NONE', #192, #247, #309, .T. ) ;
#44 = LINE ( 'NONE', #224, #250 ) ;
#45 =( GEOMETRIC_REPRESENTATION_CONTEXT ( 3 ) GLOBAL_UNCERTAINTY_ASSIGNED_CONTEXT ( ( #54 ) ) GLOBAL_UNIT_ASSIGNED_CONTEXT ( ( #170, #111, #242 ) ) REPRESENTATION_CONTEXT ( 'NONE', 'WORKASPACE' ) );
#46 = PRESENTATION_LAYER_ASSIGNMENT (  '', '', ( #73 ) ) ;
#47 = CARTESIAN_POINT ( 'NONE',  ( 1.224646799147353700E-16, 2.000000000000000000, 0.000000000000000000 ) ) ;
#48 = SURFACE_STYLE_USAGE ( .BOTH. , #258 ) ;
#49 = FILL_AREA_STYLE ('',( #172 ) ) ;
#50 =( GEOMETRIC_REPRESENTATION_CONTEXT ( 3 ) GLOBAL_UNCERTAINTY_ASSIGNED_CONTEXT ( ( #37 ) ) GLOBAL_UNIT_ASSIGNED_CONTEXT ( ( #226, #114, #29 ) ) REPRESENTATION_CONTEXT ( 'NONE', 'WORKASPACE' ) );
#51 = CARTESIAN_POINT ( 'NONE',  ( 1.224646799147353700E-16, 2.000000000000000000, 0.000000000000000000 ) ) ;
#52 = EDGE_LOOP ( 'NONE', ( #112, #91, #98, #184 ) ) ;
#53 =( CONVERSION_BASED_UNIT ( 'INCH', #278 ) LENGTH_UNIT ( ) NAMED_UNIT ( #22 ) );
#54 = UNCERTAINTY_MEASURE_WITH_UNIT (LENGTH_MEASURE( 1.000000000000000082E-05 ), #170, 'distance_accuracy_value', 'NONE');
#55 = EDGE_CURVE ( 'NONE', #39, #197, #244, .T. ) ;
#56 = DIRECTION ( 'NONE',  ( -0.000000000000000000, -1.000000000000000000, -0.000000000000000000 ) ) ;
#57 = PRESENTATION_LAYER_ASSIGNMENT (  '', '', ( #195 ) ) ;
#58 = AXIS2_PLACEMENT_3D ( 'NONE', #81, #108, #223 ) ;
#59 = PRESENTATION_STYLE_ASSIGNMENT (( #269 ) ) ;
#60 = CARTESIAN_POINT ( 'NONE',  ( 4.799231304517948929E-34, 0.4374999999999998890, 0.000000000000000000 ) ) ;
#61 = DIRECTION ( 'NONE',  ( 0.000000000000000000, 0.000000000000000000, -1.000000000000000000 ) ) ;
#62 =( NAMED_UNIT ( * ) SI_UNIT ( $, .STERADIAN. ) SOLID_ANGLE_UNIT ( ) );
#63 = AXIS2_PLACEMENT_3D ( 'NONE', #42, #84, #230 ) ;
#64 = COLOUR_RGB ( '',1.000000000000000000, 0.000000000000000000, 0.000000000000000000 ) ;
#65 = PRESENTATION_STYLE_ASSIGNMENT (( #119 ) ) ;
#66 = DIMENSIONAL_EXPONENTS ( 1.000000000000000000, 0.000000000000000000, 0.000000000000000000, 0.000000000000000000, 0.000000000000000000, 0.000000000000000000, 0.000000000000000000 ) ;
#67 = LENGTH_MEASURE_WITH_UNIT ( LENGTH_MEASURE( 0.02539999999999999897 ), #87 );
#68 = SURFACE_STYLE_FILL_AREA ( #89 ) ;
#69 = SURFACE_STYLE_FILL_AREA ( #279 ) ;
#70 = AXIS2_PLACEMENT_3D ( 'NONE', #227, #272, #40 ) ;
#71 = SURFACE_STYLE_FILL_AREA ( #260 ) ;
#72 = CLOSED_SHELL ( 'NONE', ( #194, #95, #221, #107 ) ) ;
#73 = STYLED_ITEM ( 'NONE', ( #232 ), #204 ) ;
#74 = AXIS2_PLACEMENT_3D ( 'NONE', #243, #83, #61 ) ;
#75 = ORIENTED_EDGE ( 'NONE', *, *, #209, .F. ) ;
#76 = PRESENTATION_STYLE_ASSIGNMENT (( #294 ) ) ;
#77 = SURFACE_SIDE_STYLE ('',( #219 ) ) ;
#78 = VECTOR ( 'NONE', #134, 39.37007874015748143 ) ;
#79 = STYLED_ITEM ( 'NONE', ( #173 ), #280 ) ;
#80 = MANIFOLD_SOLID_BREP ( 'Revolve - Tool Body (Straight Shanked)', #72 ) ;
#81 = CARTESIAN_POINT ( 'NONE',  ( 0.000000000000000000, 0.000000000000000000, 0.000000000000000000 ) ) ;
#82 = FILL_AREA_STYLE ('',( #208 ) ) ;
#83 = DIRECTION ( 'NONE',  ( -0.000000000000000000, -1.000000000000000000, -0.000000000000000000 ) ) ;
#84 = DIRECTION ( 'NONE',  ( -7.837739514543064125E-17, -1.000000000000000000, 0.000000000000000000 ) ) ;
#85 =( CONVERSION_BASED_UNIT ( 'INCH', #183 ) LENGTH_UNIT ( ) NAMED_UNIT ( #163 ) );
#86 = DIRECTION ( 'NONE',  ( -1.000000000000000000, 0.000000000000000000, 0.000000000000000000 ) ) ;
#87 =( LENGTH_UNIT ( ) NAMED_UNIT ( * ) SI_UNIT ( $, .METRE. ) );
#88 = ORIENTED_EDGE ( 'NONE', *, *, #191, .F. ) ;
#89 = FILL_AREA_STYLE ('',( #210 ) ) ;
#90 = CARTESIAN_POINT ( 'NONE',  ( 0.1562500000000000000, 2.000000000000000000, 1.913510623667738847E-17 ) ) ;
#91 = ORIENTED_EDGE ( 'NONE', *, *, #43, .T. ) ;
#92 = CIRCLE ( 'NONE', #116, 0.1562499999999998612 ) ;
#93 = PRESENTATION_LAYER_ASSIGNMENT (  '', '', ( #79 ) ) ;
#94 = DIRECTION ( 'NONE',  ( 0.000000000000000000, -0.000000000000000000, 1.000000000000000000 ) ) ;
#95 = ADVANCED_FACE ( 'NONE', ( #182 ), #101, .F. ) ;
#96 = ORIENTED_EDGE ( 'NONE', *, *, #284, .F. ) ;
#97 = LENGTH_MEASURE_WITH_UNIT ( LENGTH_MEASURE( 0.02539999999999999897 ), #238 );
#98 = ORIENTED_EDGE ( 'NONE', *, *, #284, .T. ) ;
#99 =( NAMED_UNIT ( * ) PLANE_ANGLE_UNIT ( ) SI_UNIT ( $, .RADIAN. ) );
#100 = CARTESIAN_POINT ( 'NONE',  ( 1.913510623667739463E-17, 0.000000000000000000, 0.1562500000000000000 ) ) ;
#101 = PLANE ( 'NONE',  #161 ) ;
#102 = DIRECTION ( 'NONE',  ( 0.000000000000000000, 0.000000000000000000, -1.000000000000000000 ) ) ;
#103 = DIRECTION ( 'NONE',  ( 7.837739514543064125E-17, 1.000000000000000000, -0.000000000000000000 ) ) ;
#104 = STYLED_ITEM ( 'NONE', ( #76 ), #157 ) ;
#105 = DIRECTION ( 'NONE',  ( -1.000000000000000000, 0.000000000000000000, 0.000000000000000000 ) ) ;
#106 = FILL_AREA_STYLE_COLOUR ( '', #26 ) ;
#107 = ADVANCED_FACE ( 'NONE', ( #205 ), #249, .F. ) ;
#108 = DIRECTION ( 'NONE',  ( 0.000000000000000000, -1.000000000000000000, -0.000000000000000000 ) ) ;
#109 = ORIENTED_EDGE ( 'NONE', *, *, #24, .T. ) ;
#110 = PRODUCT_DEFINITION_CONTEXT ( 'detailed design', #130, 'design' ) ;
#111 =( NAMED_UNIT ( * ) PLANE_ANGLE_UNIT ( ) SI_UNIT ( $, .RADIAN. ) );
#112 = ORIENTED_EDGE ( 'NONE', *, *, #135, .F. ) ;
#113 = PRODUCT_DEFINITION_FORMATION_WITH_SPECIFIED_SOURCE ( 'ANY', '', #302, .NOT_KNOWN. ) ;
#114 =( NAMED_UNIT ( * ) PLANE_ANGLE_UNIT ( ) SI_UNIT ( $, .RADIAN. ) );
#115 = CARTESIAN_POINT ( 'NONE',  ( 0.000000000000000000, 0.000000000000000000, -0.1562500000000000000 ) ) ;
#116 = AXIS2_PLACEMENT_3D ( 'NONE', #51, #289, #177 ) ;
#117 = CARTESIAN_POINT ( 'NONE',  ( 1.224646799147353700E-16, 2.000000000000000000, 0.000000000000000000 ) ) ;
#118 = AXIS2_PLACEMENT_3D ( 'NONE', #288, #56, #141 ) ;
#119 = SURFACE_STYLE_USAGE ( .BOTH. , #297 ) ;
#120 = DIMENSIONAL_EXPONENTS ( 1.000000000000000000, 0.000000000000000000, 0.000000000000000000, 0.000000000000000000, 0.000000000000000000, 0.000000000000000000, 0.000000000000000000 ) ;
#121 = FACE_OUTER_BOUND ( 'NONE', #298, .T. ) ;
#122 = PLANE ( 'NONE',  #58 ) ;
#123 = DIRECTION ( 'NONE',  ( -1.000000000000000000, 0.000000000000000000, 0.000000000000000000 ) ) ;
#124 =( LENGTH_UNIT ( ) NAMED_UNIT ( * ) SI_UNIT ( $, .METRE. ) );
#125 = CARTESIAN_POINT ( 'NONE',  ( 0.000000000000000000, 0.4374999999999998890, -0.1562500000000000000 ) ) ;
#126 = CYLINDRICAL_SURFACE ( 'NONE', #292, 0.1562500000000000000 ) ;
#127 = APPLICATION_CONTEXT ( 'automotive_design' ) ;
#128 = SURFACE_SIDE_STYLE ('',( #71 ) ) ;
#129 = ADVANCED_FACE ( 'NONE', ( #228 ), #299, .T. ) ;
#130 = APPLICATION_CONTEXT ( 'automotive_design' ) ;
#131 = ORIENTED_EDGE ( 'NONE', *, *, #191, .T. ) ;
#132 = COLOUR_RGB ( '',1.000000000000000000, 0.000000000000000000, 0.000000000000000000 ) ;
#133 = COLOUR_RGB ( '',0.7921568627450980005, 0.8196078431372548767, 0.9333333333333333481 ) ;
#134 = DIRECTION ( 'NONE',  ( -0.000000000000000000, -1.000000000000000000, -0.000000000000000000 ) ) ;
#135 = EDGE_CURVE ( 'NONE', #192, #138, #241, .T. ) ;
#136 = ORIENTED_EDGE ( 'NONE', *, *, #176, .T. ) ;
#137 = DIRECTION ( 'NONE',  ( -1.000000000000000000, 0.000000000000000000, 0.000000000000000000 ) ) ;
#138 = VERTEX_POINT ( 'NONE', #264 ) ;
#139 = CIRCLE ( 'NONE', #74, 0.1562500000000000000 ) ;
#140 = ORIENTED_EDGE ( 'NONE', *, *, #209, .T. ) ;
#141 = DIRECTION ( 'NONE',  ( 0.000000000000000000, 0.000000000000000000, -1.000000000000000000 ) ) ;
#142 = DIRECTION ( 'NONE',  ( 0.000000000000000000, 0.000000000000000000, -1.000000000000000000 ) ) ;
#143 = EDGE_LOOP ( 'NONE', ( #131, #14, #75, #96 ) ) ;
#144 = PRESENTATION_LAYER_ASSIGNMENT (  '', '', ( #199 ) ) ;
#145 = PRODUCT_RELATED_PRODUCT_CATEGORY ( 'part', '', ( #302 ) ) ;
#146 = ADVANCED_BREP_SHAPE_REPRESENTATION ( '81406', ( #280, #80, #70 ), #50 ) ;
#147 = COLOUR_RGB ( '',1.000000000000000000, 0.000000000000000000, 0.000000000000000000 ) ;
#148 = DIRECTION ( 'NONE',  ( 7.837739514543064125E-17, 1.000000000000000000, -0.000000000000000000 ) ) ;
#149 = SURFACE_STYLE_USAGE ( .BOTH. , #128 ) ;
#150 =( NAMED_UNIT ( * ) SI_UNIT ( $, .STERADIAN. ) SOLID_ANGLE_UNIT ( ) );
#151 = EDGE_CURVE ( 'NONE', #197, #306, #216, .T. ) ;
#152 =( GEOMETRIC_REPRESENTATION_CONTEXT ( 3 ) GLOBAL_UNCERTAINTY_ASSIGNED_CONTEXT ( ( #198 ) ) GLOBAL_UNIT_ASSIGNED_CONTEXT ( ( #23, #215, #150 ) ) REPRESENTATION_CONTEXT ( 'NONE', 'WORKASPACE' ) );
#153 = ORIENTED_EDGE ( 'NONE', *, *, #55, .F. ) ;
#154 = MECHANICAL_DESIGN_GEOMETRIC_PRESENTATION_REPRESENTATION (  '', ( #199 ), #189 ) ;
#155 = CARTESIAN_POINT ( 'NONE',  ( 0.000000000000000000, 0.4374999999999998890, 0.000000000000000000 ) ) ;
#156 = FACE_OUTER_BOUND ( 'NONE', #6, .T. ) ;
#157 = ADVANCED_FACE ( 'NONE', ( #285 ), #122, .T. ) ;
#158 = CARTESIAN_POINT ( 'NONE',  ( 0.000000000000000000, 0.4374999999999998890, 0.000000000000000000 ) ) ;
#159 = DIRECTION ( 'NONE',  ( 7.837739514543064125E-17, 1.000000000000000000, -0.000000000000000000 ) ) ;
#160 = CYLINDRICAL_SURFACE ( 'NONE', #178, 0.1562499999999999445 ) ;
#161 = AXIS2_PLACEMENT_3D ( 'NONE', #60, #211, #252 ) ;
#162 = DIRECTION ( 'NONE',  ( -1.000000000000000000, 0.000000000000000000, 0.000000000000000000 ) ) ;
#163 = DIMENSIONAL_EXPONENTS ( 1.000000000000000000, 0.000000000000000000, 0.000000000000000000, 0.000000000000000000, 0.000000000000000000, 0.000000000000000000, 0.000000000000000000 ) ;
#164 =( LENGTH_UNIT ( ) NAMED_UNIT ( * ) SI_UNIT ( $, .METRE. ) );
#165 = CIRCLE ( 'NONE', #28, 0.1562499999999998612 ) ;
#166 =( NAMED_UNIT ( * ) PLANE_ANGLE_UNIT ( ) SI_UNIT ( $, .RADIAN. ) );
#167 = PRODUCT_DEFINITION_SHAPE ( 'NONE', 'NONE',  #276 ) ;
#168 =( NAMED_UNIT ( * ) SI_UNIT ( $, .STERADIAN. ) SOLID_ANGLE_UNIT ( ) );
#169 =( CONVERSION_BASED_UNIT ( 'INCH', #187 ) LENGTH_UNIT ( ) NAMED_UNIT ( #290 ) );
#170 =( CONVERSION_BASED_UNIT ( 'INCH', #67 ) LENGTH_UNIT ( ) NAMED_UNIT ( #301 ) );
#171 = CLOSED_SHELL ( 'NONE', ( #204, #214, #129, #157 ) ) ;
#172 = FILL_AREA_STYLE_COLOUR ( '', #133 ) ;
#173 = PRESENTATION_STYLE_ASSIGNMENT (( #281 ) ) ;
#174 = CIRCLE ( 'NONE', #225, 0.1562500000000000000 ) ;
#175 = CARTESIAN_POINT ( 'NONE',  ( 0.1562500000000000000, 0.4374999999999998890, 1.913510623667738847E-17 ) ) ;
#176 = EDGE_CURVE ( 'NONE', #197, #39, #1, .T. ) ;
#177 = DIRECTION ( 'NONE',  ( -1.000000000000000000, 0.000000000000000000, 0.000000000000000000 ) ) ;
#178 = AXIS2_PLACEMENT_3D ( 'NONE', #117, #254, #86 ) ;
#179 = UNCERTAINTY_MEASURE_WITH_UNIT (LENGTH_MEASURE( 1.000000000000000082E-05 ), #185, 'distance_accuracy_value', 'NONE');
#180 = DIRECTION ( 'NONE',  ( 7.837739514543064125E-17, 1.000000000000000000, -0.000000000000000000 ) ) ;
#181 = EDGE_CURVE ( 'NONE', #306, #255, #165, .T. ) ;
#182 = FACE_OUTER_BOUND ( 'NONE', #202, .T. ) ;
#183 = LENGTH_MEASURE_WITH_UNIT ( LENGTH_MEASURE( 0.02539999999999999897 ), #164 );
#184 = ORIENTED_EDGE ( 'NONE', *, *, #186, .F. ) ;
#185 =( CONVERSION_BASED_UNIT ( 'INCH', #303 ) LENGTH_UNIT ( ) NAMED_UNIT ( #66 ) );
#186 = EDGE_CURVE ( 'NONE', #138, #188, #139, .T. ) ;
#187 = LENGTH_MEASURE_WITH_UNIT ( LENGTH_MEASURE( 0.02539999999999999897 ), #293 );
#188 = VERTEX_POINT ( 'NONE', #246 ) ;
#189 =( GEOMETRIC_REPRESENTATION_CONTEXT ( 3 ) GLOBAL_UNCERTAINTY_ASSIGNED_CONTEXT ( ( #203 ) ) GLOBAL_UNIT_ASSIGNED_CONTEXT ( ( #169, #18, #235 ) ) REPRESENTATION_CONTEXT ( 'NONE', 'WORKASPACE' ) );
#190 = STYLED_ITEM ( 'NONE', ( #305 ), #214 ) ;
#191 = EDGE_CURVE ( 'NONE', #247, #192, #174, .T. ) ;
#192 = VERTEX_POINT ( 'NONE', #38 ) ;
#193 = SURFACE_SIDE_STYLE ('',( #236 ) ) ;
#194 = ADVANCED_FACE ( 'NONE', ( #220 ), #160, .T. ) ;
#195 = STYLED_ITEM ( 'NONE', ( #65 ), #129 ) ;
#196 =( NAMED_UNIT ( * ) SI_UNIT ( $, .STERADIAN. ) SOLID_ANGLE_UNIT ( ) );
#197 = VERTEX_POINT ( 'NONE', #25 ) ;
#198 = UNCERTAINTY_MEASURE_WITH_UNIT (LENGTH_MEASURE( 1.000000000000000082E-05 ), #23, 'distance_accuracy_value', 'NONE');
#199 = STYLED_ITEM ( 'NONE', ( #59 ), #80 ) ;
#200 = CIRCLE ( 'NONE', #118, 0.1562500000000000000 ) ;
#201 = ORIENTED_EDGE ( 'NONE', *, *, #176, .F. ) ;
#202 = EDGE_LOOP ( 'NONE', ( #201, #153 ) ) ;
#203 = UNCERTAINTY_MEASURE_WITH_UNIT (LENGTH_MEASURE( 1.000000000000000082E-05 ), #169, 'distance_accuracy_value', 'NONE');
#204 = ADVANCED_FACE ( 'NONE', ( #213 ), #126, .T. ) ;
#205 = FACE_OUTER_BOUND ( 'NONE', #17, .T. ) ;
#206 = MECHANICAL_DESIGN_GEOMETRIC_PRESENTATION_REPRESENTATION (  '', ( #104 ), #35 ) ;
#207 = DIRECTION ( 'NONE',  ( 7.837739514543064125E-17, 1.000000000000000000, -0.000000000000000000 ) ) ;
#208 = FILL_AREA_STYLE_COLOUR ( '', #41 ) ;
#209 = EDGE_CURVE ( 'NONE', #188, #138, #200, .T. ) ;
#210 = FILL_AREA_STYLE_COLOUR ( '', #147 ) ;
#211 = DIRECTION ( 'NONE',  ( 7.837739514543064125E-17, 1.000000000000000000, -0.000000000000000000 ) ) ;
#212 = ORIENTED_EDGE ( 'NONE', *, *, #24, .F. ) ;
#213 = FACE_OUTER_BOUND ( 'NONE', #143, .T. ) ;
#214 = ADVANCED_FACE ( 'NONE', ( #156 ), #233, .T. ) ;
#215 =( NAMED_UNIT ( * ) PLANE_ANGLE_UNIT ( ) SI_UNIT ( $, .RADIAN. ) );
#216 = LINE ( 'NONE', #307, #237 ) ;
#217 = AXIS2_PLACEMENT_3D ( 'NONE', #31, #21, #2 ) ;
#218 = DIRECTION ( 'NONE',  ( -0.000000000000000000, -1.000000000000000000, -0.000000000000000000 ) ) ;
#219 = SURFACE_STYLE_FILL_AREA ( #4 ) ;
#220 = FACE_OUTER_BOUND ( 'NONE', #222, .T. ) ;
#221 = ADVANCED_FACE ( 'NONE', ( #121 ), #257, .T. ) ;
#222 = EDGE_LOOP ( 'NONE', ( #136, #12, #308, #36 ) ) ;
#223 = DIRECTION ( 'NONE',  ( 0.000000000000000000, 0.000000000000000000, -1.000000000000000000 ) ) ;
#224 = CARTESIAN_POINT ( 'NONE',  ( 0.1562500000000000833, 2.000000000000000000, 1.913510623667738539E-17 ) ) ;
#225 = AXIS2_PLACEMENT_3D ( 'NONE', #248, #287, #266 ) ;
#226 =( CONVERSION_BASED_UNIT ( 'INCH', #239 ) LENGTH_UNIT ( ) NAMED_UNIT ( #13 ) );
#227 = CARTESIAN_POINT ( 'NONE',  ( 0.000000000000000000, 0.000000000000000000, 0.000000000000000000 ) ) ;
#228 = FACE_OUTER_BOUND ( 'NONE', #52, .T. ) ;
#229 = APPLICATION_PROTOCOL_DEFINITION ( 'draft international standard', 'automotive_design', 1998, #130 ) ;
#230 = DIRECTION ( 'NONE',  ( 1.000000000000000000, -7.837739514543064125E-17, 0.000000000000000000 ) ) ;
#231 =( LENGTH_UNIT ( ) NAMED_UNIT ( * ) SI_UNIT ( $, .METRE. ) );
#232 = PRESENTATION_STYLE_ASSIGNMENT (( #48 ) ) ;
#233 = PLANE ( 'NONE',  #9 ) ;
#234 = AXIS2_PLACEMENT_3D ( 'NONE', #158, #207, #162 ) ;
#235 =( NAMED_UNIT ( * ) SI_UNIT ( $, .STERADIAN. ) SOLID_ANGLE_UNIT ( ) );
#236 = SURFACE_STYLE_FILL_AREA ( #49 ) ;
#237 = VECTOR ( 'NONE', #103, 39.37007874015748143 ) ;
#238 =( LENGTH_UNIT ( ) NAMED_UNIT ( * ) SI_UNIT ( $, .METRE. ) );
#239 = LENGTH_MEASURE_WITH_UNIT ( LENGTH_MEASURE( 0.02539999999999999897 ), #8 );
#240 = ORIENTED_EDGE ( 'NONE', *, *, #43, .F. ) ;
#241 = LINE ( 'NONE', #100, #78 ) ;
#242 =( NAMED_UNIT ( * ) SI_UNIT ( $, .STERADIAN. ) SOLID_ANGLE_UNIT ( ) );
#243 = CARTESIAN_POINT ( 'NONE',  ( 0.000000000000000000, 0.000000000000000000, 0.000000000000000000 ) ) ;
#244 = CIRCLE ( 'NONE', #286, 0.1562500000000000000 ) ;
#245 = MECHANICAL_DESIGN_GEOMETRIC_PRESENTATION_REPRESENTATION (  '', ( #73 ), #270 ) ;
#246 = CARTESIAN_POINT ( 'NONE',  ( 0.000000000000000000, 0.000000000000000000, -0.1562500000000000000 ) ) ;
#247 = VERTEX_POINT ( 'NONE', #125 ) ;
#248 = CARTESIAN_POINT ( 'NONE',  ( 0.000000000000000000, 0.4374999999999998890, 0.000000000000000000 ) ) ;
#249 = PLANE ( 'NONE',  #63 ) ;
#250 = VECTOR ( 'NONE', #16, 39.37007874015748143 ) ;
#251 = PRODUCT_CONTEXT ( 'NONE', #127, 'mechanical' ) ;
#252 = DIRECTION ( 'NONE',  ( -1.000000000000000000, 7.837739514543064125E-17, 0.000000000000000000 ) ) ;
#253 = SHAPE_DEFINITION_REPRESENTATION ( #167, #146 ) ;
#254 = DIRECTION ( 'NONE',  ( 7.837739514543064125E-17, 1.000000000000000000, -0.000000000000000000 ) ) ;
#255 = VERTEX_POINT ( 'NONE', #90 ) ;
#256 = VECTOR ( 'NONE', #30, 39.37007874015748143 ) ;
#257 = CYLINDRICAL_SURFACE ( 'NONE', #19, 0.1562499999999999445 ) ;
#258 = SURFACE_SIDE_STYLE ('',( #68 ) ) ;
#259 = CARTESIAN_POINT ( 'NONE',  ( -0.1562499999999997224, 2.000000000000000000, 0.000000000000000000 ) ) ;
#260 = FILL_AREA_STYLE ('',( #27 ) ) ;
#261 = ORIENTED_EDGE ( 'NONE', *, *, #151, .T. ) ;
#262 = ORIENTED_EDGE ( 'NONE', *, *, #3, .F. ) ;
#263 = ORIENTED_EDGE ( 'NONE', *, *, #186, .T. ) ;
#264 = CARTESIAN_POINT ( 'NONE',  ( 1.913510623667739463E-17, 0.000000000000000000, 0.1562500000000000000 ) ) ;
#265 = MECHANICAL_DESIGN_GEOMETRIC_PRESENTATION_REPRESENTATION (  '', ( #79 ), #268 ) ;
#266 = DIRECTION ( 'NONE',  ( 0.000000000000000000, 0.000000000000000000, -1.000000000000000000 ) ) ;
#267 = MECHANICAL_DESIGN_GEOMETRIC_PRESENTATION_REPRESENTATION (  '', ( #195 ), #45 ) ;
#268 =( GEOMETRIC_REPRESENTATION_CONTEXT ( 3 ) GLOBAL_UNCERTAINTY_ASSIGNED_CONTEXT ( ( #296 ) ) GLOBAL_UNIT_ASSIGNED_CONTEXT ( ( #53, #99, #62 ) ) REPRESENTATION_CONTEXT ( 'NONE', 'WORKASPACE' ) );
#269 = SURFACE_STYLE_USAGE ( .BOTH. , #77 ) ;
#270 =( GEOMETRIC_REPRESENTATION_CONTEXT ( 3 ) GLOBAL_UNCERTAINTY_ASSIGNED_CONTEXT ( ( #179 ) ) GLOBAL_UNIT_ASSIGNED_CONTEXT ( ( #185, #166, #168 ) ) REPRESENTATION_CONTEXT ( 'NONE', 'WORKASPACE' ) );
#271 = APPLICATION_PROTOCOL_DEFINITION ( 'draft international standard', 'automotive_design', 1998, #127 ) ;
#272 = DIRECTION ( 'NONE',  ( 0.000000000000000000, 0.000000000000000000, 1.000000000000000000 ) ) ;
#273 = LINE ( 'NONE', #115, #256 ) ;
#274 = SURFACE_STYLE_FILL_AREA ( #82 ) ;
#275 =( NAMED_UNIT ( * ) PLANE_ANGLE_UNIT ( ) SI_UNIT ( $, .RADIAN. ) );
#276 = PRODUCT_DEFINITION ( 'UNKNOWN', '', #113, #110 ) ;
#277 = MECHANICAL_DESIGN_GEOMETRIC_PRESENTATION_REPRESENTATION (  '', ( #190 ), #152 ) ;
#278 = LENGTH_MEASURE_WITH_UNIT ( LENGTH_MEASURE( 0.02539999999999999897 ), #231 );
#279 = FILL_AREA_STYLE ('',( #300 ) ) ;
#280 = MANIFOLD_SOLID_BREP ( 'Revolve - Cutting Edge', #171 ) ;
#281 = SURFACE_STYLE_USAGE ( .BOTH. , #193 ) ;
#282 = SURFACE_SIDE_STYLE ('',( #69 ) ) ;
#283 = PRESENTATION_LAYER_ASSIGNMENT (  '', '', ( #190 ) ) ;
#284 = EDGE_CURVE ( 'NONE', #247, #188, #273, .T. ) ;
#285 = FACE_OUTER_BOUND ( 'NONE', #34, .T. ) ;
#286 = AXIS2_PLACEMENT_3D ( 'NONE', #11, #159, #137 ) ;
#287 = DIRECTION ( 'NONE',  ( -0.000000000000000000, -1.000000000000000000, -0.000000000000000000 ) ) ;
#288 = CARTESIAN_POINT ( 'NONE',  ( 0.000000000000000000, 0.000000000000000000, 0.000000000000000000 ) ) ;
#289 = DIRECTION ( 'NONE',  ( 7.837739514543064125E-17, 1.000000000000000000, -0.000000000000000000 ) ) ;
#290 = DIMENSIONAL_EXPONENTS ( 1.000000000000000000, 0.000000000000000000, 0.000000000000000000, 0.000000000000000000, 0.000000000000000000, 0.000000000000000000, 0.000000000000000000 ) ;
#291 = AXIS2_PLACEMENT_3D ( 'NONE', #155, #218, #142 ) ;
#292 = AXIS2_PLACEMENT_3D ( 'NONE', #33, #15, #102 ) ;
#293 =( LENGTH_UNIT ( ) NAMED_UNIT ( * ) SI_UNIT ( $, .METRE. ) );
#294 = SURFACE_STYLE_USAGE ( .BOTH. , #282 ) ;
#295 = ORIENTED_EDGE ( 'NONE', *, *, #181, .T. ) ;
#296 = UNCERTAINTY_MEASURE_WITH_UNIT (LENGTH_MEASURE( 1.000000000000000082E-05 ), #53, 'distance_accuracy_value', 'NONE');
#297 = SURFACE_SIDE_STYLE ('',( #274 ) ) ;
#298 = EDGE_LOOP ( 'NONE', ( #262, #32, #261, #212 ) ) ;
#299 = CYLINDRICAL_SURFACE ( 'NONE', #217, 0.1562500000000000000 ) ;
#300 = FILL_AREA_STYLE_COLOUR ( '', #132 ) ;
#301 = DIMENSIONAL_EXPONENTS ( 1.000000000000000000, 0.000000000000000000, 0.000000000000000000, 0.000000000000000000, 0.000000000000000000, 0.000000000000000000, 0.000000000000000000 ) ;
#302 = PRODUCT ( '81406', '81406', '', ( #251 ) ) ;
#303 = LENGTH_MEASURE_WITH_UNIT ( LENGTH_MEASURE( 0.02539999999999999897 ), #124 );
#304 = CARTESIAN_POINT ( 'NONE',  ( 0.000000000000000000, 0.4374999999999998890, 0.000000000000000000 ) ) ;
#305 = PRESENTATION_STYLE_ASSIGNMENT (( #149 ) ) ;
#306 = VERTEX_POINT ( 'NONE', #259 ) ;
#307 = CARTESIAN_POINT ( 'NONE',  ( -0.1562499999999998057, 2.000000000000000000, 0.000000000000000000 ) ) ;
#308 = ORIENTED_EDGE ( 'NONE', *, *, #181, .F. ) ;
#309 = CIRCLE ( 'NONE', #291, 0.1562500000000000000 ) ;
ENDSEC;
END-ISO-10303-21;
