ISO-10303-21;
HEADER;
FILE_DESCRIPTION (( 'STEP AP214' ),
    '1' );
FILE_NAME ('84598.STEP',
    '2023-07-12T13:09:59',
    ( '' ),
    ( '' ),
    'SwSTEP 2.0',
    'SolidWorks 2023',
    '' );
FILE_SCHEMA (( 'AUTOMOTIVE_DESIGN' ));
ENDSEC;

DATA;
#1 =( LENGTH_UNIT ( ) NAMED_UNIT ( * ) SI_UNIT ( $, .METRE. ) );
#2 = ORIENTED_EDGE ( 'NONE', *, *, #95, .T. ) ;
#3 =( NAMED_UNIT ( * ) PLANE_ANGLE_UNIT ( ) SI_UNIT ( $, .RADIAN. ) );
#4 = CARTESIAN_POINT ( 'NONE',  ( 4.217752821868972129E-67, -1.026858415492244453E-34, 0.000000000000000000 ) ) ;
#5 = SURFACE_STYLE_FILL_AREA ( #144 ) ;
#6 = ORIENTED_EDGE ( 'NONE', *, *, #164, .T. ) ;
#7 = DIRECTION ( 'NONE',  ( -1.208217220923066454E-16, 1.000000000000000000, -0.000000000000000000 ) ) ;
#8 = ORIENTED_EDGE ( 'NONE', *, *, #209, .F. ) ;
#9 = DIRECTION ( 'NONE',  ( -1.000000000000000000, 0.000000000000000000, 0.000000000000000000 ) ) ;
#10 = FILL_AREA_STYLE ('',( #197 ) ) ;
#11 = PRESENTATION_LAYER_ASSIGNMENT (  '', '', ( #242 ) ) ;
#12 = AXIS2_PLACEMENT_3D ( 'NONE', #184, #281, #70 ) ;
#13 = CARTESIAN_POINT ( 'NONE',  ( 0.02500000000000000139, 0.000000000000000000, 3.061616997868383172E-18 ) ) ;
#14 = SURFACE_SIDE_STYLE ('',( #176 ) ) ;
#15 =( LENGTH_UNIT ( ) NAMED_UNIT ( * ) SI_UNIT ( $, .METRE. ) );
#16 = CARTESIAN_POINT ( 'NONE',  ( 0.000000000000000000, 0.000000000000000000, 0.000000000000000000 ) ) ;
#17 = DIRECTION ( 'NONE',  ( 1.208217220923066454E-16, -1.000000000000000000, 0.000000000000000000 ) ) ;
#18 = EDGE_LOOP ( 'NONE', ( #131, #234 ) ) ;
#19 = AXIS2_PLACEMENT_3D ( 'NONE', #265, #171, #9 ) ;
#20 = AXIS2_PLACEMENT_3D ( 'NONE', #4, #255, #75 ) ;
#21 =( NAMED_UNIT ( * ) SI_UNIT ( $, .STERADIAN. ) SOLID_ANGLE_UNIT ( ) );
#22 = DIRECTION ( 'NONE',  ( -1.208217220923066454E-16, 1.000000000000000000, -0.000000000000000000 ) ) ;
#23 = AXIS2_PLACEMENT_3D ( 'NONE', #147, #17, #305 ) ;
#24 = UNCERTAINTY_MEASURE_WITH_UNIT (LENGTH_MEASURE( 1.000000000000000082E-05 ), #83, 'distance_accuracy_value', 'NONE');
#25 = DIMENSIONAL_EXPONENTS ( 1.000000000000000000, 0.000000000000000000, 0.000000000000000000, 0.000000000000000000, 0.000000000000000000, 0.000000000000000000, 0.000000000000000000 ) ;
#26 = CIRCLE ( 'NONE', #73, 0.02500000000000000139 ) ;
#27 = SURFACE_SIDE_STYLE ('',( #5 ) ) ;
#28 = PRESENTATION_LAYER_ASSIGNMENT (  '', '', ( #66 ) ) ;
#29 = ORIENTED_EDGE ( 'NONE', *, *, #194, .F. ) ;
#30 = DIMENSIONAL_EXPONENTS ( 1.000000000000000000, 0.000000000000000000, 0.000000000000000000, 0.000000000000000000, 0.000000000000000000, 0.000000000000000000, 0.000000000000000000 ) ;
#31 =( NAMED_UNIT ( * ) PLANE_ANGLE_UNIT ( ) SI_UNIT ( $, .RADIAN. ) );
#32 = EDGE_LOOP ( 'NONE', ( #259, #77, #273, #227 ) ) ;
#33 =( CONVERSION_BASED_UNIT ( 'INCH', #99 ) LENGTH_UNIT ( ) NAMED_UNIT ( #210 ) );
#34 = AXIS2_PLACEMENT_3D ( 'NONE', #59, #173, #262 ) ;
#35 = AXIS2_PLACEMENT_3D ( 'NONE', #113, #225, #268 ) ;
#36 = AXIS2_PLACEMENT_3D ( 'NONE', #159, #230, #94 ) ;
#37 = EDGE_CURVE ( 'NONE', #220, #238, #303, .T. ) ;
#38 = CYLINDRICAL_SURFACE ( 'NONE', #19, 0.09374999999999994449 ) ;
#39 =( NAMED_UNIT ( * ) PLANE_ANGLE_UNIT ( ) SI_UNIT ( $, .RADIAN. ) );
#40 = CARTESIAN_POINT ( 'NONE',  ( -0.09375000000000001388, 2.000000000000000000, 0.000000000000000000 ) ) ;
#41 = STYLED_ITEM ( 'NONE', ( #156 ), #202 ) ;
#42 =( NAMED_UNIT ( * ) PLANE_ANGLE_UNIT ( ) SI_UNIT ( $, .RADIAN. ) );
#43 = CARTESIAN_POINT ( 'NONE',  ( 0.02500000000000000139, 0.000000000000000000, 7.271340369937408974E-18 ) ) ;
#44 =( NAMED_UNIT ( * ) SI_UNIT ( $, .STERADIAN. ) SOLID_ANGLE_UNIT ( ) );
#45 = VERTEX_POINT ( 'NONE', #148 ) ;
#46 =( GEOMETRIC_REPRESENTATION_CONTEXT ( 3 ) GLOBAL_UNCERTAINTY_ASSIGNED_CONTEXT ( ( #254 ) ) GLOBAL_UNIT_ASSIGNED_CONTEXT ( ( #226, #42, #223 ) ) REPRESENTATION_CONTEXT ( 'NONE', 'WORKASPACE' ) );
#47 = PLANE ( 'NONE',  #136 ) ;
#48 = PLANE ( 'NONE',  #36 ) ;
#49 = DIRECTION ( 'NONE',  ( 4.107433661968977470E-33, -1.000000000000000000, -0.000000000000000000 ) ) ;
#50 = SURFACE_STYLE_USAGE ( .BOTH. , #67 ) ;
#51 =( NAMED_UNIT ( * ) SI_UNIT ( $, .STERADIAN. ) SOLID_ANGLE_UNIT ( ) );
#52 = FILL_AREA_STYLE_COLOUR ( '', #180 ) ;
#53 = AXIS2_PLACEMENT_3D ( 'NONE', #110, #272, #221 ) ;
#54 = COLOUR_RGB ( '',1.000000000000000000, 0.000000000000000000, 0.000000000000000000 ) ;
#55 = MECHANICAL_DESIGN_GEOMETRIC_PRESENTATION_REPRESENTATION (  '', ( #66 ), #109 ) ;
#56 = CIRCLE ( 'NONE', #135, 0.02500000000000000139 ) ;
#57 = MECHANICAL_DESIGN_GEOMETRIC_PRESENTATION_REPRESENTATION (  '', ( #263 ), #89 ) ;
#58 = DIRECTION ( 'NONE',  ( -1.208217220923066454E-16, 1.000000000000000000, -0.000000000000000000 ) ) ;
#59 = CARTESIAN_POINT ( 'NONE',  ( 1.734411286840929472E-16, 0.05768809964343776797, 0.000000000000000000 ) ) ;
#60 = DIRECTION ( 'NONE',  ( -1.000000000000000000, 0.000000000000000000, 0.000000000000000000 ) ) ;
#61 = CLOSED_SHELL ( 'NONE', ( #202, #241, #283, #299 ) ) ;
#62 = PRODUCT_DEFINITION_FORMATION_WITH_SPECIFIED_SOURCE ( 'ANY', '', #179, .NOT_KNOWN. ) ;
#63 = PRODUCT_CONTEXT ( 'NONE', #218, 'mechanical' ) ;
#64 = SURFACE_STYLE_USAGE ( .BOTH. , #14 ) ;
#65 = FILL_AREA_STYLE ('',( #92 ) ) ;
#66 = STYLED_ITEM ( 'NONE', ( #288 ), #277 ) ;
#67 = SURFACE_SIDE_STYLE ('',( #245 ) ) ;
#68 = CARTESIAN_POINT ( 'NONE',  ( 1.734411286840929226E-16, 0.05768809964343782348, 0.000000000000000000 ) ) ;
#69 = MANIFOLD_SOLID_BREP ( 'Revolve - Tool Body (Tipped Off)', #186 ) ;
#70 = DIRECTION ( 'NONE',  ( -1.000000000000000000, 0.000000000000000000, 0.000000000000000000 ) ) ;
#71 = SURFACE_STYLE_USAGE ( .BOTH. , #232 ) ;
#72 = VECTOR ( 'NONE', #149, 39.37007874015748143 ) ;
#73 = AXIS2_PLACEMENT_3D ( 'NONE', #219, #203, #108 ) ;
#74 = CIRCLE ( 'NONE', #297, 0.09374999999999981959 ) ;
#75 = DIRECTION ( 'NONE',  ( -1.000000000000000000, -4.107433661968977470E-33, 0.000000000000000000 ) ) ;
#76 = FILL_AREA_STYLE ('',( #163 ) ) ;
#77 = ORIENTED_EDGE ( 'NONE', *, *, #190, .F. ) ;
#78 = ADVANCED_FACE ( 'NONE', ( #87 ), #90, .F. ) ;
#79 = FILL_AREA_STYLE_COLOUR ( '', #280 ) ;
#80 = UNCERTAINTY_MEASURE_WITH_UNIT (LENGTH_MEASURE( 1.000000000000000082E-05 ), #258, 'distance_accuracy_value', 'NONE');
#81 =( NAMED_UNIT ( * ) SI_UNIT ( $, .STERADIAN. ) SOLID_ANGLE_UNIT ( ) );
#82 = DIRECTION ( 'NONE',  ( -1.208217220923066454E-16, 1.000000000000000000, -0.000000000000000000 ) ) ;
#83 =( CONVERSION_BASED_UNIT ( 'INCH', #295 ) LENGTH_UNIT ( ) NAMED_UNIT ( #183 ) );
#84 = AXIS2_PLACEMENT_3D ( 'NONE', #16, #271, #300 ) ;
#85 = DIRECTION ( 'NONE',  ( 0.7660444431189792347, 0.6427876096865379196, 9.381338752702745572E-17 ) ) ;
#86 = PRODUCT_RELATED_PRODUCT_CATEGORY ( 'part', '', ( #179 ) ) ;
#87 = FACE_OUTER_BOUND ( 'NONE', #18, .T. ) ;
#88 = ORIENTED_EDGE ( 'NONE', *, *, #95, .F. ) ;
#89 =( GEOMETRIC_REPRESENTATION_CONTEXT ( 3 ) GLOBAL_UNCERTAINTY_ASSIGNED_CONTEXT ( ( #165 ) ) GLOBAL_UNIT_ASSIGNED_CONTEXT ( ( #195, #3, #51 ) ) REPRESENTATION_CONTEXT ( 'NONE', 'WORKASPACE' ) );
#90 = PLANE ( 'NONE',  #23 ) ;
#91 = ADVANCED_FACE ( 'NONE', ( #294 ), #264, .F. ) ;
#92 = FILL_AREA_STYLE_COLOUR ( '', #114 ) ;
#93 = PRESENTATION_LAYER_ASSIGNMENT (  '', '', ( #263 ) ) ;
#94 = DIRECTION ( 'NONE',  ( -1.000000000000000000, -4.107433661968977470E-33, 0.000000000000000000 ) ) ;
#95 = EDGE_CURVE ( 'NONE', #172, #238, #126, .T. ) ;
#96 = FACE_OUTER_BOUND ( 'NONE', #127, .T. ) ;
#97 = UNCERTAINTY_MEASURE_WITH_UNIT (LENGTH_MEASURE( 1.000000000000000082E-05 ), #308, 'distance_accuracy_value', 'NONE');
#98 =( GEOMETRIC_REPRESENTATION_CONTEXT ( 3 ) GLOBAL_UNCERTAINTY_ASSIGNED_CONTEXT ( ( #24 ) ) GLOBAL_UNIT_ASSIGNED_CONTEXT ( ( #83, #39, #44 ) ) REPRESENTATION_CONTEXT ( 'NONE', 'WORKASPACE' ) );
#99 = LENGTH_MEASURE_WITH_UNIT ( LENGTH_MEASURE( 0.02539999999999999897 ), #189 );
#100 = EDGE_LOOP ( 'NONE', ( #134, #217 ) ) ;
#101 = CARTESIAN_POINT ( 'NONE',  ( 0.09374999999999998612, 0.05768809964343783042, 1.148106374200643555E-17 ) ) ;
#102 =( GEOMETRIC_REPRESENTATION_CONTEXT ( 3 ) GLOBAL_UNCERTAINTY_ASSIGNED_CONTEXT ( ( #193 ) ) GLOBAL_UNIT_ASSIGNED_CONTEXT ( ( #117, #231, #21 ) ) REPRESENTATION_CONTEXT ( 'NONE', 'WORKASPACE' ) );
#103 = ORIENTED_EDGE ( 'NONE', *, *, #142, .F. ) ;
#104 = LENGTH_MEASURE_WITH_UNIT ( LENGTH_MEASURE( 0.02539999999999999897 ), #260 );
#105 = EDGE_LOOP ( 'NONE', ( #8, #200, #2, #240 ) ) ;
#106 = CARTESIAN_POINT ( 'NONE',  ( -0.09374999999999965306, 0.05768809964343781654, 0.000000000000000000 ) ) ;
#107 = EDGE_LOOP ( 'NONE', ( #121, #29 ) ) ;
#108 = DIRECTION ( 'NONE',  ( 1.000000000000000000, 4.107433661968977470E-33, 0.000000000000000000 ) ) ;
#109 =( GEOMETRIC_REPRESENTATION_CONTEXT ( 3 ) GLOBAL_UNCERTAINTY_ASSIGNED_CONTEXT ( ( #182 ) ) GLOBAL_UNIT_ASSIGNED_CONTEXT ( ( #33, #31, #146 ) ) REPRESENTATION_CONTEXT ( 'NONE', 'WORKASPACE' ) );
#110 = CARTESIAN_POINT ( 'NONE',  ( -2.369500423704768587E-34, 0.05768809964343777491, 0.000000000000000000 ) ) ;
#111 = LENGTH_MEASURE_WITH_UNIT ( LENGTH_MEASURE( 0.02539999999999999897 ), #15 );
#112 = CARTESIAN_POINT ( 'NONE',  ( 4.217752821868972129E-67, -1.026858415492244453E-34, 0.000000000000000000 ) ) ;
#113 = CARTESIAN_POINT ( 'NONE',  ( -6.123233995736763571E-17, 2.000000000000000000, 0.000000000000000000 ) ) ;
#114 = COLOUR_RGB ( '',1.000000000000000000, 0.000000000000000000, 0.000000000000000000 ) ;
#115 = DIRECTION ( 'NONE',  ( -4.107433661968977470E-33, 1.000000000000000000, 0.000000000000000000 ) ) ;
#116 = EDGE_CURVE ( 'NONE', #292, #244, #196, .T. ) ;
#117 =( CONVERSION_BASED_UNIT ( 'INCH', #178 ) LENGTH_UNIT ( ) NAMED_UNIT ( #251 ) );
#118 = EDGE_CURVE ( 'NONE', #238, #220, #212, .T. ) ;
#119 =( LENGTH_UNIT ( ) NAMED_UNIT ( * ) SI_UNIT ( $, .METRE. ) );
#120 = ORIENTED_EDGE ( 'NONE', *, *, #250, .F. ) ;
#121 = ORIENTED_EDGE ( 'NONE', *, *, #154, .F. ) ;
#122 = ORIENTED_EDGE ( 'NONE', *, *, #209, .T. ) ;
#123 =( NAMED_UNIT ( * ) PLANE_ANGLE_UNIT ( ) SI_UNIT ( $, .RADIAN. ) );
#124 = ORIENTED_EDGE ( 'NONE', *, *, #162, .F. ) ;
#125 = COLOUR_RGB ( '',1.000000000000000000, 0.000000000000000000, 0.000000000000000000 ) ;
#126 = LINE ( 'NONE', #40, #175 ) ;
#127 = EDGE_LOOP ( 'NONE', ( #143, #122, #166, #88 ) ) ;
#128 = DIRECTION ( 'NONE',  ( -1.000000000000000000, -9.106159978880894651E-17, 0.000000000000000000 ) ) ;
#129 = CARTESIAN_POINT ( 'NONE',  ( 4.217752821868972129E-67, -1.026858415492244453E-34, 0.000000000000000000 ) ) ;
#130 = ADVANCED_FACE ( 'NONE', ( #199 ), #38, .T. ) ;
#131 = ORIENTED_EDGE ( 'NONE', *, *, #118, .T. ) ;
#132 = AXIS2_PLACEMENT_3D ( 'NONE', #112, #115, #279 ) ;
#133 = CARTESIAN_POINT ( 'NONE',  ( -2.369500423704768587E-34, 0.05768809964343777491, 0.000000000000000000 ) ) ;
#134 = ORIENTED_EDGE ( 'NONE', *, *, #190, .T. ) ;
#135 = AXIS2_PLACEMENT_3D ( 'NONE', #129, #239, #216 ) ;
#136 = AXIS2_PLACEMENT_3D ( 'NONE', #304, #49, #301 ) ;
#137 = APPLICATION_PROTOCOL_DEFINITION ( 'draft international standard', 'automotive_design', 1998, #218 ) ;
#138 = SURFACE_SIDE_STYLE ('',( #247 ) ) ;
#139 =( LENGTH_UNIT ( ) NAMED_UNIT ( * ) SI_UNIT ( $, .METRE. ) );
#140 = CARTESIAN_POINT ( 'NONE',  ( -0.09374999999999998612, 0.05768809964343777491, 0.000000000000000000 ) ) ;
#141 = FILL_AREA_STYLE ('',( #52 ) ) ;
#142 = EDGE_CURVE ( 'NONE', #174, #292, #56, .T. ) ;
#143 = ORIENTED_EDGE ( 'NONE', *, *, #250, .T. ) ;
#144 = FILL_AREA_STYLE ('',( #79 ) ) ;
#145 = LENGTH_MEASURE_WITH_UNIT ( LENGTH_MEASURE( 0.02539999999999999897 ), #119 );
#146 =( NAMED_UNIT ( * ) SI_UNIT ( $, .STERADIAN. ) SOLID_ANGLE_UNIT ( ) );
#147 = CARTESIAN_POINT ( 'NONE',  ( 0.09374999999999998612, 2.000000000000000000, 0.000000000000000000 ) ) ;
#148 = CARTESIAN_POINT ( 'NONE',  ( 0.09374999999999998612, 0.05768809964343777491, 1.148106374200643401E-17 ) ) ;
#149 = DIRECTION ( 'NONE',  ( -0.7660444431189792347, 0.6427876096865379196, 0.000000000000000000 ) ) ;
#150 = CARTESIAN_POINT ( 'NONE',  ( 1.734411286840929226E-16, 0.05768809964343782348, 0.000000000000000000 ) ) ;
#151 = PRESENTATION_LAYER_ASSIGNMENT (  '', '', ( #170 ) ) ;
#152 = LINE ( 'NONE', #13, #246 ) ;
#153 = PRESENTATION_STYLE_ASSIGNMENT (( #64 ) ) ;
#154 = EDGE_CURVE ( 'NONE', #244, #45, #296, .T. ) ;
#155 = APPLICATION_PROTOCOL_DEFINITION ( 'draft international standard', 'automotive_design', 1998, #222 ) ;
#156 = PRESENTATION_STYLE_ASSIGNMENT (( #50 ) ) ;
#157 = ADVANCED_BREP_SHAPE_REPRESENTATION ( '84598', ( #277, #69, #84 ), #46 ) ;
#158 = CARTESIAN_POINT ( 'NONE',  ( -0.09375000000000012490, 2.000000000000000000, 0.000000000000000000 ) ) ;
#159 = CARTESIAN_POINT ( 'NONE',  ( -2.369500423704768587E-34, 0.05768809964343777491, 0.000000000000000000 ) ) ;
#160 = AXIS2_PLACEMENT_3D ( 'NONE', #150, #7, #128 ) ;
#161 = CONICAL_SURFACE ( 'NONE', #132, 0.02500000000000000139, 0.8726646259971666542 ) ;
#162 = EDGE_CURVE ( 'NONE', #287, #172, #169, .T. ) ;
#163 = FILL_AREA_STYLE_COLOUR ( '', #54 ) ;
#164 = EDGE_CURVE ( 'NONE', #174, #45, #152, .T. ) ;
#165 = UNCERTAINTY_MEASURE_WITH_UNIT (LENGTH_MEASURE( 1.000000000000000082E-05 ), #195, 'distance_accuracy_value', 'NONE');
#166 = ORIENTED_EDGE ( 'NONE', *, *, #118, .F. ) ;
#167 = PRESENTATION_STYLE_ASSIGNMENT (( #188 ) ) ;
#168 =( LENGTH_UNIT ( ) NAMED_UNIT ( * ) SI_UNIT ( $, .METRE. ) );
#169 = CIRCLE ( 'NONE', #160, 0.09374999999999981959 ) ;
#170 = STYLED_ITEM ( 'NONE', ( #167 ), #283 ) ;
#171 = DIRECTION ( 'NONE',  ( -1.208217220923066454E-16, 1.000000000000000000, -0.000000000000000000 ) ) ;
#172 = VERTEX_POINT ( 'NONE', #106 ) ;
#173 = DIRECTION ( 'NONE',  ( -1.208217220923066454E-16, 1.000000000000000000, 0.000000000000000000 ) ) ;
#174 = VERTEX_POINT ( 'NONE', #43 ) ;
#175 = VECTOR ( 'NONE', #58, 39.37007874015748143 ) ;
#176 = SURFACE_STYLE_FILL_AREA ( #10 ) ;
#177 = SURFACE_STYLE_USAGE ( .BOTH. , #138 ) ;
#178 = LENGTH_MEASURE_WITH_UNIT ( LENGTH_MEASURE( 0.02539999999999999897 ), #139 );
#179 = PRODUCT ( '84598', '84598', '', ( #63 ) ) ;
#180 = COLOUR_RGB ( '',0.7921568627450980005, 0.8196078431372548767, 0.9333333333333333481 ) ;
#181 = CYLINDRICAL_SURFACE ( 'NONE', #12, 0.09374999999999994449 ) ;
#182 = UNCERTAINTY_MEASURE_WITH_UNIT (LENGTH_MEASURE( 1.000000000000000082E-05 ), #33, 'distance_accuracy_value', 'NONE');
#183 = DIMENSIONAL_EXPONENTS ( 1.000000000000000000, 0.000000000000000000, 0.000000000000000000, 0.000000000000000000, 0.000000000000000000, 0.000000000000000000, 0.000000000000000000 ) ;
#184 = CARTESIAN_POINT ( 'NONE',  ( -6.123233995736763571E-17, 2.000000000000000000, 0.000000000000000000 ) ) ;
#185 = PRESENTATION_STYLE_ASSIGNMENT (( #177 ) ) ;
#186 = CLOSED_SHELL ( 'NONE', ( #253, #91, #130, #78 ) ) ;
#187 = PRESENTATION_LAYER_ASSIGNMENT (  '', '', ( #41 ) ) ;
#188 = SURFACE_STYLE_USAGE ( .BOTH. , #215 ) ;
#189 =( LENGTH_UNIT ( ) NAMED_UNIT ( * ) SI_UNIT ( $, .METRE. ) );
#190 = EDGE_CURVE ( 'NONE', #292, #174, #26, .T. ) ;
#191 = AXIS2_PLACEMENT_3D ( 'NONE', #267, #82, #60 ) ;
#192 = CARTESIAN_POINT ( 'NONE',  ( -0.02500000000000000139, -2.053716830984488906E-34, 0.000000000000000000 ) ) ;
#193 = UNCERTAINTY_MEASURE_WITH_UNIT (LENGTH_MEASURE( 1.000000000000000082E-05 ), #117, 'distance_accuracy_value', 'NONE');
#194 = EDGE_CURVE ( 'NONE', #45, #244, #248, .T. ) ;
#195 =( CONVERSION_BASED_UNIT ( 'INCH', #104 ) LENGTH_UNIT ( ) NAMED_UNIT ( #206 ) );
#196 = LINE ( 'NONE', #237, #72 ) ;
#197 = FILL_AREA_STYLE_COLOUR ( '', #278 ) ;
#198 =( GEOMETRIC_REPRESENTATION_CONTEXT ( 3 ) GLOBAL_UNCERTAINTY_ASSIGNED_CONTEXT ( ( #97 ) ) GLOBAL_UNIT_ASSIGNED_CONTEXT ( ( #308, #228, #275 ) ) REPRESENTATION_CONTEXT ( 'NONE', 'WORKASPACE' ) );
#199 = FACE_OUTER_BOUND ( 'NONE', #105, .T. ) ;
#200 = ORIENTED_EDGE ( 'NONE', *, *, #162, .T. ) ;
#201 = FACE_OUTER_BOUND ( 'NONE', #211, .T. ) ;
#202 = ADVANCED_FACE ( 'NONE', ( #201 ), #161, .T. ) ;
#203 = DIRECTION ( 'NONE',  ( 4.107433661968977470E-33, -1.000000000000000000, -0.000000000000000000 ) ) ;
#204 = MECHANICAL_DESIGN_GEOMETRIC_PRESENTATION_REPRESENTATION (  '', ( #235 ), #198 ) ;
#205 = LINE ( 'NONE', #229, #270 ) ;
#206 = DIMENSIONAL_EXPONENTS ( 1.000000000000000000, 0.000000000000000000, 0.000000000000000000, 0.000000000000000000, 0.000000000000000000, 0.000000000000000000, 0.000000000000000000 ) ;
#207 = LENGTH_MEASURE_WITH_UNIT ( LENGTH_MEASURE( 0.02539999999999999897 ), #1 );
#208 = DIRECTION ( 'NONE',  ( -1.208217220923066454E-16, 1.000000000000000000, -0.000000000000000000 ) ) ;
#209 = EDGE_CURVE ( 'NONE', #287, #220, #205, .T. ) ;
#210 = DIMENSIONAL_EXPONENTS ( 1.000000000000000000, 0.000000000000000000, 0.000000000000000000, 0.000000000000000000, 0.000000000000000000, 0.000000000000000000, 0.000000000000000000 ) ;
#211 = EDGE_LOOP ( 'NONE', ( #103, #6, #266, #293 ) ) ;
#212 = CIRCLE ( 'NONE', #191, 0.09375000000000005551 ) ;
#213 = EDGE_LOOP ( 'NONE', ( #120, #124 ) ) ;
#214 = MECHANICAL_DESIGN_GEOMETRIC_PRESENTATION_REPRESENTATION (  '', ( #170 ), #236 ) ;
#215 = SURFACE_SIDE_STYLE ('',( #285 ) ) ;
#216 = DIRECTION ( 'NONE',  ( 1.000000000000000000, 4.107433661968977470E-33, 0.000000000000000000 ) ) ;
#217 = ORIENTED_EDGE ( 'NONE', *, *, #142, .T. ) ;
#218 = APPLICATION_CONTEXT ( 'automotive_design' ) ;
#219 = CARTESIAN_POINT ( 'NONE',  ( 4.217752821868972129E-67, -1.026858415492244453E-34, 0.000000000000000000 ) ) ;
#220 = VERTEX_POINT ( 'NONE', #274 ) ;
#221 = DIRECTION ( 'NONE',  ( 1.000000000000000000, 0.000000000000000000, 0.000000000000000000 ) ) ;
#222 = APPLICATION_CONTEXT ( 'automotive_design' ) ;
#223 =( NAMED_UNIT ( * ) SI_UNIT ( $, .STERADIAN. ) SOLID_ANGLE_UNIT ( ) );
#224 = DIRECTION ( 'NONE',  ( 4.107433661968977470E-33, -1.000000000000000000, -0.000000000000000000 ) ) ;
#225 = DIRECTION ( 'NONE',  ( -1.208217220923066454E-16, 1.000000000000000000, -0.000000000000000000 ) ) ;
#226 =( CONVERSION_BASED_UNIT ( 'INCH', #111 ) LENGTH_UNIT ( ) NAMED_UNIT ( #25 ) );
#227 = ORIENTED_EDGE ( 'NONE', *, *, #154, .T. ) ;
#228 =( NAMED_UNIT ( * ) PLANE_ANGLE_UNIT ( ) SI_UNIT ( $, .RADIAN. ) );
#229 = CARTESIAN_POINT ( 'NONE',  ( 0.09374999999999987510, 2.000000000000000000, 1.148106374200642938E-17 ) ) ;
#230 = DIRECTION ( 'NONE',  ( -4.107433661968977470E-33, 1.000000000000000000, 0.000000000000000000 ) ) ;
#231 =( NAMED_UNIT ( * ) PLANE_ANGLE_UNIT ( ) SI_UNIT ( $, .RADIAN. ) );
#232 = SURFACE_SIDE_STYLE ('',( #282 ) ) ;
#233 = PRESENTATION_STYLE_ASSIGNMENT (( #256 ) ) ;
#234 = ORIENTED_EDGE ( 'NONE', *, *, #37, .T. ) ;
#235 = STYLED_ITEM ( 'NONE', ( #185 ), #241 ) ;
#236 =( GEOMETRIC_REPRESENTATION_CONTEXT ( 3 ) GLOBAL_UNCERTAINTY_ASSIGNED_CONTEXT ( ( #80 ) ) GLOBAL_UNIT_ASSIGNED_CONTEXT ( ( #258, #123, #81 ) ) REPRESENTATION_CONTEXT ( 'NONE', 'WORKASPACE' ) );
#237 = CARTESIAN_POINT ( 'NONE',  ( -0.02500000000000000139, -2.053716830984488906E-34, 0.000000000000000000 ) ) ;
#238 = VERTEX_POINT ( 'NONE', #158 ) ;
#239 = DIRECTION ( 'NONE',  ( 4.107433661968977470E-33, -1.000000000000000000, -0.000000000000000000 ) ) ;
#240 = ORIENTED_EDGE ( 'NONE', *, *, #37, .F. ) ;
#241 = ADVANCED_FACE ( 'NONE', ( #307 ), #48, .T. ) ;
#242 = STYLED_ITEM ( 'NONE', ( #153 ), #69 ) ;
#243 = SHAPE_DEFINITION_REPRESENTATION ( #276, #157 ) ;
#244 = VERTEX_POINT ( 'NONE', #140 ) ;
#245 = SURFACE_STYLE_FILL_AREA ( #306 ) ;
#246 = VECTOR ( 'NONE', #85, 39.37007874015748143 ) ;
#247 = SURFACE_STYLE_FILL_AREA ( #65 ) ;
#248 = CIRCLE ( 'NONE', #257, 0.09374999999999998612 ) ;
#249 = DIMENSIONAL_EXPONENTS ( 1.000000000000000000, 0.000000000000000000, 0.000000000000000000, 0.000000000000000000, 0.000000000000000000, 0.000000000000000000, 0.000000000000000000 ) ;
#250 = EDGE_CURVE ( 'NONE', #172, #287, #74, .T. ) ;
#251 = DIMENSIONAL_EXPONENTS ( 1.000000000000000000, 0.000000000000000000, 0.000000000000000000, 0.000000000000000000, 0.000000000000000000, 0.000000000000000000, 0.000000000000000000 ) ;
#252 = MECHANICAL_DESIGN_GEOMETRIC_PRESENTATION_REPRESENTATION (  '', ( #41 ), #102 ) ;
#253 = ADVANCED_FACE ( 'NONE', ( #96 ), #181, .T. ) ;
#254 = UNCERTAINTY_MEASURE_WITH_UNIT (LENGTH_MEASURE( 1.000000000000000082E-05 ), #226, 'distance_accuracy_value', 'NONE');
#255 = DIRECTION ( 'NONE',  ( -4.107433661968977470E-33, 1.000000000000000000, 0.000000000000000000 ) ) ;
#256 = SURFACE_STYLE_USAGE ( .BOTH. , #27 ) ;
#257 = AXIS2_PLACEMENT_3D ( 'NONE', #133, #224, #298 ) ;
#258 =( CONVERSION_BASED_UNIT ( 'INCH', #145 ) LENGTH_UNIT ( ) NAMED_UNIT ( #30 ) );
#259 = ORIENTED_EDGE ( 'NONE', *, *, #164, .F. ) ;
#260 =( LENGTH_UNIT ( ) NAMED_UNIT ( * ) SI_UNIT ( $, .METRE. ) );
#261 = PRODUCT_DEFINITION_CONTEXT ( 'detailed design', #222, 'design' ) ;
#262 = DIRECTION ( 'NONE',  ( -1.000000000000000000, -1.208217220923066454E-16, 0.000000000000000000 ) ) ;
#263 = STYLED_ITEM ( 'NONE', ( #233 ), #299 ) ;
#264 = PLANE ( 'NONE',  #34 ) ;
#265 = CARTESIAN_POINT ( 'NONE',  ( -6.123233995736763571E-17, 2.000000000000000000, 0.000000000000000000 ) ) ;
#266 = ORIENTED_EDGE ( 'NONE', *, *, #194, .T. ) ;
#267 = CARTESIAN_POINT ( 'NONE',  ( -6.123233995736763571E-17, 2.000000000000000000, 0.000000000000000000 ) ) ;
#268 = DIRECTION ( 'NONE',  ( -1.000000000000000000, 0.000000000000000000, 0.000000000000000000 ) ) ;
#269 = MECHANICAL_DESIGN_GEOMETRIC_PRESENTATION_REPRESENTATION (  '', ( #242 ), #98 ) ;
#270 = VECTOR ( 'NONE', #22, 39.37007874015748143 ) ;
#271 = DIRECTION ( 'NONE',  ( 0.000000000000000000, 0.000000000000000000, 1.000000000000000000 ) ) ;
#272 = DIRECTION ( 'NONE',  ( 4.107433661968977470E-33, -1.000000000000000000, -0.000000000000000000 ) ) ;
#273 = ORIENTED_EDGE ( 'NONE', *, *, #116, .T. ) ;
#274 = CARTESIAN_POINT ( 'NONE',  ( 0.09374999999999998612, 2.000000000000000000, 1.148106374200643555E-17 ) ) ;
#275 =( NAMED_UNIT ( * ) SI_UNIT ( $, .STERADIAN. ) SOLID_ANGLE_UNIT ( ) );
#276 = PRODUCT_DEFINITION_SHAPE ( 'NONE', 'NONE',  #290 ) ;
#277 = MANIFOLD_SOLID_BREP ( 'Revolve - Cutting Edge', #61 ) ;
#278 = COLOUR_RGB ( '',0.7921568627450980005, 0.8196078431372548767, 0.9333333333333333481 ) ;
#279 = DIRECTION ( 'NONE',  ( -1.000000000000000000, -4.107433661968977470E-33, 0.000000000000000000 ) ) ;
#280 = COLOUR_RGB ( '',1.000000000000000000, 0.000000000000000000, 0.000000000000000000 ) ;
#281 = DIRECTION ( 'NONE',  ( -1.208217220923066454E-16, 1.000000000000000000, -0.000000000000000000 ) ) ;
#282 = SURFACE_STYLE_FILL_AREA ( #141 ) ;
#283 = ADVANCED_FACE ( 'NONE', ( #286 ), #289, .T. ) ;
#284 = PRESENTATION_LAYER_ASSIGNMENT (  '', '', ( #235 ) ) ;
#285 = SURFACE_STYLE_FILL_AREA ( #76 ) ;
#286 = FACE_OUTER_BOUND ( 'NONE', #32, .T. ) ;
#287 = VERTEX_POINT ( 'NONE', #101 ) ;
#288 = PRESENTATION_STYLE_ASSIGNMENT (( #71 ) ) ;
#289 = CONICAL_SURFACE ( 'NONE', #20, 0.02500000000000000139, 0.8726646259971666542 ) ;
#290 = PRODUCT_DEFINITION ( 'UNKNOWN', '', #62, #261 ) ;
#291 = FACE_OUTER_BOUND ( 'NONE', #100, .T. ) ;
#292 = VERTEX_POINT ( 'NONE', #192 ) ;
#293 = ORIENTED_EDGE ( 'NONE', *, *, #116, .F. ) ;
#294 = FACE_OUTER_BOUND ( 'NONE', #213, .T. ) ;
#295 = LENGTH_MEASURE_WITH_UNIT ( LENGTH_MEASURE( 0.02539999999999999897 ), #168 );
#296 = CIRCLE ( 'NONE', #53, 0.09374999999999998612 ) ;
#297 = AXIS2_PLACEMENT_3D ( 'NONE', #68, #208, #309 ) ;
#298 = DIRECTION ( 'NONE',  ( 1.000000000000000000, 0.000000000000000000, 0.000000000000000000 ) ) ;
#299 = ADVANCED_FACE ( 'NONE', ( #291 ), #47, .T. ) ;
#300 = DIRECTION ( 'NONE',  ( 1.000000000000000000, 0.000000000000000000, 0.000000000000000000 ) ) ;
#301 = DIRECTION ( 'NONE',  ( 1.000000000000000000, 4.107433661968977470E-33, 0.000000000000000000 ) ) ;
#302 = FILL_AREA_STYLE_COLOUR ( '', #125 ) ;
#303 = CIRCLE ( 'NONE', #35, 0.09375000000000005551 ) ;
#304 = CARTESIAN_POINT ( 'NONE',  ( 2.108876410934486064E-67, -5.134292077461222265E-35, 0.000000000000000000 ) ) ;
#305 = DIRECTION ( 'NONE',  ( 1.000000000000000000, 1.208217220923066454E-16, 0.000000000000000000 ) ) ;
#306 = FILL_AREA_STYLE ('',( #302 ) ) ;
#307 = FACE_OUTER_BOUND ( 'NONE', #107, .T. ) ;
#308 =( CONVERSION_BASED_UNIT ( 'INCH', #207 ) LENGTH_UNIT ( ) NAMED_UNIT ( #249 ) );
#309 = DIRECTION ( 'NONE',  ( -1.000000000000000000, -9.106159978880894651E-17, 0.000000000000000000 ) ) ;
ENDSEC;
END-ISO-10303-21;
