ISO-10303-21;
HEADER;
FILE_DESCRIPTION (( 'STEP AP214' ),
    '1' );
FILE_NAME ('81415.STEP',
    '2023-06-23T01:32:45',
    ( '' ),
    ( '' ),
    'SwSTEP 2.0',
    'SolidWorks 2023',
    '' );
FILE_SCHEMA (( 'AUTOMOTIVE_DESIGN' ));
ENDSEC;

DATA;
#1 = STYLED_ITEM ( 'NONE', ( #146 ), #284 ) ;
#2 = DIRECTION ( 'NONE',  ( 0.000000000000000000, -0.000000000000000000, 1.000000000000000000 ) ) ;
#3 = CARTESIAN_POINT ( 'NONE',  ( 0.000000000000000000, 0.000000000000000000, -0.2500000000000000000 ) ) ;
#4 = SURFACE_STYLE_FILL_AREA ( #247 ) ;
#5 = EDGE_LOOP ( 'NONE', ( #154, #203, #257, #239 ) ) ;
#6 = ADVANCED_FACE ( 'NONE', ( #209 ), #121, .T. ) ;
#7 = AXIS2_PLACEMENT_3D ( 'NONE', #92, #119, #253 ) ;
#8 = PLANE ( 'NONE',  #97 ) ;
#9 = DIMENSIONAL_EXPONENTS ( 1.000000000000000000, 0.000000000000000000, 0.000000000000000000, 0.000000000000000000, 0.000000000000000000, 0.000000000000000000, 0.000000000000000000 ) ;
#10 = ORIENTED_EDGE ( 'NONE', *, *, #193, .F. ) ;
#11 = FILL_AREA_STYLE_COLOUR ( '', #206 ) ;
#12 = ORIENTED_EDGE ( 'NONE', *, *, #76, .F. ) ;
#13 = AXIS2_PLACEMENT_3D ( 'NONE', #245, #176, #2 ) ;
#14 = CARTESIAN_POINT ( 'NONE',  ( 0.000000000000000000, 0.000000000000000000, 0.000000000000000000 ) ) ;
#15 = EDGE_LOOP ( 'NONE', ( #231, #270 ) ) ;
#16 = ORIENTED_EDGE ( 'NONE', *, *, #145, .T. ) ;
#17 = EDGE_CURVE ( 'NONE', #233, #279, #211, .T. ) ;
#18 = EDGE_CURVE ( 'NONE', #265, #279, #103, .T. ) ;
#19 = AXIS2_PLACEMENT_3D ( 'NONE', #152, #107, #131 ) ;
#20 = MECHANICAL_DESIGN_GEOMETRIC_PRESENTATION_REPRESENTATION (  '', ( #53 ), #122 ) ;
#21 = DIRECTION ( 'NONE',  ( -9.797174393178823685E-17, 1.000000000000000000, -0.000000000000000000 ) ) ;
#22 = PRODUCT ( '81415', '81415', '', ( #232 ) ) ;
#23 = DIRECTION ( 'NONE',  ( -1.000000000000000000, 0.000000000000000000, 0.000000000000000000 ) ) ;
#24 =( CONVERSION_BASED_UNIT ( 'INCH', #82 ) LENGTH_UNIT ( ) NAMED_UNIT ( #148 ) );
#25 = FILL_AREA_STYLE_COLOUR ( '', #156 ) ;
#26 = AXIS2_PLACEMENT_3D ( 'NONE', #52, #126, #196 ) ;
#27 = DIRECTION ( 'NONE',  ( -0.000000000000000000, -1.000000000000000000, -0.000000000000000000 ) ) ;
#28 = MECHANICAL_DESIGN_GEOMETRIC_PRESENTATION_REPRESENTATION (  '', ( #1 ), #104 ) ;
#29 = ORIENTED_EDGE ( 'NONE', *, *, #17, .T. ) ;
#30 = DIRECTION ( 'NONE',  ( 0.000000000000000000, 0.000000000000000000, -1.000000000000000000 ) ) ;
#31 = EDGE_LOOP ( 'NONE', ( #180, #250, #87, #10 ) ) ;
#32 = DIRECTION ( 'NONE',  ( -0.000000000000000000, -1.000000000000000000, -0.000000000000000000 ) ) ;
#33 = VERTEX_POINT ( 'NONE', #112 ) ;
#34 = DIRECTION ( 'NONE',  ( 0.000000000000000000, 0.000000000000000000, -1.000000000000000000 ) ) ;
#35 =( GEOMETRIC_REPRESENTATION_CONTEXT ( 3 ) GLOBAL_UNCERTAINTY_ASSIGNED_CONTEXT ( ( #117 ) ) GLOBAL_UNIT_ASSIGNED_CONTEXT ( ( #276, #90, #207 ) ) REPRESENTATION_CONTEXT ( 'NONE', 'WORKASPACE' ) );
#36 = PRODUCT_DEFINITION_CONTEXT ( 'detailed design', #160, 'design' ) ;
#37 = EDGE_LOOP ( 'NONE', ( #135, #229 ) ) ;
#38 = FILL_AREA_STYLE ('',( #271 ) ) ;
#39 = DIRECTION ( 'NONE',  ( -1.000000000000000000, 0.000000000000000000, 0.000000000000000000 ) ) ;
#40 = CARTESIAN_POINT ( 'NONE',  ( -0.2500000000000003886, 5.000000000000000000, 0.000000000000000000 ) ) ;
#41 = AXIS2_PLACEMENT_3D ( 'NONE', #163, #240, #79 ) ;
#42 = LENGTH_MEASURE_WITH_UNIT ( LENGTH_MEASURE( 0.02539999999999999897 ), #254 );
#43 =( GEOMETRIC_REPRESENTATION_CONTEXT ( 3 ) GLOBAL_UNCERTAINTY_ASSIGNED_CONTEXT ( ( #60 ) ) GLOBAL_UNIT_ASSIGNED_CONTEXT ( ( #263, #127, #78 ) ) REPRESENTATION_CONTEXT ( 'NONE', 'WORKASPACE' ) );
#44 = EDGE_LOOP ( 'NONE', ( #167, #291 ) ) ;
#45 =( NAMED_UNIT ( * ) SI_UNIT ( $, .STERADIAN. ) SOLID_ANGLE_UNIT ( ) );
#46 = AXIS2_PLACEMENT_3D ( 'NONE', #258, #220, #30 ) ;
#47 = VERTEX_POINT ( 'NONE', #283 ) ;
#48 = PRESENTATION_LAYER_ASSIGNMENT (  '', '', ( #137 ) ) ;
#49 = AXIS2_PLACEMENT_3D ( 'NONE', #179, #153, #108 ) ;
#50 = SURFACE_SIDE_STYLE ('',( #175 ) ) ;
#51 = SURFACE_SIDE_STYLE ('',( #4 ) ) ;
#52 = CARTESIAN_POINT ( 'NONE',  ( 0.000000000000000000, 2.500000000000000000, 0.000000000000000000 ) ) ;
#53 = STYLED_ITEM ( 'NONE', ( #214 ), #277 ) ;
#54 = EDGE_CURVE ( 'NONE', #165, #177, #147, .T. ) ;
#55 = LENGTH_MEASURE_WITH_UNIT ( LENGTH_MEASURE( 0.02539999999999999897 ), #85 );
#56 = UNCERTAINTY_MEASURE_WITH_UNIT (LENGTH_MEASURE( 1.000000000000000082E-05 ), #75, 'distance_accuracy_value', 'NONE');
#57 = CARTESIAN_POINT ( 'NONE',  ( 1.199807826129485607E-33, 2.500000000000000000, 0.000000000000000000 ) ) ;
#58 = APPLICATION_PROTOCOL_DEFINITION ( 'draft international standard', 'automotive_design', 1998, #160 ) ;
#59 = COLOUR_RGB ( '',1.000000000000000000, 0.000000000000000000, 0.000000000000000000 ) ;
#60 = UNCERTAINTY_MEASURE_WITH_UNIT (LENGTH_MEASURE( 1.000000000000000082E-05 ), #263, 'distance_accuracy_value', 'NONE');
#61 = DIRECTION ( 'NONE',  ( -9.797174393178823685E-17, 1.000000000000000000, 0.000000000000000000 ) ) ;
#62 = SURFACE_STYLE_USAGE ( .BOTH. , #91 ) ;
#63 = SURFACE_STYLE_FILL_AREA ( #38 ) ;
#64 = DIRECTION ( 'NONE',  ( 0.000000000000000000, 0.000000000000000000, 1.000000000000000000 ) ) ;
#65 = ORIENTED_EDGE ( 'NONE', *, *, #111, .F. ) ;
#66 =( NAMED_UNIT ( * ) PLANE_ANGLE_UNIT ( ) SI_UNIT ( $, .RADIAN. ) );
#67 = AXIS2_PLACEMENT_3D ( 'NONE', #57, #61, #293 ) ;
#68 =( NAMED_UNIT ( * ) PLANE_ANGLE_UNIT ( ) SI_UNIT ( $, .RADIAN. ) );
#69 = SURFACE_STYLE_USAGE ( .BOTH. , #303 ) ;
#70 = MANIFOLD_SOLID_BREP ( 'Revolve - Tool Body (Straight Shanked)', #238 ) ;
#71 =( NAMED_UNIT ( * ) SI_UNIT ( $, .STERADIAN. ) SOLID_ANGLE_UNIT ( ) );
#72 =( CONVERSION_BASED_UNIT ( 'INCH', #309 ) LENGTH_UNIT ( ) NAMED_UNIT ( #227 ) );
#73 = LENGTH_MEASURE_WITH_UNIT ( LENGTH_MEASURE( 0.02539999999999999897 ), #120 );
#74 = SURFACE_SIDE_STYLE ('',( #266 ) ) ;
#75 =( CONVERSION_BASED_UNIT ( 'INCH', #158 ) LENGTH_UNIT ( ) NAMED_UNIT ( #264 ) );
#76 = EDGE_CURVE ( 'NONE', #47, #265, #98, .T. ) ;
#77 = ADVANCED_FACE ( 'NONE', ( #143 ), #100, .T. ) ;
#78 =( NAMED_UNIT ( * ) SI_UNIT ( $, .STERADIAN. ) SOLID_ANGLE_UNIT ( ) );
#79 = DIRECTION ( 'NONE',  ( -1.000000000000000000, 0.000000000000000000, 0.000000000000000000 ) ) ;
#80 =( NAMED_UNIT ( * ) SI_UNIT ( $, .STERADIAN. ) SOLID_ANGLE_UNIT ( ) );
#81 = CYLINDRICAL_SURFACE ( 'NONE', #99, 0.2500000000000000000 ) ;
#82 = LENGTH_MEASURE_WITH_UNIT ( LENGTH_MEASURE( 0.02539999999999999897 ), #201 );
#83 = VECTOR ( 'NONE', #27, 39.37007874015748143 ) ;
#84 = CARTESIAN_POINT ( 'NONE',  ( 0.2500000000000000000, 5.000000000000000000, 0.000000000000000000 ) ) ;
#85 =( LENGTH_UNIT ( ) NAMED_UNIT ( * ) SI_UNIT ( $, .METRE. ) );
#86 = FACE_OUTER_BOUND ( 'NONE', #237, .T. ) ;
#87 = ORIENTED_EDGE ( 'NONE', *, *, #183, .T. ) ;
#88 = CLOSED_SHELL ( 'NONE', ( #277, #284, #222, #215 ) ) ;
#89 = CARTESIAN_POINT ( 'NONE',  ( 0.2499999999999998890, 5.000000000000000000, 3.061616997868384251E-17 ) ) ;
#90 =( NAMED_UNIT ( * ) PLANE_ANGLE_UNIT ( ) SI_UNIT ( $, .RADIAN. ) );
#91 = SURFACE_SIDE_STYLE ('',( #190 ) ) ;
#92 = CARTESIAN_POINT ( 'NONE',  ( 0.000000000000000000, 0.000000000000000000, 0.000000000000000000 ) ) ;
#93 = EDGE_CURVE ( 'NONE', #233, #47, #170, .T. ) ;
#94 = EDGE_CURVE ( 'NONE', #47, #233, #259, .T. ) ;
#95 =( CONVERSION_BASED_UNIT ( 'INCH', #42 ) LENGTH_UNIT ( ) NAMED_UNIT ( #205 ) );
#96 = SURFACE_STYLE_FILL_AREA ( #255 ) ;
#97 = AXIS2_PLACEMENT_3D ( 'NONE', #84, #188, #110 ) ;
#98 = LINE ( 'NONE', #40, #186 ) ;
#99 = AXIS2_PLACEMENT_3D ( 'NONE', #14, #32, #34 ) ;
#100 = CYLINDRICAL_SURFACE ( 'NONE', #41, 0.2500000000000001110 ) ;
#101 = CARTESIAN_POINT ( 'NONE',  ( 3.061616997868383018E-17, 0.000000000000000000, 0.2500000000000000000 ) ) ;
#102 = DIRECTION ( 'NONE',  ( -9.797174393178823685E-17, 1.000000000000000000, -0.000000000000000000 ) ) ;
#103 = CIRCLE ( 'NONE', #289, 0.2500000000000002220 ) ;
#104 =( GEOMETRIC_REPRESENTATION_CONTEXT ( 3 ) GLOBAL_UNCERTAINTY_ASSIGNED_CONTEXT ( ( #56 ) ) GLOBAL_UNIT_ASSIGNED_CONTEXT ( ( #75, #221, #80 ) ) REPRESENTATION_CONTEXT ( 'NONE', 'WORKASPACE' ) );
#105 = PRODUCT_DEFINITION_SHAPE ( 'NONE', 'NONE',  #169 ) ;
#106 = CARTESIAN_POINT ( 'NONE',  ( 0.2500000000000000000, 5.000000000000000000, 3.061616997868385483E-17 ) ) ;
#107 = DIRECTION ( 'NONE',  ( -9.797174393178823685E-17, 1.000000000000000000, -0.000000000000000000 ) ) ;
#108 = DIRECTION ( 'NONE',  ( 0.000000000000000000, 0.000000000000000000, -1.000000000000000000 ) ) ;
#109 = DIMENSIONAL_EXPONENTS ( 1.000000000000000000, 0.000000000000000000, 0.000000000000000000, 0.000000000000000000, 0.000000000000000000, 0.000000000000000000, 0.000000000000000000 ) ;
#110 = DIRECTION ( 'NONE',  ( 1.000000000000000000, 9.797174393178823685E-17, 0.000000000000000000 ) ) ;
#111 = EDGE_CURVE ( 'NONE', #33, #187, #304, .T. ) ;
#112 = CARTESIAN_POINT ( 'NONE',  ( 0.000000000000000000, 2.500000000000000000, -0.2500000000000000000 ) ) ;
#113 = AXIS2_PLACEMENT_3D ( 'NONE', #225, #21, #23 ) ;
#114 = EDGE_LOOP ( 'NONE', ( #65, #185 ) ) ;
#115 = PLANE ( 'NONE',  #67 ) ;
#116 = PLANE ( 'NONE',  #13 ) ;
#117 = UNCERTAINTY_MEASURE_WITH_UNIT (LENGTH_MEASURE( 1.000000000000000082E-05 ), #276, 'distance_accuracy_value', 'NONE');
#118 = DIRECTION ( 'NONE',  ( -9.797174393178823685E-17, 1.000000000000000000, -0.000000000000000000 ) ) ;
#119 = DIRECTION ( 'NONE',  ( -0.000000000000000000, -1.000000000000000000, -0.000000000000000000 ) ) ;
#120 =( LENGTH_UNIT ( ) NAMED_UNIT ( * ) SI_UNIT ( $, .METRE. ) );
#121 = CYLINDRICAL_SURFACE ( 'NONE', #217, 0.2500000000000001110 ) ;
#122 =( GEOMETRIC_REPRESENTATION_CONTEXT ( 3 ) GLOBAL_UNCERTAINTY_ASSIGNED_CONTEXT ( ( #184 ) ) GLOBAL_UNIT_ASSIGNED_CONTEXT ( ( #218, #66, #45 ) ) REPRESENTATION_CONTEXT ( 'NONE', 'WORKASPACE' ) );
#123 = CIRCLE ( 'NONE', #49, 0.2500000000000000000 ) ;
#124 = LINE ( 'NONE', #3, #302 ) ;
#125 =( LENGTH_UNIT ( ) NAMED_UNIT ( * ) SI_UNIT ( $, .METRE. ) );
#126 = DIRECTION ( 'NONE',  ( -0.000000000000000000, -1.000000000000000000, -0.000000000000000000 ) ) ;
#127 =( NAMED_UNIT ( * ) PLANE_ANGLE_UNIT ( ) SI_UNIT ( $, .RADIAN. ) );
#128 = STYLED_ITEM ( 'NONE', ( #189 ), #70 ) ;
#129 = AXIS2_PLACEMENT_3D ( 'NONE', #133, #64, #138 ) ;
#130 = DIRECTION ( 'NONE',  ( -0.000000000000000000, -1.000000000000000000, -0.000000000000000000 ) ) ;
#131 = DIRECTION ( 'NONE',  ( -1.000000000000000000, 0.000000000000000000, 0.000000000000000000 ) ) ;
#132 = MECHANICAL_DESIGN_GEOMETRIC_PRESENTATION_REPRESENTATION (  '', ( #191 ), #43 ) ;
#133 = CARTESIAN_POINT ( 'NONE',  ( 0.000000000000000000, 0.000000000000000000, 0.000000000000000000 ) ) ;
#134 = SURFACE_SIDE_STYLE ('',( #63 ) ) ;
#135 = ORIENTED_EDGE ( 'NONE', *, *, #18, .T. ) ;
#136 = FILL_AREA_STYLE ('',( #11 ) ) ;
#137 = STYLED_ITEM ( 'NONE', ( #249 ), #222 ) ;
#138 = DIRECTION ( 'NONE',  ( 1.000000000000000000, 0.000000000000000000, 0.000000000000000000 ) ) ;
#139 = DIRECTION ( 'NONE',  ( 0.000000000000000000, 0.000000000000000000, -1.000000000000000000 ) ) ;
#140 = UNCERTAINTY_MEASURE_WITH_UNIT (LENGTH_MEASURE( 1.000000000000000082E-05 ), #24, 'distance_accuracy_value', 'NONE');
#141 = MECHANICAL_DESIGN_GEOMETRIC_PRESENTATION_REPRESENTATION (  '', ( #128 ), #162 ) ;
#142 = CIRCLE ( 'NONE', #219, 0.2500000000000002220 ) ;
#143 = FACE_OUTER_BOUND ( 'NONE', #297, .T. ) ;
#144 = ADVANCED_BREP_SHAPE_REPRESENTATION ( '81415', ( #278, #70, #129 ), #268 ) ;
#145 = EDGE_CURVE ( 'NONE', #187, #177, #243, .T. ) ;
#146 = PRESENTATION_STYLE_ASSIGNMENT (( #287 ) ) ;
#147 = CIRCLE ( 'NONE', #272, 0.2500000000000000000 ) ;
#148 = DIMENSIONAL_EXPONENTS ( 1.000000000000000000, 0.000000000000000000, 0.000000000000000000, 0.000000000000000000, 0.000000000000000000, 0.000000000000000000, 0.000000000000000000 ) ;
#149 = FILL_AREA_STYLE ('',( #223 ) ) ;
#150 = FACE_OUTER_BOUND ( 'NONE', #44, .T. ) ;
#151 = APPLICATION_CONTEXT ( 'automotive_design' ) ;
#152 = CARTESIAN_POINT ( 'NONE',  ( 3.032960542342103792E-32, 2.500000000000000000, 0.000000000000000000 ) ) ;
#153 = DIRECTION ( 'NONE',  ( -0.000000000000000000, -1.000000000000000000, -0.000000000000000000 ) ) ;
#154 = ORIENTED_EDGE ( 'NONE', *, *, #17, .F. ) ;
#155 = PRESENTATION_LAYER_ASSIGNMENT (  '', '', ( #282 ) ) ;
#156 = COLOUR_RGB ( '',1.000000000000000000, 0.000000000000000000, 0.000000000000000000 ) ;
#157 = DIRECTION ( 'NONE',  ( 0.000000000000000000, -1.000000000000000000, -0.000000000000000000 ) ) ;
#158 = LENGTH_MEASURE_WITH_UNIT ( LENGTH_MEASURE( 0.02539999999999999897 ), #242 );
#159 = ORIENTED_EDGE ( 'NONE', *, *, #18, .F. ) ;
#160 = APPLICATION_CONTEXT ( 'automotive_design' ) ;
#161 = ORIENTED_EDGE ( 'NONE', *, *, #54, .F. ) ;
#162 =( GEOMETRIC_REPRESENTATION_CONTEXT ( 3 ) GLOBAL_UNCERTAINTY_ASSIGNED_CONTEXT ( ( #202 ) ) GLOBAL_UNIT_ASSIGNED_CONTEXT ( ( #95, #68, #71 ) ) REPRESENTATION_CONTEXT ( 'NONE', 'WORKASPACE' ) );
#163 = CARTESIAN_POINT ( 'NONE',  ( -2.449293598294705921E-16, 5.000000000000000000, 0.000000000000000000 ) ) ;
#164 = SHAPE_DEFINITION_REPRESENTATION ( #105, #144 ) ;
#165 = VERTEX_POINT ( 'NONE', #204 ) ;
#166 = AXIS2_PLACEMENT_3D ( 'NONE', #174, #157, #262 ) ;
#167 = ORIENTED_EDGE ( 'NONE', *, *, #54, .T. ) ;
#168 = PRESENTATION_STYLE_ASSIGNMENT (( #69 ) ) ;
#169 = PRODUCT_DEFINITION ( 'UNKNOWN', '', #273, #36 ) ;
#170 = CIRCLE ( 'NONE', #19, 0.2500000000000000000 ) ;
#171 = DIRECTION ( 'NONE',  ( -1.000000000000000000, 0.000000000000000000, 0.000000000000000000 ) ) ;
#172 =( NAMED_UNIT ( * ) SI_UNIT ( $, .STERADIAN. ) SOLID_ANGLE_UNIT ( ) );
#173 = PRESENTATION_STYLE_ASSIGNMENT (( #307 ) ) ;
#174 = CARTESIAN_POINT ( 'NONE',  ( 0.000000000000000000, 0.000000000000000000, 0.000000000000000000 ) ) ;
#175 = SURFACE_STYLE_FILL_AREA ( #246 ) ;
#176 = DIRECTION ( 'NONE',  ( 0.000000000000000000, 1.000000000000000000, 0.000000000000000000 ) ) ;
#177 = VERTEX_POINT ( 'NONE', #200 ) ;
#178 = FILL_AREA_STYLE_COLOUR ( '', #181 ) ;
#179 = CARTESIAN_POINT ( 'NONE',  ( 0.000000000000000000, 2.500000000000000000, 0.000000000000000000 ) ) ;
#180 = ORIENTED_EDGE ( 'NONE', *, *, #145, .F. ) ;
#181 = COLOUR_RGB ( '',1.000000000000000000, 0.000000000000000000, 0.000000000000000000 ) ;
#182 = CYLINDRICAL_SURFACE ( 'NONE', #7, 0.2500000000000000000 ) ;
#183 = EDGE_CURVE ( 'NONE', #33, #165, #124, .T. ) ;
#184 = UNCERTAINTY_MEASURE_WITH_UNIT (LENGTH_MEASURE( 1.000000000000000082E-05 ), #218, 'distance_accuracy_value', 'NONE');
#185 = ORIENTED_EDGE ( 'NONE', *, *, #294, .F. ) ;
#186 = VECTOR ( 'NONE', #192, 39.37007874015748143 ) ;
#187 = VERTEX_POINT ( 'NONE', #286 ) ;
#188 = DIRECTION ( 'NONE',  ( 9.797174393178823685E-17, -1.000000000000000000, 0.000000000000000000 ) ) ;
#189 = PRESENTATION_STYLE_ASSIGNMENT (( #62 ) ) ;
#190 = SURFACE_STYLE_FILL_AREA ( #136 ) ;
#191 = STYLED_ITEM ( 'NONE', ( #168 ), #278 ) ;
#192 = DIRECTION ( 'NONE',  ( -9.797174393178823685E-17, 1.000000000000000000, -0.000000000000000000 ) ) ;
#193 = EDGE_CURVE ( 'NONE', #177, #165, #210, .T. ) ;
#194 = CARTESIAN_POINT ( 'NONE',  ( -2.449293598294705921E-16, 5.000000000000000000, 0.000000000000000000 ) ) ;
#195 = DIRECTION ( 'NONE',  ( -1.000000000000000000, 0.000000000000000000, 0.000000000000000000 ) ) ;
#196 = DIRECTION ( 'NONE',  ( 0.000000000000000000, 0.000000000000000000, -1.000000000000000000 ) ) ;
#197 =( GEOMETRIC_REPRESENTATION_CONTEXT ( 3 ) GLOBAL_UNCERTAINTY_ASSIGNED_CONTEXT ( ( #236 ) ) GLOBAL_UNIT_ASSIGNED_CONTEXT ( ( #72, #199, #172 ) ) REPRESENTATION_CONTEXT ( 'NONE', 'WORKASPACE' ) );
#198 = MECHANICAL_DESIGN_GEOMETRIC_PRESENTATION_REPRESENTATION (  '', ( #282 ), #197 ) ;
#199 =( NAMED_UNIT ( * ) PLANE_ANGLE_UNIT ( ) SI_UNIT ( $, .RADIAN. ) );
#200 = CARTESIAN_POINT ( 'NONE',  ( 3.061616997868383018E-17, 0.000000000000000000, 0.2500000000000000000 ) ) ;
#201 =( LENGTH_UNIT ( ) NAMED_UNIT ( * ) SI_UNIT ( $, .METRE. ) );
#202 = UNCERTAINTY_MEASURE_WITH_UNIT (LENGTH_MEASURE( 1.000000000000000082E-05 ), #95, 'distance_accuracy_value', 'NONE');
#203 = ORIENTED_EDGE ( 'NONE', *, *, #93, .T. ) ;
#204 = CARTESIAN_POINT ( 'NONE',  ( 0.000000000000000000, 0.000000000000000000, -0.2500000000000000000 ) ) ;
#205 = DIMENSIONAL_EXPONENTS ( 1.000000000000000000, 0.000000000000000000, 0.000000000000000000, 0.000000000000000000, 0.000000000000000000, 0.000000000000000000, 0.000000000000000000 ) ;
#206 = COLOUR_RGB ( '',0.7921568627450980005, 0.8196078431372548767, 0.9333333333333333481 ) ;
#207 =( NAMED_UNIT ( * ) SI_UNIT ( $, .STERADIAN. ) SOLID_ANGLE_UNIT ( ) );
#208 = FACE_OUTER_BOUND ( 'NONE', #37, .T. ) ;
#209 = FACE_OUTER_BOUND ( 'NONE', #5, .T. ) ;
#210 = CIRCLE ( 'NONE', #46, 0.2500000000000000000 ) ;
#211 = LINE ( 'NONE', #89, #256 ) ;
#212 =( LENGTH_UNIT ( ) NAMED_UNIT ( * ) SI_UNIT ( $, .METRE. ) );
#213 = ORIENTED_EDGE ( 'NONE', *, *, #183, .F. ) ;
#214 = PRESENTATION_STYLE_ASSIGNMENT (( #230 ) ) ;
#215 = ADVANCED_FACE ( 'NONE', ( #150 ), #288, .T. ) ;
#216 = FILL_AREA_STYLE_COLOUR ( '', #241 ) ;
#217 = AXIS2_PLACEMENT_3D ( 'NONE', #194, #118, #39 ) ;
#218 =( CONVERSION_BASED_UNIT ( 'INCH', #280 ) LENGTH_UNIT ( ) NAMED_UNIT ( #292 ) );
#219 = AXIS2_PLACEMENT_3D ( 'NONE', #226, #102, #195 ) ;
#220 = DIRECTION ( 'NONE',  ( -0.000000000000000000, -1.000000000000000000, -0.000000000000000000 ) ) ;
#221 =( NAMED_UNIT ( * ) PLANE_ANGLE_UNIT ( ) SI_UNIT ( $, .RADIAN. ) );
#222 = ADVANCED_FACE ( 'NONE', ( #290 ), #81, .T. ) ;
#223 = FILL_AREA_STYLE_COLOUR ( '', #59 ) ;
#224 = MECHANICAL_DESIGN_GEOMETRIC_PRESENTATION_REPRESENTATION (  '', ( #137 ), #35 ) ;
#225 = CARTESIAN_POINT ( 'NONE',  ( 3.032960542342103792E-32, 2.500000000000000000, 0.000000000000000000 ) ) ;
#226 = CARTESIAN_POINT ( 'NONE',  ( -2.449293598294705921E-16, 5.000000000000000000, 0.000000000000000000 ) ) ;
#227 = DIMENSIONAL_EXPONENTS ( 1.000000000000000000, 0.000000000000000000, 0.000000000000000000, 0.000000000000000000, 0.000000000000000000, 0.000000000000000000, 0.000000000000000000 ) ;
#228 = PRESENTATION_LAYER_ASSIGNMENT (  '', '', ( #191 ) ) ;
#229 = ORIENTED_EDGE ( 'NONE', *, *, #306, .T. ) ;
#230 = SURFACE_STYLE_USAGE ( .BOTH. , #134 ) ;
#231 = ORIENTED_EDGE ( 'NONE', *, *, #94, .F. ) ;
#232 = PRODUCT_CONTEXT ( 'NONE', #151, 'mechanical' ) ;
#233 = VERTEX_POINT ( 'NONE', #274 ) ;
#234 = ADVANCED_FACE ( 'NONE', ( #269 ), #115, .F. ) ;
#235 = ADVANCED_FACE ( 'NONE', ( #208 ), #8, .F. ) ;
#236 = UNCERTAINTY_MEASURE_WITH_UNIT (LENGTH_MEASURE( 1.000000000000000082E-05 ), #72, 'distance_accuracy_value', 'NONE');
#237 = EDGE_LOOP ( 'NONE', ( #295, #16, #161, #213 ) ) ;
#238 = CLOSED_SHELL ( 'NONE', ( #77, #234, #6, #235 ) ) ;
#239 = ORIENTED_EDGE ( 'NONE', *, *, #306, .F. ) ;
#240 = DIRECTION ( 'NONE',  ( -9.797174393178823685E-17, 1.000000000000000000, -0.000000000000000000 ) ) ;
#241 = COLOUR_RGB ( '',0.7921568627450980005, 0.8196078431372548767, 0.9333333333333333481 ) ;
#242 =( LENGTH_UNIT ( ) NAMED_UNIT ( * ) SI_UNIT ( $, .METRE. ) );
#243 = LINE ( 'NONE', #101, #83 ) ;
#244 = SURFACE_STYLE_USAGE ( .BOTH. , #50 ) ;
#245 = CARTESIAN_POINT ( 'NONE',  ( 0.000000000000000000, 2.500000000000000000, 0.000000000000000000 ) ) ;
#246 = FILL_AREA_STYLE ('',( #178 ) ) ;
#247 = FILL_AREA_STYLE ('',( #25 ) ) ;
#248 = ORIENTED_EDGE ( 'NONE', *, *, #94, .T. ) ;
#249 = PRESENTATION_STYLE_ASSIGNMENT (( #244 ) ) ;
#250 = ORIENTED_EDGE ( 'NONE', *, *, #294, .T. ) ;
#251 = DIRECTION ( 'NONE',  ( -0.000000000000000000, -1.000000000000000000, -0.000000000000000000 ) ) ;
#252 = APPLICATION_PROTOCOL_DEFINITION ( 'draft international standard', 'automotive_design', 1998, #151 ) ;
#253 = DIRECTION ( 'NONE',  ( 0.000000000000000000, 0.000000000000000000, -1.000000000000000000 ) ) ;
#254 =( LENGTH_UNIT ( ) NAMED_UNIT ( * ) SI_UNIT ( $, .METRE. ) );
#255 = FILL_AREA_STYLE ('',( #216 ) ) ;
#256 = VECTOR ( 'NONE', #275, 39.37007874015748143 ) ;
#257 = ORIENTED_EDGE ( 'NONE', *, *, #76, .T. ) ;
#258 = CARTESIAN_POINT ( 'NONE',  ( 0.000000000000000000, 0.000000000000000000, 0.000000000000000000 ) ) ;
#259 = CIRCLE ( 'NONE', #113, 0.2500000000000000000 ) ;
#260 = PRESENTATION_LAYER_ASSIGNMENT (  '', '', ( #1 ) ) ;
#261 =( NAMED_UNIT ( * ) PLANE_ANGLE_UNIT ( ) SI_UNIT ( $, .RADIAN. ) );
#262 = DIRECTION ( 'NONE',  ( 0.000000000000000000, 0.000000000000000000, -1.000000000000000000 ) ) ;
#263 =( CONVERSION_BASED_UNIT ( 'INCH', #73 ) LENGTH_UNIT ( ) NAMED_UNIT ( #9 ) );
#264 = DIMENSIONAL_EXPONENTS ( 1.000000000000000000, 0.000000000000000000, 0.000000000000000000, 0.000000000000000000, 0.000000000000000000, 0.000000000000000000, 0.000000000000000000 ) ;
#265 = VERTEX_POINT ( 'NONE', #296 ) ;
#266 = SURFACE_STYLE_FILL_AREA ( #149 ) ;
#267 = PRESENTATION_LAYER_ASSIGNMENT (  '', '', ( #53 ) ) ;
#268 =( GEOMETRIC_REPRESENTATION_CONTEXT ( 3 ) GLOBAL_UNCERTAINTY_ASSIGNED_CONTEXT ( ( #140 ) ) GLOBAL_UNIT_ASSIGNED_CONTEXT ( ( #24, #261, #285 ) ) REPRESENTATION_CONTEXT ( 'NONE', 'WORKASPACE' ) );
#269 = FACE_OUTER_BOUND ( 'NONE', #15, .T. ) ;
#270 = ORIENTED_EDGE ( 'NONE', *, *, #93, .F. ) ;
#271 = FILL_AREA_STYLE_COLOUR ( '', #281 ) ;
#272 = AXIS2_PLACEMENT_3D ( 'NONE', #299, #251, #139 ) ;
#273 = PRODUCT_DEFINITION_FORMATION_WITH_SPECIFIED_SOURCE ( 'ANY', '', #22, .NOT_KNOWN. ) ;
#274 = CARTESIAN_POINT ( 'NONE',  ( 0.2500000000000000000, 2.500000000000000000, 3.061616997868385483E-17 ) ) ;
#275 = DIRECTION ( 'NONE',  ( -9.797174393178823685E-17, 1.000000000000000000, -0.000000000000000000 ) ) ;
#276 =( CONVERSION_BASED_UNIT ( 'INCH', #55 ) LENGTH_UNIT ( ) NAMED_UNIT ( #109 ) );
#277 = ADVANCED_FACE ( 'NONE', ( #86 ), #182, .T. ) ;
#278 = MANIFOLD_SOLID_BREP ( 'Revolve - Cutting Edge', #88 ) ;
#279 = VERTEX_POINT ( 'NONE', #106 ) ;
#280 = LENGTH_MEASURE_WITH_UNIT ( LENGTH_MEASURE( 0.02539999999999999897 ), #212 );
#281 = COLOUR_RGB ( '',1.000000000000000000, 0.000000000000000000, 0.000000000000000000 ) ;
#282 = STYLED_ITEM ( 'NONE', ( #173 ), #215 ) ;
#283 = CARTESIAN_POINT ( 'NONE',  ( -0.2500000000000000000, 2.500000000000000000, 0.000000000000000000 ) ) ;
#284 = ADVANCED_FACE ( 'NONE', ( #308 ), #116, .T. ) ;
#285 =( NAMED_UNIT ( * ) SI_UNIT ( $, .STERADIAN. ) SOLID_ANGLE_UNIT ( ) );
#286 = CARTESIAN_POINT ( 'NONE',  ( 3.061616997868383018E-17, 2.500000000000000000, 0.2500000000000000000 ) ) ;
#287 = SURFACE_STYLE_USAGE ( .BOTH. , #51 ) ;
#288 = PLANE ( 'NONE',  #166 ) ;
#289 = AXIS2_PLACEMENT_3D ( 'NONE', #300, #301, #171 ) ;
#290 = FACE_OUTER_BOUND ( 'NONE', #31, .T. ) ;
#291 = ORIENTED_EDGE ( 'NONE', *, *, #193, .T. ) ;
#292 = DIMENSIONAL_EXPONENTS ( 1.000000000000000000, 0.000000000000000000, 0.000000000000000000, 0.000000000000000000, 0.000000000000000000, 0.000000000000000000, 0.000000000000000000 ) ;
#293 = DIRECTION ( 'NONE',  ( -1.000000000000000000, -9.797174393178823685E-17, 0.000000000000000000 ) ) ;
#294 = EDGE_CURVE ( 'NONE', #187, #33, #123, .T. ) ;
#295 = ORIENTED_EDGE ( 'NONE', *, *, #111, .T. ) ;
#296 = CARTESIAN_POINT ( 'NONE',  ( -0.2500000000000004996, 5.000000000000000000, 0.000000000000000000 ) ) ;
#297 = EDGE_LOOP ( 'NONE', ( #248, #29, #159, #12 ) ) ;
#298 = PRESENTATION_LAYER_ASSIGNMENT (  '', '', ( #128 ) ) ;
#299 = CARTESIAN_POINT ( 'NONE',  ( 0.000000000000000000, 0.000000000000000000, 0.000000000000000000 ) ) ;
#300 = CARTESIAN_POINT ( 'NONE',  ( -2.449293598294705921E-16, 5.000000000000000000, 0.000000000000000000 ) ) ;
#301 = DIRECTION ( 'NONE',  ( -9.797174393178823685E-17, 1.000000000000000000, -0.000000000000000000 ) ) ;
#302 = VECTOR ( 'NONE', #130, 39.37007874015748143 ) ;
#303 = SURFACE_SIDE_STYLE ('',( #96 ) ) ;
#304 = CIRCLE ( 'NONE', #26, 0.2500000000000000000 ) ;
#305 = PRODUCT_RELATED_PRODUCT_CATEGORY ( 'part', '', ( #22 ) ) ;
#306 = EDGE_CURVE ( 'NONE', #279, #265, #142, .T. ) ;
#307 = SURFACE_STYLE_USAGE ( .BOTH. , #74 ) ;
#308 = FACE_OUTER_BOUND ( 'NONE', #114, .T. ) ;
#309 = LENGTH_MEASURE_WITH_UNIT ( LENGTH_MEASURE( 0.02539999999999999897 ), #125 );
ENDSEC;
END-ISO-10303-21;
