ISO-10303-21;
HEADER;
FILE_DESCRIPTION (( 'STEP AP214' ),
    '1' );
FILE_NAME ('Micro_GEM-031-3.STEP',
    '2021-09-01T18:46:51',
    ( '' ),
    ( '' ),
    'SwSTEP 2.0',
    'SolidWorks 2020',
    '' );
FILE_SCHEMA (( 'AUTOMOTIVE_DESIGN' ));
ENDSEC;

DATA;
#1 = DIMENSIONAL_EXPONENTS ( 1.000000000000000000, 0.0000000000000000000, 0.0000000000000000000, 0.0000000000000000000, 0.0000000000000000000, 0.0000000000000000000, 0.0000000000000000000 ) ;
#2 = ORIENTED_EDGE ( 'NONE', *, *, #240, .F. ) ;
#3 = ADVANCED_FACE ( 'NONE', ( #294 ), #83, .T. ) ;
#4 = PRODUCT_DEFINITION_SHAPE ( 'NONE', 'NONE',  #224 ) ;
#5 = FILL_AREA_STYLE_COLOUR ( '', #216 ) ;
#6 = DIRECTION ( 'NONE',  ( 0.0000000000000000000, 0.0000000000000000000, 1.000000000000000000 ) ) ;
#7 = VECTOR ( 'NONE', #94, 39.37007874015748143 ) ;
#8 = AXIS2_PLACEMENT_3D ( 'NONE', #14, #6, #73 ) ;
#9 = PRESENTATION_STYLE_ASSIGNMENT (( #191 ) ) ;
#10 = APPLICATION_CONTEXT ( 'automotive_design' ) ;
#11 = AXIS2_PLACEMENT_3D ( 'NONE', #43, #138, #84 ) ;
#12 = FACE_OUTER_BOUND ( 'NONE', #95, .T. ) ;
#13 = PRESENTATION_LAYER_ASSIGNMENT (  '', '', ( #21 ) ) ;
#14 = CARTESIAN_POINT ( 'NONE',  ( 0.0000000000000000000, 0.0000000000000000000, 1.500000000000000222 ) ) ;
#15 = FACE_OUTER_BOUND ( 'NONE', #280, .T. ) ;
#16 = LINE ( 'NONE', #250, #7 ) ;
#17 = DIRECTION ( 'NONE',  ( -1.000000000000000000, 0.0000000000000000000, 0.0000000000000000000 ) ) ;
#18 = CONICAL_SURFACE ( 'NONE', #42, 0.04750000000000064587, 0.7853981633974466137 ) ;
#19 = CARTESIAN_POINT ( 'NONE',  ( 0.01558440000000001387, 0.0000000000000000000, 0.07800000000000009703 ) ) ;
#20 = DIRECTION ( 'NONE',  ( 0.7071067811865462405, 8.659560562354916834E-17, -0.7071067811865486830 ) ) ;
#21 = STYLED_ITEM ( 'NONE', ( #78 ), #89 ) ;
#22 = PRODUCT_CONTEXT ( 'NONE', #10, 'mechanical' ) ;
#23 = EDGE_LOOP ( 'NONE', ( #66, #80 ) ) ;
#24 = ORIENTED_EDGE ( 'NONE', *, *, #77, .T. ) ;
#25 = CIRCLE ( 'NONE', #137, 0.06250000000000002776 ) ;
#26 = AXIS2_PLACEMENT_3D ( 'NONE', #267, #177, #159 ) ;
#27 = ADVANCED_FACE ( 'NONE', ( #263 ), #246, .T. ) ;
#28 = AXIS2_PLACEMENT_3D ( 'NONE', #31, #222, #127 ) ;
#29 = ADVANCED_FACE ( 'NONE', ( #12 ), #106, .T. ) ;
#30 = VERTEX_POINT ( 'NONE', #61 ) ;
#31 = CARTESIAN_POINT ( 'NONE',  ( 0.0000000000000000000, 0.0000000000000000000, 1.500000000000000222 ) ) ;
#32 = DIRECTION ( 'NONE',  ( -1.000000000000000000, 0.0000000000000000000, 1.224646799147353700E-16 ) ) ;
#33 = DIRECTION ( 'NONE',  ( -1.000000000000000000, 0.0000000000000000000, 1.224646799147353700E-16 ) ) ;
#34 = AXIS2_PLACEMENT_3D ( 'NONE', #241, #206, #178 ) ;
#35 = AXIS2_PLACEMENT_3D ( 'NONE', #253, #115, #140 ) ;
#36 = DIRECTION ( 'NONE',  ( 0.0000000000000000000, 0.0000000000000000000, 1.000000000000000000 ) ) ;
#37 = EDGE_CURVE ( 'NONE', #169, #186, #203, .T. ) ;
#38 = LINE ( 'NONE', #130, #116 ) ;
#39 = FACE_OUTER_BOUND ( 'NONE', #272, .T. ) ;
#40 = CARTESIAN_POINT ( 'NONE',  ( 4.213661705584326685E-17, 0.0000000000000000000, 0.3440715893364552080 ) ) ;
#41 = ORIENTED_EDGE ( 'NONE', *, *, #82, .T. ) ;
#42 = AXIS2_PLACEMENT_3D ( 'NONE', #220, #134, #17 ) ;
#43 = CARTESIAN_POINT ( 'NONE',  ( 9.552245033349369302E-18, 0.0000000000000000000, 0.07800000000000009703 ) ) ;
#44 = ADVANCED_FACE ( 'NONE', ( #208 ), #111, .T. ) ;
#45 = VECTOR ( 'NONE', #20, 39.37007874015748854 ) ;
#46 = CIRCLE ( 'NONE', #72, 0.06250000000000002776 ) ;
#47 =( NAMED_UNIT ( * ) PLANE_ANGLE_UNIT ( ) SI_UNIT ( $, .RADIAN. ) );
#48 = EDGE_CURVE ( 'NONE', #120, #169, #176, .T. ) ;
#49 =( NAMED_UNIT ( * ) SI_UNIT ( $, .STERADIAN. ) SOLID_ANGLE_UNIT ( ) );
#50 =( GEOMETRIC_REPRESENTATION_CONTEXT ( 3 ) GLOBAL_UNCERTAINTY_ASSIGNED_CONTEXT ( ( #166 ) ) GLOBAL_UNIT_ASSIGNED_CONTEXT ( ( #257, #47, #49 ) ) REPRESENTATION_CONTEXT ( 'NONE', 'WORKASPACE' ) );
#51 = ADVANCED_FACE ( 'NONE', ( #39 ), #18, .T. ) ;
#52 = VERTEX_POINT ( 'NONE', #113 ) ;
#53 = STYLED_ITEM ( 'NONE', ( #9 ), #145 ) ;
#54 = ORIENTED_EDGE ( 'NONE', *, *, #48, .T. ) ;
#55 = ORIENTED_EDGE ( 'NONE', *, *, #139, .T. ) ;
#56 = DIRECTION ( 'NONE',  ( 0.1736481776669314414, 0.0000000000000000000, 0.9848077530122077983 ) ) ;
#57 = PLANE ( 'NONE',  #210 ) ;
#58 = CARTESIAN_POINT ( 'NONE',  ( 4.213661705584326685E-17, 0.0000000000000000000, 0.3440715893364552080 ) ) ;
#59 = CARTESIAN_POINT ( 'NONE',  ( 0.06250000000000006939, 7.654042494670963708E-18, 0.3440715893364552080 ) ) ;
#60 = APPLICATION_PROTOCOL_DEFINITION ( 'draft international standard', 'automotive_design', 1998, #10 ) ;
#61 = CARTESIAN_POINT ( 'NONE',  ( -0.04750000000000064587, 0.0000000000000000000, 1.500000000000000222 ) ) ;
#62 =( NAMED_UNIT ( * ) SI_UNIT ( $, .STERADIAN. ) SOLID_ANGLE_UNIT ( ) );
#63 = EDGE_LOOP ( 'NONE', ( #238, #165, #189, #214 ) ) ;
#64 = CARTESIAN_POINT ( 'NONE',  ( 0.0000000000000000000, 0.0000000000000000000, 1.500000000000000222 ) ) ;
#65 = DIRECTION ( 'NONE',  ( 0.0000000000000000000, 0.0000000000000000000, -1.000000000000000000 ) ) ;
#66 = ORIENTED_EDGE ( 'NONE', *, *, #198, .T. ) ;
#67 = MECHANICAL_DESIGN_GEOMETRIC_PRESENTATION_REPRESENTATION (  '', ( #21 ), #242 ) ;
#68 = AXIS2_PLACEMENT_3D ( 'NONE', #160, #282, #231 ) ;
#69 = CARTESIAN_POINT ( 'NONE',  ( 0.0000000000000000000, 0.0000000000000000000, 1.500000000000000222 ) ) ;
#70 = CARTESIAN_POINT ( 'NONE',  ( -0.01558440000000001387, 0.0000000000000000000, 3.817077115326407575E-18 ) ) ;
#71 = ORIENTED_EDGE ( 'NONE', *, *, #276, .F. ) ;
#72 = AXIS2_PLACEMENT_3D ( 'NONE', #277, #65, #229 ) ;
#73 = DIRECTION ( 'NONE',  ( 1.000000000000000000, 0.0000000000000000000, 0.0000000000000000000 ) ) ;
#74 = VERTEX_POINT ( 'NONE', #150 ) ;
#75 = LENGTH_MEASURE_WITH_UNIT ( LENGTH_MEASURE( 0.02539999999999999897 ), #281 );
#76 = COLOUR_RGB ( '',0.7921568627450980005, 0.8196078431372548767, 0.9333333333333333481 ) ;
#77 = EDGE_CURVE ( 'NONE', #223, #120, #147, .T. ) ;
#78 = PRESENTATION_STYLE_ASSIGNMENT (( #286 ) ) ;
#79 = VECTOR ( 'NONE', #264, 39.37007874015748143 ) ;
#80 = ORIENTED_EDGE ( 'NONE', *, *, #287, .T. ) ;
#81 = ORIENTED_EDGE ( 'NONE', *, *, #37, .F. ) ;
#82 = EDGE_CURVE ( 'NONE', #52, #74, #25, .T. ) ;
#83 = CYLINDRICAL_SURFACE ( 'NONE', #121, 0.01558440000000000866 ) ;
#84 = DIRECTION ( 'NONE',  ( 1.000000000000000000, 0.0000000000000000000, 0.0000000000000000000 ) ) ;
#85 = DIRECTION ( 'NONE',  ( 1.000000000000000000, 0.0000000000000000000, 0.0000000000000000000 ) ) ;
#86 = AXIS2_PLACEMENT_3D ( 'NONE', #64, #154, #173 ) ;
#87 = CARTESIAN_POINT ( 'NONE',  ( 0.04750000000000064587, 6.735557395310483192E-18, 1.500000000000000222 ) ) ;
#88 = EDGE_CURVE ( 'NONE', #120, #101, #16, .T. ) ;
#89 = MANIFOLD_SOLID_BREP ( 'Cut-Revolve1', #161 ) ;
#90 = CARTESIAN_POINT ( 'NONE',  ( 9.552245033349369302E-18, 0.0000000000000000000, 0.07800000000000009703 ) ) ;
#91 = CARTESIAN_POINT ( 'NONE',  ( 0.01558440000000001560, 1.908538557663202632E-18, 0.0000000000000000000 ) ) ;
#92 = CONICAL_SURFACE ( 'NONE', #11, 0.01558440000000000519, 0.1745329251994339470 ) ;
#93 = EDGE_CURVE ( 'NONE', #223, #288, #38, .T. ) ;
#94 = DIRECTION ( 'NONE',  ( -1.224646799147353700E-16, -0.0000000000000000000, -1.000000000000000000 ) ) ;
#95 = EDGE_LOOP ( 'NONE', ( #104, #2, #54, #190 ) ) ;
#96 = SURFACE_SIDE_STYLE ('',( #122 ) ) ;
#97 = ORIENTED_EDGE ( 'NONE', *, *, #284, .F. ) ;
#98 = VECTOR ( 'NONE', #247, 39.37007874015748854 ) ;
#99 = UNCERTAINTY_MEASURE_WITH_UNIT (LENGTH_MEASURE( 1.000000000000000082E-05 ), #204, 'distance_accuracy_value', 'NONE');
#100 = PRODUCT_RELATED_PRODUCT_CATEGORY ( 'part', '', ( #233 ) ) ;
#101 = VERTEX_POINT ( 'NONE', #91 ) ;
#102 = APPLICATION_CONTEXT ( 'automotive_design' ) ;
#103 = CIRCLE ( 'NONE', #35, 0.04750000000000064587 ) ;
#104 = ORIENTED_EDGE ( 'NONE', *, *, #185, .F. ) ;
#105 = ORIENTED_EDGE ( 'NONE', *, *, #148, .T. ) ;
#106 = CONICAL_SURFACE ( 'NONE', #170, 0.01558440000000000519, 0.1745329251994339470 ) ;
#107 = CIRCLE ( 'NONE', #213, 0.01558440000000001387 ) ;
#108 = DIRECTION ( 'NONE',  ( 1.224646799147353700E-16, 0.0000000000000000000, 1.000000000000000000 ) ) ;
#109 = FACE_OUTER_BOUND ( 'NONE', #194, .T. ) ;
#110 = CARTESIAN_POINT ( 'NONE',  ( 2.337285635691549169E-34, 0.0000000000000000000, 1.908538557663203788E-18 ) ) ;
#111 = CYLINDRICAL_SURFACE ( 'NONE', #289, 0.06250000000000002776 ) ;
#112 = CARTESIAN_POINT ( 'NONE',  ( -0.06250000000000002776, 0.0000000000000000000, 1.500000000000000222 ) ) ;
#113 = CARTESIAN_POINT ( 'NONE',  ( -0.06250000000000002776, 0.0000000000000000000, 1.485000000000000764 ) ) ;
#114 = SURFACE_STYLE_FILL_AREA ( #126 ) ;
#115 = DIRECTION ( 'NONE',  ( 0.0000000000000000000, 0.0000000000000000000, 1.000000000000000000 ) ) ;
#116 = VECTOR ( 'NONE', #135, 39.37007874015748143 ) ;
#117 = ORIENTED_EDGE ( 'NONE', *, *, #88, .T. ) ;
#118 = ORIENTED_EDGE ( 'NONE', *, *, #93, .F. ) ;
#119 = EDGE_CURVE ( 'NONE', #288, #101, #123, .T. ) ;
#120 = VERTEX_POINT ( 'NONE', #19 ) ;
#121 = AXIS2_PLACEMENT_3D ( 'NONE', #262, #243, #33 ) ;
#122 = SURFACE_STYLE_FILL_AREA ( #187 ) ;
#123 = CIRCLE ( 'NONE', #237, 0.01558440000000001387 ) ;
#124 = ORIENTED_EDGE ( 'NONE', *, *, #119, .F. ) ;
#125 = ORIENTED_EDGE ( 'NONE', *, *, #240, .T. ) ;
#126 = FILL_AREA_STYLE ('',( #283 ) ) ;
#127 = DIRECTION ( 'NONE',  ( 1.000000000000000000, 0.0000000000000000000, -0.0000000000000000000 ) ) ;
#128 = DIRECTION ( 'NONE',  ( -1.224646799147353700E-16, -0.0000000000000000000, -1.000000000000000000 ) ) ;
#129 = CARTESIAN_POINT ( 'NONE',  ( 0.0000000000000000000, 0.0000000000000000000, 1.500000000000000222 ) ) ;
#130 = CARTESIAN_POINT ( 'NONE',  ( -0.01558440000000000866, 0.0000000000000000000, 1.908538557663203017E-18 ) ) ;
#131 = LINE ( 'NONE', #155, #98 ) ;
#132 = ADVANCED_FACE ( 'NONE', ( #15 ), #197, .T. ) ;
#133 = DIRECTION ( 'NONE',  ( -1.000000000000000000, 0.0000000000000000000, 1.224646799147353700E-16 ) ) ;
#134 = DIRECTION ( 'NONE',  ( 0.0000000000000000000, 0.0000000000000000000, -1.000000000000000000 ) ) ;
#135 = DIRECTION ( 'NONE',  ( -1.224646799147353700E-16, -0.0000000000000000000, -1.000000000000000000 ) ) ;
#136 = CARTESIAN_POINT ( 'NONE',  ( 0.01558440000000001387, 0.0000000000000000000, 0.07800000000000009703 ) ) ;
#137 = AXIS2_PLACEMENT_3D ( 'NONE', #209, #144, #168 ) ;
#138 = DIRECTION ( 'NONE',  ( 1.224646799147353700E-16, 0.0000000000000000000, 1.000000000000000000 ) ) ;
#139 = EDGE_CURVE ( 'NONE', #171, #74, #266, .T. ) ;
#140 = DIRECTION ( 'NONE',  ( 1.000000000000000000, 0.0000000000000000000, 0.0000000000000000000 ) ) ;
#141 = ADVANCED_FACE ( 'NONE', ( #291 ), #254, .T. ) ;
#142 = UNCERTAINTY_MEASURE_WITH_UNIT (LENGTH_MEASURE( 1.000000000000000082E-05 ), #258, 'distance_accuracy_value', 'NONE');
#143 =( LENGTH_UNIT ( ) NAMED_UNIT ( * ) SI_UNIT ( $, .METRE. ) );
#144 = DIRECTION ( 'NONE',  ( 0.0000000000000000000, 0.0000000000000000000, -1.000000000000000000 ) ) ;
#145 = ADVANCED_BREP_SHAPE_REPRESENTATION ( 'Micro_GEM-031-3', ( #89, #68 ), #278 ) ;
#146 = ORIENTED_EDGE ( 'NONE', *, *, #48, .F. ) ;
#147 = CIRCLE ( 'NONE', #34, 0.01558440000000000519 ) ;
#148 = EDGE_CURVE ( 'NONE', #52, #186, #199, .T. ) ;
#149 = ORIENTED_EDGE ( 'NONE', *, *, #284, .T. ) ;
#150 = CARTESIAN_POINT ( 'NONE',  ( 0.06250000000000002776, 7.654042494670959086E-18, 1.485000000000000764 ) ) ;
#151 = CARTESIAN_POINT ( 'NONE',  ( 0.0000000000000000000, 0.0000000000000000000, 0.0000000000000000000 ) ) ;
#152 = DIRECTION ( 'NONE',  ( -1.224646799147353700E-16, -0.0000000000000000000, -1.000000000000000000 ) ) ;
#153 = DIRECTION ( 'NONE',  ( 1.000000000000000000, 0.0000000000000000000, 0.0000000000000000000 ) ) ;
#154 = DIRECTION ( 'NONE',  ( 0.0000000000000000000, 0.0000000000000000000, -1.000000000000000000 ) ) ;
#155 = CARTESIAN_POINT ( 'NONE',  ( -0.04750000000000064587, 0.0000000000000000000, 1.500000000000000222 ) ) ;
#156 = ORIENTED_EDGE ( 'NONE', *, *, #215, .T. ) ;
#157 = EDGE_CURVE ( 'NONE', #101, #288, #107, .T. ) ;
#158 = DIMENSIONAL_EXPONENTS ( 1.000000000000000000, 0.0000000000000000000, 0.0000000000000000000, 0.0000000000000000000, 0.0000000000000000000, 0.0000000000000000000, 0.0000000000000000000 ) ;
#159 = DIRECTION ( 'NONE',  ( -1.000000000000000000, 0.0000000000000000000, 0.0000000000000000000 ) ) ;
#160 = CARTESIAN_POINT ( 'NONE',  ( 0.0000000000000000000, 0.0000000000000000000, 0.0000000000000000000 ) ) ;
#161 = CLOSED_SHELL ( 'NONE', ( #3, #181, #51, #219, #44, #27, #141, #29, #132, #192 ) ) ;
#162 = EDGE_LOOP ( 'NONE', ( #24, #117, #124, #118 ) ) ;
#163 = PRODUCT_DEFINITION_FORMATION_WITH_SPECIFIED_SOURCE ( 'ANY', '', #233, .NOT_KNOWN. ) ;
#164 = LINE ( 'NONE', #207, #299 ) ;
#165 = ORIENTED_EDGE ( 'NONE', *, *, #198, .F. ) ;
#166 = UNCERTAINTY_MEASURE_WITH_UNIT (LENGTH_MEASURE( 1.000000000000000082E-05 ), #257, 'distance_accuracy_value', 'NONE');
#167 = CIRCLE ( 'NONE', #205, 0.06250000000000002776 ) ;
#168 = DIRECTION ( 'NONE',  ( 1.000000000000000000, 0.0000000000000000000, 0.0000000000000000000 ) ) ;
#169 = VERTEX_POINT ( 'NONE', #59 ) ;
#170 = AXIS2_PLACEMENT_3D ( 'NONE', #90, #108, #85 ) ;
#171 = VERTEX_POINT ( 'NONE', #87 ) ;
#172 = ORIENTED_EDGE ( 'NONE', *, *, #185, .T. ) ;
#173 = DIRECTION ( 'NONE',  ( -1.000000000000000000, 0.0000000000000000000, 0.0000000000000000000 ) ) ;
#174 = LINE ( 'NONE', #202, #79 ) ;
#175 = DIRECTION ( 'NONE',  ( -0.0000000000000000000, -0.0000000000000000000, -1.000000000000000000 ) ) ;
#176 = LINE ( 'NONE', #136, #273 ) ;
#177 = DIRECTION ( 'NONE',  ( -1.224646799147353700E-16, -0.0000000000000000000, -1.000000000000000000 ) ) ;
#178 = DIRECTION ( 'NONE',  ( -1.000000000000000000, 0.0000000000000000000, 0.0000000000000000000 ) ) ;
#179 = CARTESIAN_POINT ( 'NONE',  ( 0.0000000000000000000, 0.0000000000000000000, 0.0000000000000000000 ) ) ;
#180 = FACE_OUTER_BOUND ( 'NONE', #265, .T. ) ;
#181 = ADVANCED_FACE ( 'NONE', ( #109 ), #92, .T. ) ;
#182 = PRESENTATION_LAYER_ASSIGNMENT (  '', '', ( #53 ) ) ;
#183 = DIRECTION ( 'NONE',  ( 1.000000000000000000, 0.0000000000000000000, 0.0000000000000000000 ) ) ;
#184 = SURFACE_SIDE_STYLE ('',( #114 ) ) ;
#185 = EDGE_CURVE ( 'NONE', #223, #186, #174, .T. ) ;
#186 = VERTEX_POINT ( 'NONE', #290 ) ;
#187 = FILL_AREA_STYLE ('',( #5 ) ) ;
#188 = AXIS2_PLACEMENT_3D ( 'NONE', #179, #239, #32 ) ;
#189 = ORIENTED_EDGE ( 'NONE', *, *, #276, .T. ) ;
#190 = ORIENTED_EDGE ( 'NONE', *, *, #37, .T. ) ;
#191 = SURFACE_STYLE_USAGE ( .BOTH. , #96 ) ;
#192 = ADVANCED_FACE ( 'NONE', ( #228 ), #57, .F. ) ;
#193 = ORIENTED_EDGE ( 'NONE', *, *, #287, .F. ) ;
#194 = EDGE_LOOP ( 'NONE', ( #296, #172, #149, #146 ) ) ;
#195 = DIRECTION ( 'NONE',  ( -0.0000000000000000000, -0.0000000000000000000, -1.000000000000000000 ) ) ;
#196 = DIRECTION ( 'NONE',  ( -1.224646799147353700E-16, -0.0000000000000000000, -1.000000000000000000 ) ) ;
#197 = CYLINDRICAL_SURFACE ( 'NONE', #188, 0.01558440000000000866 ) ;
#198 = EDGE_CURVE ( 'NONE', #30, #171, #274, .T. ) ;
#199 = LINE ( 'NONE', #112, #295 ) ;
#200 = DIRECTION ( 'NONE',  ( -1.000000000000000000, 0.0000000000000000000, 0.0000000000000000000 ) ) ;
#201 = DIRECTION ( 'NONE',  ( -0.0000000000000000000, -0.0000000000000000000, -1.000000000000000000 ) ) ;
#202 = CARTESIAN_POINT ( 'NONE',  ( -0.01558439999999999652, 1.908538557663201862E-18, 0.07800000000000009703 ) ) ;
#203 = CIRCLE ( 'NONE', #225, 0.06250000000000002776 ) ;
#204 =( CONVERSION_BASED_UNIT ( 'INCH', #293 ) LENGTH_UNIT ( ) NAMED_UNIT ( #234 ) );
#205 = AXIS2_PLACEMENT_3D ( 'NONE', #40, #152, #183 ) ;
#206 = DIRECTION ( 'NONE',  ( -1.224646799147353700E-16, -0.0000000000000000000, -1.000000000000000000 ) ) ;
#207 = CARTESIAN_POINT ( 'NONE',  ( 0.06250000000000002776, 7.654042494670959086E-18, 1.500000000000000222 ) ) ;
#208 = FACE_OUTER_BOUND ( 'NONE', #211, .T. ) ;
#209 = CARTESIAN_POINT ( 'NONE',  ( 0.0000000000000000000, 0.0000000000000000000, 1.485000000000000764 ) ) ;
#210 = AXIS2_PLACEMENT_3D ( 'NONE', #151, #36, #221 ) ;
#211 = EDGE_LOOP ( 'NONE', ( #259, #255, #105, #81 ) ) ;
#212 = APPLICATION_PROTOCOL_DEFINITION ( 'draft international standard', 'automotive_design', 1998, #102 ) ;
#213 = AXIS2_PLACEMENT_3D ( 'NONE', #218, #128, #249 ) ;
#214 = ORIENTED_EDGE ( 'NONE', *, *, #298, .F. ) ;
#215 = EDGE_CURVE ( 'NONE', #74, #169, #164, .T. ) ;
#216 = COLOUR_RGB ( '',0.7921568627450980005, 0.8196078431372548767, 0.9333333333333333481 ) ;
#217 = ORIENTED_EDGE ( 'NONE', *, *, #157, .T. ) ;
#218 = CARTESIAN_POINT ( 'NONE',  ( 2.337285635691549169E-34, 0.0000000000000000000, 1.908538557663203788E-18 ) ) ;
#219 = ADVANCED_FACE ( 'NONE', ( #180 ), #271, .T. ) ;
#220 = CARTESIAN_POINT ( 'NONE',  ( 0.0000000000000000000, 0.0000000000000000000, 1.500000000000000222 ) ) ;
#221 = DIRECTION ( 'NONE',  ( 1.000000000000000000, 0.0000000000000000000, -0.0000000000000000000 ) ) ;
#222 = DIRECTION ( 'NONE',  ( 0.0000000000000000000, 0.0000000000000000000, 1.000000000000000000 ) ) ;
#223 = VERTEX_POINT ( 'NONE', #245 ) ;
#224 = PRODUCT_DEFINITION ( 'UNKNOWN', '', #163, #270 ) ;
#225 = AXIS2_PLACEMENT_3D ( 'NONE', #58, #196, #153 ) ;
#226 = MECHANICAL_DESIGN_GEOMETRIC_PRESENTATION_REPRESENTATION (  '', ( #53 ), #50 ) ;
#227 =( NAMED_UNIT ( * ) PLANE_ANGLE_UNIT ( ) SI_UNIT ( $, .RADIAN. ) );
#228 = FACE_OUTER_BOUND ( 'NONE', #232, .T. ) ;
#229 = DIRECTION ( 'NONE',  ( 1.000000000000000000, 0.0000000000000000000, 0.0000000000000000000 ) ) ;
#230 = LENGTH_MEASURE_WITH_UNIT ( LENGTH_MEASURE( 0.02539999999999999897 ), #143 );
#231 = DIRECTION ( 'NONE',  ( 1.000000000000000000, 0.0000000000000000000, 0.0000000000000000000 ) ) ;
#232 = EDGE_LOOP ( 'NONE', ( #279, #217 ) ) ;
#233 = PRODUCT ( 'Micro_GEM-031-3', 'Micro_GEM-031-3', '', ( #22 ) ) ;
#234 = DIMENSIONAL_EXPONENTS ( 1.000000000000000000, 0.0000000000000000000, 0.0000000000000000000, 0.0000000000000000000, 0.0000000000000000000, 0.0000000000000000000, 0.0000000000000000000 ) ;
#235 = SHAPE_DEFINITION_REPRESENTATION ( #4, #145 ) ;
#236 = ORIENTED_EDGE ( 'NONE', *, *, #88, .F. ) ;
#237 = AXIS2_PLACEMENT_3D ( 'NONE', #110, #292, #133 ) ;
#238 = ORIENTED_EDGE ( 'NONE', *, *, #139, .F. ) ;
#239 = DIRECTION ( 'NONE',  ( -1.224646799147353700E-16, -0.0000000000000000000, -1.000000000000000000 ) ) ;
#240 = EDGE_CURVE ( 'NONE', #120, #223, #251, .T. ) ;
#241 = CARTESIAN_POINT ( 'NONE',  ( 9.552245033349369302E-18, 0.0000000000000000000, 0.07800000000000009703 ) ) ;
#242 =( GEOMETRIC_REPRESENTATION_CONTEXT ( 3 ) GLOBAL_UNCERTAINTY_ASSIGNED_CONTEXT ( ( #142 ) ) GLOBAL_UNIT_ASSIGNED_CONTEXT ( ( #258, #297, #244 ) ) REPRESENTATION_CONTEXT ( 'NONE', 'WORKASPACE' ) );
#243 = DIRECTION ( 'NONE',  ( -1.224646799147353700E-16, -0.0000000000000000000, -1.000000000000000000 ) ) ;
#244 =( NAMED_UNIT ( * ) SI_UNIT ( $, .STERADIAN. ) SOLID_ANGLE_UNIT ( ) );
#245 = CARTESIAN_POINT ( 'NONE',  ( -0.01558439999999999652, 4.781290526167081051E-18, 0.07800000000000009703 ) ) ;
#246 = PLANE ( 'NONE',  #28 ) ;
#247 = DIRECTION ( 'NONE',  ( -0.7071067811865462405, 0.0000000000000000000, -0.7071067811865486830 ) ) ;
#248 = ORIENTED_EDGE ( 'NONE', *, *, #148, .F. ) ;
#249 = DIRECTION ( 'NONE',  ( -1.000000000000000000, 0.0000000000000000000, 1.224646799147353700E-16 ) ) ;
#250 = CARTESIAN_POINT ( 'NONE',  ( 0.01558440000000000866, 1.908538557663202247E-18, -1.908538557663203017E-18 ) ) ;
#251 = CIRCLE ( 'NONE', #26, 0.01558440000000000519 ) ;
#252 =( LENGTH_UNIT ( ) NAMED_UNIT ( * ) SI_UNIT ( $, .METRE. ) );
#253 = CARTESIAN_POINT ( 'NONE',  ( 0.0000000000000000000, 0.0000000000000000000, 1.500000000000000222 ) ) ;
#254 = CONICAL_SURFACE ( 'NONE', #86, 0.04750000000000064587, 0.7853981633974466137 ) ;
#255 = ORIENTED_EDGE ( 'NONE', *, *, #298, .T. ) ;
#256 = ORIENTED_EDGE ( 'NONE', *, *, #93, .T. ) ;
#257 =( CONVERSION_BASED_UNIT ( 'INCH', #230 ) LENGTH_UNIT ( ) NAMED_UNIT ( #1 ) );
#258 =( CONVERSION_BASED_UNIT ( 'INCH', #75 ) LENGTH_UNIT ( ) NAMED_UNIT ( #158 ) );
#259 = ORIENTED_EDGE ( 'NONE', *, *, #215, .F. ) ;
#260 = AXIS2_PLACEMENT_3D ( 'NONE', #69, #175, #200 ) ;
#261 = ORIENTED_EDGE ( 'NONE', *, *, #82, .F. ) ;
#262 = CARTESIAN_POINT ( 'NONE',  ( 0.0000000000000000000, 0.0000000000000000000, 0.0000000000000000000 ) ) ;
#263 = FACE_OUTER_BOUND ( 'NONE', #23, .T. ) ;
#264 = DIRECTION ( 'NONE',  ( -0.1736481776669312194, 2.126576849575783625E-17, 0.9848077530122077983 ) ) ;
#265 = EDGE_LOOP ( 'NONE', ( #41, #156, #97, #248 ) ) ;
#266 = LINE ( 'NONE', #269, #45 ) ;
#267 = CARTESIAN_POINT ( 'NONE',  ( 9.552245033349369302E-18, 0.0000000000000000000, 0.07800000000000009703 ) ) ;
#268 = DIRECTION ( 'NONE',  ( -1.000000000000000000, 0.0000000000000000000, 0.0000000000000000000 ) ) ;
#269 = CARTESIAN_POINT ( 'NONE',  ( 0.04750000000000064587, 5.817072295950006528E-18, 1.500000000000000222 ) ) ;
#270 = PRODUCT_DEFINITION_CONTEXT ( 'detailed design', #102, 'design' ) ;
#271 = CYLINDRICAL_SURFACE ( 'NONE', #260, 0.06250000000000002776 ) ;
#272 = EDGE_LOOP ( 'NONE', ( #193, #55, #261, #71 ) ) ;
#273 = VECTOR ( 'NONE', #56, 39.37007874015748143 ) ;
#274 = CIRCLE ( 'NONE', #8, 0.04750000000000064587 ) ;
#275 = DIRECTION ( 'NONE',  ( -0.0000000000000000000, -0.0000000000000000000, -1.000000000000000000 ) ) ;
#276 = EDGE_CURVE ( 'NONE', #30, #52, #131, .T. ) ;
#277 = CARTESIAN_POINT ( 'NONE',  ( 0.0000000000000000000, 0.0000000000000000000, 1.485000000000000764 ) ) ;
#278 =( GEOMETRIC_REPRESENTATION_CONTEXT ( 3 ) GLOBAL_UNCERTAINTY_ASSIGNED_CONTEXT ( ( #99 ) ) GLOBAL_UNIT_ASSIGNED_CONTEXT ( ( #204, #227, #62 ) ) REPRESENTATION_CONTEXT ( 'NONE', 'WORKASPACE' ) );
#279 = ORIENTED_EDGE ( 'NONE', *, *, #119, .T. ) ;
#280 = EDGE_LOOP ( 'NONE', ( #236, #125, #256, #285 ) ) ;
#281 =( LENGTH_UNIT ( ) NAMED_UNIT ( * ) SI_UNIT ( $, .METRE. ) );
#282 = DIRECTION ( 'NONE',  ( 0.0000000000000000000, 0.0000000000000000000, 1.000000000000000000 ) ) ;
#283 = FILL_AREA_STYLE_COLOUR ( '', #76 ) ;
#284 = EDGE_CURVE ( 'NONE', #186, #169, #167, .T. ) ;
#285 = ORIENTED_EDGE ( 'NONE', *, *, #157, .F. ) ;
#286 = SURFACE_STYLE_USAGE ( .BOTH. , #184 ) ;
#287 = EDGE_CURVE ( 'NONE', #171, #30, #103, .T. ) ;
#288 = VERTEX_POINT ( 'NONE', #70 ) ;
#289 = AXIS2_PLACEMENT_3D ( 'NONE', #129, #201, #268 ) ;
#290 = CARTESIAN_POINT ( 'NONE',  ( -0.06249999999999997918, 0.0000000000000000000, 0.3440715893364552080 ) ) ;
#291 = FACE_OUTER_BOUND ( 'NONE', #63, .T. ) ;
#292 = DIRECTION ( 'NONE',  ( -1.224646799147353700E-16, -0.0000000000000000000, -1.000000000000000000 ) ) ;
#293 = LENGTH_MEASURE_WITH_UNIT ( LENGTH_MEASURE( 0.02539999999999999897 ), #252 );
#294 = FACE_OUTER_BOUND ( 'NONE', #162, .T. ) ;
#295 = VECTOR ( 'NONE', #195, 39.37007874015748143 ) ;
#296 = ORIENTED_EDGE ( 'NONE', *, *, #77, .F. ) ;
#297 =( NAMED_UNIT ( * ) PLANE_ANGLE_UNIT ( ) SI_UNIT ( $, .RADIAN. ) );
#298 = EDGE_CURVE ( 'NONE', #74, #52, #46, .T. ) ;
#299 = VECTOR ( 'NONE', #275, 39.37007874015748143 ) ;
ENDSEC;
END-ISO-10303-21;
