ISO-10303-21;
HEADER;
FILE_DESCRIPTION (( 'STEP AP214' ),
    '1' );
FILE_NAME ('81409.STEP',
    '2023-06-23T01:21:44',
    ( '' ),
    ( '' ),
    'SwSTEP 2.0',
    'SolidWorks 2023',
    '' );
FILE_SCHEMA (( 'AUTOMOTIVE_DESIGN' ));
ENDSEC;

DATA;
#1 = DIRECTION ( 'NONE',  ( -0.000000000000000000, -1.000000000000000000, -0.000000000000000000 ) ) ;
#2 = EDGE_CURVE ( 'NONE', #228, #293, #36, .T. ) ;
#3 = DIRECTION ( 'NONE',  ( -1.000000000000000000, 0.000000000000000000, 0.000000000000000000 ) ) ;
#4 = FILL_AREA_STYLE_COLOUR ( '', #163 ) ;
#5 = AXIS2_PLACEMENT_3D ( 'NONE', #227, #223, #39 ) ;
#6 = SURFACE_STYLE_USAGE ( .BOTH. , #82 ) ;
#7 = PRESENTATION_LAYER_ASSIGNMENT (  '', '', ( #301 ) ) ;
#8 =( CONVERSION_BASED_UNIT ( 'INCH', #174 ) LENGTH_UNIT ( ) NAMED_UNIT ( #265 ) );
#9 = ORIENTED_EDGE ( 'NONE', *, *, #45, .T. ) ;
#10 = CIRCLE ( 'NONE', #179, 0.1562500000000000000 ) ;
#11 = CIRCLE ( 'NONE', #144, 0.1562500000000000833 ) ;
#12 =( LENGTH_UNIT ( ) NAMED_UNIT ( * ) SI_UNIT ( $, .METRE. ) );
#13 = VERTEX_POINT ( 'NONE', #57 ) ;
#14 = DIRECTION ( 'NONE',  ( -1.000000000000000000, -3.061616997868386099E-17, 0.000000000000000000 ) ) ;
#15 = ORIENTED_EDGE ( 'NONE', *, *, #2, .F. ) ;
#16 = FACE_OUTER_BOUND ( 'NONE', #79, .T. ) ;
#17 = ORIENTED_EDGE ( 'NONE', *, *, #258, .F. ) ;
#18 = CARTESIAN_POINT ( 'NONE',  ( 0.000000000000000000, 0.000000000000000000, 0.000000000000000000 ) ) ;
#19 = EDGE_CURVE ( 'NONE', #13, #290, #295, .T. ) ;
#20 =( LENGTH_UNIT ( ) NAMED_UNIT ( * ) SI_UNIT ( $, .METRE. ) );
#21 = SURFACE_SIDE_STYLE ('',( #212 ) ) ;
#22 = ORIENTED_EDGE ( 'NONE', *, *, #152, .T. ) ;
#23 = ADVANCED_FACE ( 'NONE', ( #86 ), #245, .T. ) ;
#24 = MANIFOLD_SOLID_BREP ( 'Revolve - Cutting Edge', #189 ) ;
#25 = LINE ( 'NONE', #216, #130 ) ;
#26 = MANIFOLD_SOLID_BREP ( 'Revolve - Tool Body (Straight Shanked)', #183 ) ;
#27 =( NAMED_UNIT ( * ) SI_UNIT ( $, .STERADIAN. ) SOLID_ANGLE_UNIT ( ) );
#28 = DIRECTION ( 'NONE',  ( -3.061616997868386099E-17, 1.000000000000000000, -0.000000000000000000 ) ) ;
#29 = ORIENTED_EDGE ( 'NONE', *, *, #45, .F. ) ;
#30 = UNCERTAINTY_MEASURE_WITH_UNIT (LENGTH_MEASURE( 1.000000000000000082E-05 ), #279, 'distance_accuracy_value', 'NONE');
#31 = DIRECTION ( 'NONE',  ( -1.000000000000000000, 0.000000000000000000, 0.000000000000000000 ) ) ;
#32 = AXIS2_PLACEMENT_3D ( 'NONE', #18, #261, #308 ) ;
#33 = SURFACE_SIDE_STYLE ('',( #105 ) ) ;
#34 = FILL_AREA_STYLE ('',( #61 ) ) ;
#35 = ADVANCED_FACE ( 'NONE', ( #111 ), #305, .F. ) ;
#36 = LINE ( 'NONE', #224, #285 ) ;
#37 = CARTESIAN_POINT ( 'NONE',  ( -6.123233995736772199E-17, 3.000000000000000444, 0.000000000000000000 ) ) ;
#38 = FILL_AREA_STYLE_COLOUR ( '', #69 ) ;
#39 = DIRECTION ( 'NONE',  ( 0.000000000000000000, 0.000000000000000000, -1.000000000000000000 ) ) ;
#40 = SURFACE_SIDE_STYLE ('',( #214 ) ) ;
#41 = EDGE_CURVE ( 'NONE', #271, #293, #268, .T. ) ;
#42 = FILL_AREA_STYLE ('',( #90 ) ) ;
#43 = MECHANICAL_DESIGN_GEOMETRIC_PRESENTATION_REPRESENTATION (  '', ( #145 ), #148 ) ;
#44 = CARTESIAN_POINT ( 'NONE',  ( 0.000000000000000000, 0.000000000000000000, 0.000000000000000000 ) ) ;
#45 = EDGE_CURVE ( 'NONE', #228, #201, #112, .T. ) ;
#46 = AXIS2_PLACEMENT_3D ( 'NONE', #77, #125, #251 ) ;
#47 = PRESENTATION_LAYER_ASSIGNMENT (  '', '', ( #140 ) ) ;
#48 = CARTESIAN_POINT ( 'NONE',  ( -6.123233995736772199E-17, 3.000000000000000444, 0.000000000000000000 ) ) ;
#49 = APPLICATION_CONTEXT ( 'automotive_design' ) ;
#50 = SURFACE_SIDE_STYLE ('',( #239 ) ) ;
#51 = PRESENTATION_LAYER_ASSIGNMENT (  '', '', ( #230 ) ) ;
#52 = PRESENTATION_STYLE_ASSIGNMENT (( #241 ) ) ;
#53 = UNCERTAINTY_MEASURE_WITH_UNIT (LENGTH_MEASURE( 1.000000000000000082E-05 ), #219, 'distance_accuracy_value', 'NONE');
#54 = FACE_OUTER_BOUND ( 'NONE', #299, .T. ) ;
#55 = ORIENTED_EDGE ( 'NONE', *, *, #164, .T. ) ;
#56 = AXIS2_PLACEMENT_3D ( 'NONE', #221, #276, #14 ) ;
#57 = CARTESIAN_POINT ( 'NONE',  ( 0.1562500000000000000, 1.000000000000000000, 1.913510623667739771E-17 ) ) ;
#58 = AXIS2_PLACEMENT_3D ( 'NONE', #44, #131, #109 ) ;
#59 = DIRECTION ( 'NONE',  ( 0.000000000000000000, 0.000000000000000000, -1.000000000000000000 ) ) ;
#60 = ORIENTED_EDGE ( 'NONE', *, *, #181, .F. ) ;
#61 = FILL_AREA_STYLE_COLOUR ( '', #225 ) ;
#62 =( NAMED_UNIT ( * ) SI_UNIT ( $, .STERADIAN. ) SOLID_ANGLE_UNIT ( ) );
#63 = DIMENSIONAL_EXPONENTS ( 1.000000000000000000, 0.000000000000000000, 0.000000000000000000, 0.000000000000000000, 0.000000000000000000, 0.000000000000000000, 0.000000000000000000 ) ;
#64 = ORIENTED_EDGE ( 'NONE', *, *, #194, .T. ) ;
#65 = DIRECTION ( 'NONE',  ( 1.000000000000000000, 0.000000000000000000, 0.000000000000000000 ) ) ;
#66 = DIRECTION ( 'NONE',  ( 1.000000000000000000, 3.061616997868386099E-17, 0.000000000000000000 ) ) ;
#67 =( NAMED_UNIT ( * ) PLANE_ANGLE_UNIT ( ) SI_UNIT ( $, .RADIAN. ) );
#68 = LENGTH_MEASURE_WITH_UNIT ( LENGTH_MEASURE( 0.02539999999999999897 ), #210 );
#69 = COLOUR_RGB ( '',1.000000000000000000, 0.000000000000000000, 0.000000000000000000 ) ;
#70 =( GEOMETRIC_REPRESENTATION_CONTEXT ( 3 ) GLOBAL_UNCERTAINTY_ASSIGNED_CONTEXT ( ( #30 ) ) GLOBAL_UNIT_ASSIGNED_CONTEXT ( ( #279, #67, #132 ) ) REPRESENTATION_CONTEXT ( 'NONE', 'WORKASPACE' ) );
#71 =( NAMED_UNIT ( * ) PLANE_ANGLE_UNIT ( ) SI_UNIT ( $, .RADIAN. ) );
#72 = AXIS2_PLACEMENT_3D ( 'NONE', #146, #246, #59 ) ;
#73 =( NAMED_UNIT ( * ) SI_UNIT ( $, .STERADIAN. ) SOLID_ANGLE_UNIT ( ) );
#74 = ADVANCED_FACE ( 'NONE', ( #184 ), #159, .T. ) ;
#75 =( NAMED_UNIT ( * ) PLANE_ANGLE_UNIT ( ) SI_UNIT ( $, .RADIAN. ) );
#76 = MECHANICAL_DESIGN_GEOMETRIC_PRESENTATION_REPRESENTATION (  '', ( #198 ), #156 ) ;
#77 = CARTESIAN_POINT ( 'NONE',  ( 7.582401355855259480E-33, 1.000000000000000000, 0.000000000000000000 ) ) ;
#78 = PRESENTATION_STYLE_ASSIGNMENT (( #6 ) ) ;
#79 = EDGE_LOOP ( 'NONE', ( #226, #142 ) ) ;
#80 = PRESENTATION_STYLE_ASSIGNMENT (( #121 ) ) ;
#81 =( GEOMETRIC_REPRESENTATION_CONTEXT ( 3 ) GLOBAL_UNCERTAINTY_ASSIGNED_CONTEXT ( ( #238 ) ) GLOBAL_UNIT_ASSIGNED_CONTEXT ( ( #91, #302, #160 ) ) REPRESENTATION_CONTEXT ( 'NONE', 'WORKASPACE' ) );
#82 = SURFACE_SIDE_STYLE ('',( #102 ) ) ;
#83 = ORIENTED_EDGE ( 'NONE', *, *, #2, .T. ) ;
#84 = CARTESIAN_POINT ( 'NONE',  ( 1.913510623667739463E-17, 0.000000000000000000, 0.1562500000000000000 ) ) ;
#85 = ADVANCED_FACE ( 'NONE', ( #116 ), #133, .T. ) ;
#86 = FACE_OUTER_BOUND ( 'NONE', #250, .T. ) ;
#87 = CARTESIAN_POINT ( 'NONE',  ( 0.000000000000000000, 0.000000000000000000, 0.000000000000000000 ) ) ;
#88 = AXIS2_PLACEMENT_3D ( 'NONE', #267, #165, #168 ) ;
#89 = DIRECTION ( 'NONE',  ( 0.000000000000000000, 0.000000000000000000, -1.000000000000000000 ) ) ;
#90 = FILL_AREA_STYLE_COLOUR ( '', #193 ) ;
#91 =( CONVERSION_BASED_UNIT ( 'INCH', #68 ) LENGTH_UNIT ( ) NAMED_UNIT ( #166 ) );
#92 = AXIS2_PLACEMENT_3D ( 'NONE', #236, #309, #94 ) ;
#93 = AXIS2_PLACEMENT_3D ( 'NONE', #136, #217, #3 ) ;
#94 = DIRECTION ( 'NONE',  ( 0.000000000000000000, -0.000000000000000000, 1.000000000000000000 ) ) ;
#95 = LINE ( 'NONE', #192, #99 ) ;
#96 = AXIS2_PLACEMENT_3D ( 'NONE', #229, #208, #89 ) ;
#97 = PRESENTATION_STYLE_ASSIGNMENT (( #141 ) ) ;
#98 = ORIENTED_EDGE ( 'NONE', *, *, #194, .F. ) ;
#99 = VECTOR ( 'NONE', #281, 39.37007874015748143 ) ;
#100 = FILL_AREA_STYLE ('',( #4 ) ) ;
#101 =( NAMED_UNIT ( * ) SI_UNIT ( $, .STERADIAN. ) SOLID_ANGLE_UNIT ( ) );
#102 = SURFACE_STYLE_FILL_AREA ( #34 ) ;
#103 = EDGE_LOOP ( 'NONE', ( #98, #176 ) ) ;
#104 = FACE_OUTER_BOUND ( 'NONE', #103, .T. ) ;
#105 = SURFACE_STYLE_FILL_AREA ( #118 ) ;
#106 = LENGTH_MEASURE_WITH_UNIT ( LENGTH_MEASURE( 0.02539999999999999897 ), #12 );
#107 = PRODUCT_DEFINITION_SHAPE ( 'NONE', 'NONE',  #139 ) ;
#108 = ORIENTED_EDGE ( 'NONE', *, *, #41, .F. ) ;
#109 = DIRECTION ( 'NONE',  ( 0.000000000000000000, 0.000000000000000000, -1.000000000000000000 ) ) ;
#110 = AXIS2_PLACEMENT_3D ( 'NONE', #188, #162, #66 ) ;
#111 = FACE_OUTER_BOUND ( 'NONE', #182, .T. ) ;
#112 = CIRCLE ( 'NONE', #96, 0.1562500000000000000 ) ;
#113 = AXIS2_PLACEMENT_3D ( 'NONE', #149, #28, #31 ) ;
#114 = LENGTH_MEASURE_WITH_UNIT ( LENGTH_MEASURE( 0.02539999999999999897 ), #135 );
#115 =( LENGTH_UNIT ( ) NAMED_UNIT ( * ) SI_UNIT ( $, .METRE. ) );
#116 = FACE_OUTER_BOUND ( 'NONE', #248, .T. ) ;
#117 = ORIENTED_EDGE ( 'NONE', *, *, #164, .F. ) ;
#118 = FILL_AREA_STYLE ('',( #38 ) ) ;
#119 = AXIS2_PLACEMENT_3D ( 'NONE', #205, #252, #147 ) ;
#120 =( LENGTH_UNIT ( ) NAMED_UNIT ( * ) SI_UNIT ( $, .METRE. ) );
#121 = SURFACE_STYLE_USAGE ( .BOTH. , #33 ) ;
#122 = DIRECTION ( 'NONE',  ( -3.061616997868386099E-17, 1.000000000000000000, -0.000000000000000000 ) ) ;
#123 = ORIENTED_EDGE ( 'NONE', *, *, #258, .T. ) ;
#124 = ADVANCED_FACE ( 'NONE', ( #280 ), #263, .T. ) ;
#125 = DIRECTION ( 'NONE',  ( -3.061616997868386099E-17, 1.000000000000000000, -0.000000000000000000 ) ) ;
#126 = VECTOR ( 'NONE', #297, 39.37007874015748143 ) ;
#127 = ORIENTED_EDGE ( 'NONE', *, *, #181, .T. ) ;
#128 = MECHANICAL_DESIGN_GEOMETRIC_PRESENTATION_REPRESENTATION (  '', ( #209 ), #213 ) ;
#129 = PRESENTATION_STYLE_ASSIGNMENT (( #303 ) ) ;
#130 = VECTOR ( 'NONE', #1, 39.37007874015748143 ) ;
#131 = DIRECTION ( 'NONE',  ( -0.000000000000000000, -1.000000000000000000, -0.000000000000000000 ) ) ;
#132 =( NAMED_UNIT ( * ) SI_UNIT ( $, .STERADIAN. ) SOLID_ANGLE_UNIT ( ) );
#133 = PLANE ( 'NONE',  #92 ) ;
#134 = MECHANICAL_DESIGN_GEOMETRIC_PRESENTATION_REPRESENTATION (  '', ( #301 ), #306 ) ;
#135 =( LENGTH_UNIT ( ) NAMED_UNIT ( * ) SI_UNIT ( $, .METRE. ) );
#136 = CARTESIAN_POINT ( 'NONE',  ( -6.123233995736772199E-17, 3.000000000000000444, 0.000000000000000000 ) ) ;
#137 = DIMENSIONAL_EXPONENTS ( 1.000000000000000000, 0.000000000000000000, 0.000000000000000000, 0.000000000000000000, 0.000000000000000000, 0.000000000000000000, 0.000000000000000000 ) ;
#138 = LENGTH_MEASURE_WITH_UNIT ( LENGTH_MEASURE( 0.02539999999999999897 ), #115 );
#139 = PRODUCT_DEFINITION ( 'UNKNOWN', '', #256, #262 ) ;
#140 = STYLED_ITEM ( 'NONE', ( #80 ), #23 ) ;
#141 = SURFACE_STYLE_USAGE ( .BOTH. , #266 ) ;
#142 = ORIENTED_EDGE ( 'NONE', *, *, #41, .T. ) ;
#143 =( CONVERSION_BASED_UNIT ( 'INCH', #106 ) LENGTH_UNIT ( ) NAMED_UNIT ( #195 ) );
#144 = AXIS2_PLACEMENT_3D ( 'NONE', #37, #122, #294 ) ;
#145 = STYLED_ITEM ( 'NONE', ( #78 ), #253 ) ;
#146 = CARTESIAN_POINT ( 'NONE',  ( 0.000000000000000000, 0.000000000000000000, 0.000000000000000000 ) ) ;
#147 = DIRECTION ( 'NONE',  ( -1.000000000000000000, 0.000000000000000000, 0.000000000000000000 ) ) ;
#148 =( GEOMETRIC_REPRESENTATION_CONTEXT ( 3 ) GLOBAL_UNCERTAINTY_ASSIGNED_CONTEXT ( ( #243 ) ) GLOBAL_UNIT_ASSIGNED_CONTEXT ( ( #143, #274, #101 ) ) REPRESENTATION_CONTEXT ( 'NONE', 'WORKASPACE' ) );
#149 = CARTESIAN_POINT ( 'NONE',  ( -6.123233995736772199E-17, 3.000000000000000444, 0.000000000000000000 ) ) ;
#150 = ORIENTED_EDGE ( 'NONE', *, *, #235, .F. ) ;
#151 = LINE ( 'NONE', #284, #126 ) ;
#152 = EDGE_CURVE ( 'NONE', #201, #271, #25, .T. ) ;
#153 = ORIENTED_EDGE ( 'NONE', *, *, #282, .F. ) ;
#154 = DIRECTION ( 'NONE',  ( -0.000000000000000000, -1.000000000000000000, -0.000000000000000000 ) ) ;
#155 = DIRECTION ( 'NONE',  ( -0.000000000000000000, -1.000000000000000000, -0.000000000000000000 ) ) ;
#156 =( GEOMETRIC_REPRESENTATION_CONTEXT ( 3 ) GLOBAL_UNCERTAINTY_ASSIGNED_CONTEXT ( ( #167 ) ) GLOBAL_UNIT_ASSIGNED_CONTEXT ( ( #257, #211, #300 ) ) REPRESENTATION_CONTEXT ( 'NONE', 'WORKASPACE' ) );
#157 = SHAPE_DEFINITION_REPRESENTATION ( #107, #185 ) ;
#158 = CIRCLE ( 'NONE', #93, 0.1562500000000000833 ) ;
#159 = CYLINDRICAL_SURFACE ( 'NONE', #88, 0.1562500000000000000 ) ;
#160 =( NAMED_UNIT ( * ) SI_UNIT ( $, .STERADIAN. ) SOLID_ANGLE_UNIT ( ) );
#161 = APPLICATION_PROTOCOL_DEFINITION ( 'draft international standard', 'automotive_design', 1998, #49 ) ;
#162 = DIRECTION ( 'NONE',  ( 3.061616997868386099E-17, -1.000000000000000000, 0.000000000000000000 ) ) ;
#163 = COLOUR_RGB ( '',1.000000000000000000, 0.000000000000000000, 0.000000000000000000 ) ;
#164 = EDGE_CURVE ( 'NONE', #13, #277, #95, .T. ) ;
#165 = DIRECTION ( 'NONE',  ( -0.000000000000000000, -1.000000000000000000, -0.000000000000000000 ) ) ;
#166 = DIMENSIONAL_EXPONENTS ( 1.000000000000000000, 0.000000000000000000, 0.000000000000000000, 0.000000000000000000, 0.000000000000000000, 0.000000000000000000, 0.000000000000000000 ) ;
#167 = UNCERTAINTY_MEASURE_WITH_UNIT (LENGTH_MEASURE( 1.000000000000000082E-05 ), #257, 'distance_accuracy_value', 'NONE');
#168 = DIRECTION ( 'NONE',  ( 0.000000000000000000, 0.000000000000000000, -1.000000000000000000 ) ) ;
#169 = PRESENTATION_LAYER_ASSIGNMENT (  '', '', ( #198 ) ) ;
#170 = UNCERTAINTY_MEASURE_WITH_UNIT (LENGTH_MEASURE( 1.000000000000000082E-05 ), #8, 'distance_accuracy_value', 'NONE');
#171 = CARTESIAN_POINT ( 'NONE',  ( 0.000000000000000000, 0.000000000000000000, 0.000000000000000000 ) ) ;
#172 = EDGE_LOOP ( 'NONE', ( #296, #207, #83, #108 ) ) ;
#173 = CYLINDRICAL_SURFACE ( 'NONE', #113, 0.1562500000000000278 ) ;
#174 = LENGTH_MEASURE_WITH_UNIT ( LENGTH_MEASURE( 0.02539999999999999897 ), #222 );
#175 = COLOUR_RGB ( '',0.7921568627450980005, 0.8196078431372548767, 0.9333333333333333481 ) ;
#176 = ORIENTED_EDGE ( 'NONE', *, *, #19, .F. ) ;
#177 = CARTESIAN_POINT ( 'NONE',  ( -0.1562500000000000000, 1.000000000000000000, 0.000000000000000000 ) ) ;
#178 = EDGE_LOOP ( 'NONE', ( #64, #55, #60, #17 ) ) ;
#179 = AXIS2_PLACEMENT_3D ( 'NONE', #171, #154, #244 ) ;
#180 = APPLICATION_PROTOCOL_DEFINITION ( 'draft international standard', 'automotive_design', 1998, #288 ) ;
#181 = EDGE_CURVE ( 'NONE', #242, #277, #158, .T. ) ;
#182 = EDGE_LOOP ( 'NONE', ( #127, #200 ) ) ;
#183 = CLOSED_SHELL ( 'NONE', ( #124, #196, #307, #35 ) ) ;
#184 = FACE_OUTER_BOUND ( 'NONE', #172, .T. ) ;
#185 = ADVANCED_BREP_SHAPE_REPRESENTATION ( '81409', ( #24, #26, #291 ), #70 ) ;
#186 = FILL_AREA_STYLE_COLOUR ( '', #175 ) ;
#187 = LENGTH_MEASURE_WITH_UNIT ( LENGTH_MEASURE( 0.02539999999999999897 ), #120 );
#188 = CARTESIAN_POINT ( 'NONE',  ( 0.1562500000000000000, 3.000000000000000444, 0.000000000000000000 ) ) ;
#189 = CLOSED_SHELL ( 'NONE', ( #23, #85, #74, #253 ) ) ;
#190 = FILL_AREA_STYLE ('',( #186 ) ) ;
#191 = DIMENSIONAL_EXPONENTS ( 1.000000000000000000, 0.000000000000000000, 0.000000000000000000, 0.000000000000000000, 0.000000000000000000, 0.000000000000000000, 0.000000000000000000 ) ;
#192 = CARTESIAN_POINT ( 'NONE',  ( 0.1562499999999999722, 3.000000000000000444, 1.913510623667739771E-17 ) ) ;
#193 = COLOUR_RGB ( '',0.7921568627450980005, 0.8196078431372548767, 0.9333333333333333481 ) ;
#194 = EDGE_CURVE ( 'NONE', #290, #13, #275, .T. ) ;
#195 = DIMENSIONAL_EXPONENTS ( 1.000000000000000000, 0.000000000000000000, 0.000000000000000000, 0.000000000000000000, 0.000000000000000000, 0.000000000000000000, 0.000000000000000000 ) ;
#196 = ADVANCED_FACE ( 'NONE', ( #104 ), #199, .F. ) ;
#197 = SURFACE_STYLE_FILL_AREA ( #100 ) ;
#198 = STYLED_ITEM ( 'NONE', ( #129 ), #24 ) ;
#199 = PLANE ( 'NONE',  #56 ) ;
#200 = ORIENTED_EDGE ( 'NONE', *, *, #202, .T. ) ;
#201 = VERTEX_POINT ( 'NONE', #203 ) ;
#202 = EDGE_CURVE ( 'NONE', #277, #242, #11, .T. ) ;
#203 = CARTESIAN_POINT ( 'NONE',  ( 1.913510623667739463E-17, 1.000000000000000000, 0.1562500000000000000 ) ) ;
#204 = CARTESIAN_POINT ( 'NONE',  ( 0.000000000000000000, 1.000000000000000000, -0.1562500000000000000 ) ) ;
#205 = CARTESIAN_POINT ( 'NONE',  ( 7.582401355855259480E-33, 1.000000000000000000, 0.000000000000000000 ) ) ;
#206 = DIRECTION ( 'NONE',  ( 0.000000000000000000, 0.000000000000000000, 1.000000000000000000 ) ) ;
#207 = ORIENTED_EDGE ( 'NONE', *, *, #235, .T. ) ;
#208 = DIRECTION ( 'NONE',  ( -0.000000000000000000, -1.000000000000000000, -0.000000000000000000 ) ) ;
#209 = STYLED_ITEM ( 'NONE', ( #97 ), #85 ) ;
#210 =( LENGTH_UNIT ( ) NAMED_UNIT ( * ) SI_UNIT ( $, .METRE. ) );
#211 =( NAMED_UNIT ( * ) PLANE_ANGLE_UNIT ( ) SI_UNIT ( $, .RADIAN. ) );
#212 = SURFACE_STYLE_FILL_AREA ( #42 ) ;
#213 =( GEOMETRIC_REPRESENTATION_CONTEXT ( 3 ) GLOBAL_UNCERTAINTY_ASSIGNED_CONTEXT ( ( #234 ) ) GLOBAL_UNIT_ASSIGNED_CONTEXT ( ( #220, #71, #27 ) ) REPRESENTATION_CONTEXT ( 'NONE', 'WORKASPACE' ) );
#214 = SURFACE_STYLE_FILL_AREA ( #190 ) ;
#215 = DIMENSIONAL_EXPONENTS ( 1.000000000000000000, 0.000000000000000000, 0.000000000000000000, 0.000000000000000000, 0.000000000000000000, 0.000000000000000000, 0.000000000000000000 ) ;
#216 = CARTESIAN_POINT ( 'NONE',  ( 1.913510623667739463E-17, 0.000000000000000000, 0.1562500000000000000 ) ) ;
#217 = DIRECTION ( 'NONE',  ( -3.061616997868386099E-17, 1.000000000000000000, -0.000000000000000000 ) ) ;
#218 =( GEOMETRIC_REPRESENTATION_CONTEXT ( 3 ) GLOBAL_UNCERTAINTY_ASSIGNED_CONTEXT ( ( #170 ) ) GLOBAL_UNIT_ASSIGNED_CONTEXT ( ( #8, #273, #62 ) ) REPRESENTATION_CONTEXT ( 'NONE', 'WORKASPACE' ) );
#219 =( CONVERSION_BASED_UNIT ( 'INCH', #138 ) LENGTH_UNIT ( ) NAMED_UNIT ( #191 ) );
#220 =( CONVERSION_BASED_UNIT ( 'INCH', #114 ) LENGTH_UNIT ( ) NAMED_UNIT ( #215 ) );
#221 = CARTESIAN_POINT ( 'NONE',  ( 7.323045813778616568E-35, 1.000000000000000000, 0.000000000000000000 ) ) ;
#222 =( LENGTH_UNIT ( ) NAMED_UNIT ( * ) SI_UNIT ( $, .METRE. ) );
#223 = DIRECTION ( 'NONE',  ( -0.000000000000000000, -1.000000000000000000, -0.000000000000000000 ) ) ;
#224 = CARTESIAN_POINT ( 'NONE',  ( 0.000000000000000000, 0.000000000000000000, -0.1562500000000000000 ) ) ;
#225 = COLOUR_RGB ( '',1.000000000000000000, 0.000000000000000000, 0.000000000000000000 ) ;
#226 = ORIENTED_EDGE ( 'NONE', *, *, #282, .T. ) ;
#227 = CARTESIAN_POINT ( 'NONE',  ( 0.000000000000000000, 1.000000000000000000, 0.000000000000000000 ) ) ;
#228 = VERTEX_POINT ( 'NONE', #204 ) ;
#229 = CARTESIAN_POINT ( 'NONE',  ( 0.000000000000000000, 1.000000000000000000, 0.000000000000000000 ) ) ;
#230 = STYLED_ITEM ( 'NONE', ( #278 ), #26 ) ;
#231 = PRODUCT_CONTEXT ( 'NONE', #49, 'mechanical' ) ;
#232 = FILL_AREA_STYLE ('',( #259 ) ) ;
#233 = LENGTH_MEASURE_WITH_UNIT ( LENGTH_MEASURE( 0.02539999999999999897 ), #20 );
#234 = UNCERTAINTY_MEASURE_WITH_UNIT (LENGTH_MEASURE( 1.000000000000000082E-05 ), #220, 'distance_accuracy_value', 'NONE');
#235 = EDGE_CURVE ( 'NONE', #201, #228, #264, .T. ) ;
#236 = CARTESIAN_POINT ( 'NONE',  ( 0.000000000000000000, 1.000000000000000000, 0.000000000000000000 ) ) ;
#237 = DIRECTION ( 'NONE',  ( -1.000000000000000000, 0.000000000000000000, 0.000000000000000000 ) ) ;
#238 = UNCERTAINTY_MEASURE_WITH_UNIT (LENGTH_MEASURE( 1.000000000000000082E-05 ), #91, 'distance_accuracy_value', 'NONE');
#239 = SURFACE_STYLE_FILL_AREA ( #232 ) ;
#240 = MECHANICAL_DESIGN_GEOMETRIC_PRESENTATION_REPRESENTATION (  '', ( #140 ), #218 ) ;
#241 = SURFACE_STYLE_USAGE ( .BOTH. , #50 ) ;
#242 = VERTEX_POINT ( 'NONE', #286 ) ;
#243 = UNCERTAINTY_MEASURE_WITH_UNIT (LENGTH_MEASURE( 1.000000000000000082E-05 ), #143, 'distance_accuracy_value', 'NONE');
#244 = DIRECTION ( 'NONE',  ( 0.000000000000000000, 0.000000000000000000, -1.000000000000000000 ) ) ;
#245 = CYLINDRICAL_SURFACE ( 'NONE', #58, 0.1562500000000000000 ) ;
#246 = DIRECTION ( 'NONE',  ( 0.000000000000000000, -1.000000000000000000, -0.000000000000000000 ) ) ;
#247 = ORIENTED_EDGE ( 'NONE', *, *, #19, .T. ) ;
#248 = EDGE_LOOP ( 'NONE', ( #29, #150 ) ) ;
#249 = CARTESIAN_POINT ( 'NONE',  ( 0.1562500000000000000, 3.000000000000000444, 1.913510623667739771E-17 ) ) ;
#250 = EDGE_LOOP ( 'NONE', ( #9, #22, #153, #15 ) ) ;
#251 = DIRECTION ( 'NONE',  ( -1.000000000000000000, 0.000000000000000000, 0.000000000000000000 ) ) ;
#252 = DIRECTION ( 'NONE',  ( -3.061616997868386099E-17, 1.000000000000000000, -0.000000000000000000 ) ) ;
#253 = ADVANCED_FACE ( 'NONE', ( #16 ), #292, .T. ) ;
#254 = MECHANICAL_DESIGN_GEOMETRIC_PRESENTATION_REPRESENTATION (  '', ( #230 ), #81 ) ;
#255 = SURFACE_STYLE_USAGE ( .BOTH. , #40 ) ;
#256 = PRODUCT_DEFINITION_FORMATION_WITH_SPECIFIED_SOURCE ( 'ANY', '', #289, .NOT_KNOWN. ) ;
#257 =( CONVERSION_BASED_UNIT ( 'INCH', #233 ) LENGTH_UNIT ( ) NAMED_UNIT ( #137 ) );
#258 = EDGE_CURVE ( 'NONE', #290, #242, #151, .T. ) ;
#259 = FILL_AREA_STYLE_COLOUR ( '', #260 ) ;
#260 = COLOUR_RGB ( '',1.000000000000000000, 0.000000000000000000, 0.000000000000000000 ) ;
#261 = DIRECTION ( 'NONE',  ( -0.000000000000000000, -1.000000000000000000, -0.000000000000000000 ) ) ;
#262 = PRODUCT_DEFINITION_CONTEXT ( 'detailed design', #288, 'design' ) ;
#263 = CYLINDRICAL_SURFACE ( 'NONE', #269, 0.1562500000000000278 ) ;
#264 = CIRCLE ( 'NONE', #5, 0.1562500000000000000 ) ;
#265 = DIMENSIONAL_EXPONENTS ( 1.000000000000000000, 0.000000000000000000, 0.000000000000000000, 0.000000000000000000, 0.000000000000000000, 0.000000000000000000, 0.000000000000000000 ) ;
#266 = SURFACE_SIDE_STYLE ('',( #197 ) ) ;
#267 = CARTESIAN_POINT ( 'NONE',  ( 0.000000000000000000, 0.000000000000000000, 0.000000000000000000 ) ) ;
#268 = CIRCLE ( 'NONE', #32, 0.1562500000000000000 ) ;
#269 = AXIS2_PLACEMENT_3D ( 'NONE', #48, #283, #237 ) ;
#270 = CARTESIAN_POINT ( 'NONE',  ( 0.000000000000000000, 0.000000000000000000, -0.1562500000000000000 ) ) ;
#271 = VERTEX_POINT ( 'NONE', #84 ) ;
#272 = PRESENTATION_LAYER_ASSIGNMENT (  '', '', ( #209 ) ) ;
#273 =( NAMED_UNIT ( * ) PLANE_ANGLE_UNIT ( ) SI_UNIT ( $, .RADIAN. ) );
#274 =( NAMED_UNIT ( * ) PLANE_ANGLE_UNIT ( ) SI_UNIT ( $, .RADIAN. ) );
#275 = CIRCLE ( 'NONE', #46, 0.1562500000000000000 ) ;
#276 = DIRECTION ( 'NONE',  ( -3.061616997868386099E-17, 1.000000000000000000, 0.000000000000000000 ) ) ;
#277 = VERTEX_POINT ( 'NONE', #249 ) ;
#278 = PRESENTATION_STYLE_ASSIGNMENT (( #255 ) ) ;
#279 =( CONVERSION_BASED_UNIT ( 'INCH', #187 ) LENGTH_UNIT ( ) NAMED_UNIT ( #63 ) );
#280 = FACE_OUTER_BOUND ( 'NONE', #178, .T. ) ;
#281 = DIRECTION ( 'NONE',  ( -3.061616997868386099E-17, 1.000000000000000000, -0.000000000000000000 ) ) ;
#282 = EDGE_CURVE ( 'NONE', #293, #271, #10, .T. ) ;
#283 = DIRECTION ( 'NONE',  ( -3.061616997868386099E-17, 1.000000000000000000, -0.000000000000000000 ) ) ;
#284 = CARTESIAN_POINT ( 'NONE',  ( -0.1562500000000001110, 3.000000000000000444, 0.000000000000000000 ) ) ;
#285 = VECTOR ( 'NONE', #155, 39.37007874015748143 ) ;
#286 = CARTESIAN_POINT ( 'NONE',  ( -0.1562500000000001388, 3.000000000000000444, 0.000000000000000000 ) ) ;
#287 = PRODUCT_RELATED_PRODUCT_CATEGORY ( 'part', '', ( #289 ) ) ;
#288 = APPLICATION_CONTEXT ( 'automotive_design' ) ;
#289 = PRODUCT ( '81409', '81409', '', ( #231 ) ) ;
#290 = VERTEX_POINT ( 'NONE', #177 ) ;
#291 = AXIS2_PLACEMENT_3D ( 'NONE', #87, #206, #65 ) ;
#292 = PLANE ( 'NONE',  #72 ) ;
#293 = VERTEX_POINT ( 'NONE', #270 ) ;
#294 = DIRECTION ( 'NONE',  ( -1.000000000000000000, 0.000000000000000000, 0.000000000000000000 ) ) ;
#295 = CIRCLE ( 'NONE', #119, 0.1562500000000000000 ) ;
#296 = ORIENTED_EDGE ( 'NONE', *, *, #152, .F. ) ;
#297 = DIRECTION ( 'NONE',  ( -3.061616997868386099E-17, 1.000000000000000000, -0.000000000000000000 ) ) ;
#298 = ORIENTED_EDGE ( 'NONE', *, *, #202, .F. ) ;
#299 = EDGE_LOOP ( 'NONE', ( #117, #247, #123, #298 ) ) ;
#300 =( NAMED_UNIT ( * ) SI_UNIT ( $, .STERADIAN. ) SOLID_ANGLE_UNIT ( ) );
#301 = STYLED_ITEM ( 'NONE', ( #52 ), #74 ) ;
#302 =( NAMED_UNIT ( * ) PLANE_ANGLE_UNIT ( ) SI_UNIT ( $, .RADIAN. ) );
#303 = SURFACE_STYLE_USAGE ( .BOTH. , #21 ) ;
#304 = PRESENTATION_LAYER_ASSIGNMENT (  '', '', ( #145 ) ) ;
#305 = PLANE ( 'NONE',  #110 ) ;
#306 =( GEOMETRIC_REPRESENTATION_CONTEXT ( 3 ) GLOBAL_UNCERTAINTY_ASSIGNED_CONTEXT ( ( #53 ) ) GLOBAL_UNIT_ASSIGNED_CONTEXT ( ( #219, #75, #73 ) ) REPRESENTATION_CONTEXT ( 'NONE', 'WORKASPACE' ) );
#307 = ADVANCED_FACE ( 'NONE', ( #54 ), #173, .T. ) ;
#308 = DIRECTION ( 'NONE',  ( 0.000000000000000000, 0.000000000000000000, -1.000000000000000000 ) ) ;
#309 = DIRECTION ( 'NONE',  ( 0.000000000000000000, 1.000000000000000000, 0.000000000000000000 ) ) ;
ENDSEC;
END-ISO-10303-21;
