ISO-10303-21;
HEADER;
FILE_DESCRIPTION (( 'STEP AP214' ),
    '1' );
FILE_NAME ('Micro_GEC-250-4-010.STEP',
    '2021-09-03T17:15:28',
    ( '' ),
    ( '' ),
    'SwSTEP 2.0',
    'SolidWorks 2020',
    '' );
FILE_SCHEMA (( 'AUTOMOTIVE_DESIGN' ));
ENDSEC;

DATA;
#1 = EDGE_CURVE ( 'NONE', #314, #16, #34, .T. ) ;
#2 = FACE_OUTER_BOUND ( 'NONE', #163, .T. ) ;
#3 = ORIENTED_EDGE ( 'NONE', *, *, #66, .F. ) ;
#4 = AXIS2_PLACEMENT_3D ( 'NONE', #101, #340, #142 ) ;
#5 = CARTESIAN_POINT ( 'NONE',  ( 0.0000000000000000000, 0.0000000000000000000, 2.485000000000000320 ) ) ;
#6 = DIRECTION ( 'NONE',  ( 0.0000000000000000000, 0.0000000000000000000, 1.000000000000000000 ) ) ;
#7 = ORIENTED_EDGE ( 'NONE', *, *, #156, .F. ) ;
#8 = ADVANCED_FACE ( 'NONE', ( #248 ), #128, .T. ) ;
#9 = LENGTH_MEASURE_WITH_UNIT ( LENGTH_MEASURE( 0.02539999999999999897 ), #99 );
#10 = PRODUCT_RELATED_PRODUCT_CATEGORY ( 'part', '', ( #330 ) ) ;
#11 = AXIS2_PLACEMENT_3D ( 'NONE', #92, #251, #64 ) ;
#12 = LENGTH_MEASURE_WITH_UNIT ( LENGTH_MEASURE( 0.02539999999999999897 ), #104 );
#13 = EDGE_CURVE ( 'NONE', #16, #81, #108, .T. ) ;
#14 = VECTOR ( 'NONE', #263, 39.37007874015748143 ) ;
#15 = EDGE_CURVE ( 'NONE', #48, #44, #289, .T. ) ;
#16 = VERTEX_POINT ( 'NONE', #90 ) ;
#17 = CARTESIAN_POINT ( 'NONE',  ( 0.1248750000000000970, 0.0000000000000000000, 0.7500000000000001110 ) ) ;
#18 = ADVANCED_FACE ( 'NONE', ( #203 ), #83, .T. ) ;
#19 = COLOUR_RGB ( '',0.7921568627450980005, 0.8196078431372548767, 0.9333333333333333481 ) ;
#20 = DIRECTION ( 'NONE',  ( 0.1736481776669313026, 0.0000000000000000000, 0.9848077530122077983 ) ) ;
#21 = EDGE_CURVE ( 'NONE', #186, #44, #181, .T. ) ;
#22 = ORIENTED_EDGE ( 'NONE', *, *, #217, .F. ) ;
#23 = DIRECTION ( 'NONE',  ( 1.000000000000000000, 0.0000000000000000000, 0.0000000000000000000 ) ) ;
#24 = UNCERTAINTY_MEASURE_WITH_UNIT (LENGTH_MEASURE( 1.000000000000000082E-05 ), #252, 'distance_accuracy_value', 'NONE');
#25 = ORIENTED_EDGE ( 'NONE', *, *, #194, .F. ) ;
#26 = DIRECTION ( 'NONE',  ( 1.000000000000000000, 0.0000000000000000000, 0.0000000000000000000 ) ) ;
#27 = CARTESIAN_POINT ( 'NONE',  ( 0.1250000000000000000, 1.530808498934191509E-17, 2.500000000000000000 ) ) ;
#28 = DIRECTION ( 'NONE',  ( -0.0000000000000000000, -0.0000000000000000000, -1.000000000000000000 ) ) ;
#29 = LINE ( 'NONE', #27, #51 ) ;
#30 = LINE ( 'NONE', #120, #304 ) ;
#31 = ORIENTED_EDGE ( 'NONE', *, *, #306, .T. ) ;
#32 = AXIS2_PLACEMENT_3D ( 'NONE', #114, #235, #265 ) ;
#33 = CIRCLE ( 'NONE', #345, 0.1248749999999999999 ) ;
#34 = LINE ( 'NONE', #255, #103 ) ;
#35 =( NAMED_UNIT ( * ) SI_UNIT ( $, .STERADIAN. ) SOLID_ANGLE_UNIT ( ) );
#36 = CARTESIAN_POINT ( 'NONE',  ( 9.184850993605150903E-17, 0.0000000000000000000, 0.7500000000000001110 ) ) ;
#37 = ADVANCED_FACE ( 'NONE', ( #346 ), #244, .T. ) ;
#38 = UNCERTAINTY_MEASURE_WITH_UNIT (LENGTH_MEASURE( 1.000000000000000082E-05 ), #320, 'distance_accuracy_value', 'NONE');
#39 = FACE_OUTER_BOUND ( 'NONE', #106, .T. ) ;
#40 = ORIENTED_EDGE ( 'NONE', *, *, #156, .T. ) ;
#41 = AXIS2_PLACEMENT_3D ( 'NONE', #287, #169, #347 ) ;
#42 = EDGE_CURVE ( 'NONE', #229, #98, #113, .T. ) ;
#43 = CLOSED_SHELL ( 'NONE', ( #70, #8, #258, #139, #240, #37, #18, #118, #180, #344, #268, #335 ) ) ;
#44 = VERTEX_POINT ( 'NONE', #259 ) ;
#45 = EDGE_LOOP ( 'NONE', ( #283, #303, #284, #56 ) ) ;
#46 = EDGE_LOOP ( 'NONE', ( #280, #74, #82, #25 ) ) ;
#47 = ORIENTED_EDGE ( 'NONE', *, *, #111, .T. ) ;
#48 = VERTEX_POINT ( 'NONE', #282 ) ;
#49 = DIRECTION ( 'NONE',  ( 0.0000000000000000000, 0.0000000000000000000, 1.000000000000000000 ) ) ;
#50 = ORIENTED_EDGE ( 'NONE', *, *, #170, .T. ) ;
#51 = VECTOR ( 'NONE', #147, 39.37007874015748143 ) ;
#52 = CIRCLE ( 'NONE', #305, 0.1148750000000000049 ) ;
#53 = LINE ( 'NONE', #17, #243 ) ;
#54 = DIRECTION ( 'NONE',  ( 0.0000000000000000000, -1.000000000000000000, 0.0000000000000000000 ) ) ;
#55 = DIRECTION ( 'NONE',  ( 0.0000000000000000000, 0.0000000000000000000, 1.000000000000000000 ) ) ;
#56 = ORIENTED_EDGE ( 'NONE', *, *, #77, .T. ) ;
#57 = DIRECTION ( 'NONE',  ( -1.000000000000000000, 0.0000000000000000000, 0.0000000000000000000 ) ) ;
#58 = CARTESIAN_POINT ( 'NONE',  ( 0.1248750000000000970, 0.0000000000000000000, 0.7500000000000001110 ) ) ;
#59 = DIRECTION ( 'NONE',  ( -1.000000000000000000, 0.0000000000000000000, 1.224646799147353454E-16 ) ) ;
#60 = CARTESIAN_POINT ( 'NONE',  ( 0.0000000000000000000, 0.0000000000000000000, 2.500000000000000000 ) ) ;
#61 = CONICAL_SURFACE ( 'NONE', #155, 0.1248749999999999999, 0.1745329251994338082 ) ;
#62 = DIRECTION ( 'NONE',  ( 1.000000000000000000, 0.0000000000000000000, 0.0000000000000000000 ) ) ;
#63 = FACE_OUTER_BOUND ( 'NONE', #232, .T. ) ;
#64 = DIRECTION ( 'NONE',  ( -1.000000000000000000, 0.0000000000000000000, 0.0000000000000000000 ) ) ;
#65 = EDGE_LOOP ( 'NONE', ( #328, #261 ) ) ;
#66 = EDGE_CURVE ( 'NONE', #314, #98, #53, .T. ) ;
#67 = FACE_OUTER_BOUND ( 'NONE', #197, .T. ) ;
#68 = AXIS2_PLACEMENT_3D ( 'NONE', #286, #293, #59 ) ;
#69 = PRODUCT_DEFINITION_SHAPE ( 'NONE', 'NONE',  #137 ) ;
#70 = ADVANCED_FACE ( 'NONE', ( #334 ), #322, .T. ) ;
#71 = DIRECTION ( 'NONE',  ( 1.000000000000000000, 0.0000000000000000000, 0.0000000000000000000 ) ) ;
#72 = CARTESIAN_POINT ( 'NONE',  ( 0.1250000000000000000, 1.530808498934191509E-17, 2.485000000000000320 ) ) ;
#73 = CARTESIAN_POINT ( 'NONE',  ( 0.0000000000000000000, 0.0000000000000000000, 0.0000000000000000000 ) ) ;
#74 = ORIENTED_EDGE ( 'NONE', *, *, #1, .T. ) ;
#75 = DIRECTION ( 'NONE',  ( -0.7071067811865499042, 0.0000000000000000000, -0.7071067811865451302 ) ) ;
#76 = VECTOR ( 'NONE', #201, 39.37007874015747433 ) ;
#77 = EDGE_CURVE ( 'NONE', #81, #16, #211, .T. ) ;
#78 = AXIS2_PLACEMENT_3D ( 'NONE', #348, #116, #291 ) ;
#79 = DIRECTION ( 'NONE',  ( 0.0000000000000000000, 0.0000000000000000000, 1.000000000000000000 ) ) ;
#80 = ORIENTED_EDGE ( 'NONE', *, *, #302, .T. ) ;
#81 = VERTEX_POINT ( 'NONE', #177 ) ;
#82 = ORIENTED_EDGE ( 'NONE', *, *, #13, .T. ) ;
#83 = PLANE ( 'NONE',  #188 ) ;
#84 = DIRECTION ( 'NONE',  ( 0.0000000000000000000, 0.0000000000000000000, -1.000000000000000000 ) ) ;
#85 =( NAMED_UNIT ( * ) SI_UNIT ( $, .STERADIAN. ) SOLID_ANGLE_UNIT ( ) );
#86 = DIRECTION ( 'NONE',  ( -1.224646799147353207E-16, -0.0000000000000000000, -1.000000000000000000 ) ) ;
#87 = PRESENTATION_STYLE_ASSIGNMENT (( #318 ) ) ;
#88 = ORIENTED_EDGE ( 'NONE', *, *, #13, .F. ) ;
#89 = DIRECTION ( 'NONE',  ( -1.224646799147353207E-16, -0.0000000000000000000, -1.000000000000000000 ) ) ;
#90 = CARTESIAN_POINT ( 'NONE',  ( 0.1248749999999999999, 1.529277690435257475E-17, 0.01000000000000000194 ) ) ;
#91 = AXIS2_PLACEMENT_3D ( 'NONE', #338, #55, #167 ) ;
#92 = CARTESIAN_POINT ( 'NONE',  ( 0.0000000000000000000, 0.0000000000000000000, 2.500000000000000000 ) ) ;
#93 = AXIS2_PLACEMENT_3D ( 'NONE', #36, #148, #185 ) ;
#94 = DIRECTION ( 'NONE',  ( 0.0000000000000000000, 0.0000000000000000000, -1.000000000000000000 ) ) ;
#95 = ADVANCED_BREP_SHAPE_REPRESENTATION ( 'Micro_GEC-250-4-010', ( #174, #132 ), #192 ) ;
#96 = CONICAL_SURFACE ( 'NONE', #292, 0.1100000000000001948, 0.7853981633974517207 ) ;
#97 = AXIS2_PLACEMENT_3D ( 'NONE', #207, #125, #301 ) ;
#98 = VERTEX_POINT ( 'NONE', #296 ) ;
#99 =( LENGTH_UNIT ( ) NAMED_UNIT ( * ) SI_UNIT ( $, .METRE. ) );
#100 = ORIENTED_EDGE ( 'NONE', *, *, #15, .F. ) ;
#101 = CARTESIAN_POINT ( 'NONE',  ( 0.0000000000000000000, 0.0000000000000000000, 2.485000000000000320 ) ) ;
#102 = DIRECTION ( 'NONE',  ( 1.000000000000000000, 0.0000000000000000000, 0.0000000000000000000 ) ) ;
#103 = VECTOR ( 'NONE', #86, 39.37007874015748143 ) ;
#104 =( LENGTH_UNIT ( ) NAMED_UNIT ( * ) SI_UNIT ( $, .METRE. ) );
#105 = EDGE_CURVE ( 'NONE', #110, #48, #236, .T. ) ;
#106 = EDGE_LOOP ( 'NONE', ( #262, #238, #281, #40 ) ) ;
#107 = SURFACE_SIDE_STYLE ('',( #331 ) ) ;
#108 = CIRCLE ( 'NONE', #315, 0.1248749999999999999 ) ;
#109 = EDGE_LOOP ( 'NONE', ( #134, #311, #165, #239 ) ) ;
#110 = VERTEX_POINT ( 'NONE', #196 ) ;
#111 = EDGE_CURVE ( 'NONE', #44, #229, #30, .T. ) ;
#112 = SURFACE_STYLE_FILL_AREA ( #245 ) ;
#113 = CIRCLE ( 'NONE', #298, 0.1250000000000000000 ) ;
#114 = CARTESIAN_POINT ( 'NONE',  ( 0.0000000000000000000, 0.0000000000000000000, 2.500000000000000000 ) ) ;
#115 = SURFACE_SIDE_STYLE ('',( #112 ) ) ;
#116 = DIRECTION ( 'NONE',  ( -1.224646799147353207E-16, -0.0000000000000000000, -1.000000000000000000 ) ) ;
#117 = CARTESIAN_POINT ( 'NONE',  ( 9.193532640014472135E-17, 0.0000000000000000000, 0.7507089102274522308 ) ) ;
#118 = ADVANCED_FACE ( 'NONE', ( #152 ), #126, .T. ) ;
#119 = DIRECTION ( 'NONE',  ( 1.000000000000000000, 0.0000000000000000000, 0.0000000000000000000 ) ) ;
#120 = CARTESIAN_POINT ( 'NONE',  ( -0.1250000000000000000, 0.0000000000000000000, 2.500000000000000000 ) ) ;
#121 = AXIS2_PLACEMENT_3D ( 'NONE', #124, #79, #312 ) ;
#122 = PLANE ( 'NONE',  #97 ) ;
#123 = CIRCLE ( 'NONE', #93, 0.1248749999999999999 ) ;
#124 = CARTESIAN_POINT ( 'NONE',  ( 1.224646799147353384E-18, 0.0000000000000000000, 0.01000000000000000021 ) ) ;
#125 = DIRECTION ( 'NONE',  ( 0.0000000000000000000, 0.0000000000000000000, 1.000000000000000000 ) ) ;
#126 = CONICAL_SURFACE ( 'NONE', #164, 0.1100000000000001948, 0.7853981633974517207 ) ;
#127 = AXIS2_PLACEMENT_3D ( 'NONE', #342, #54, #317 ) ;
#128 = CYLINDRICAL_SURFACE ( 'NONE', #68, 0.1248749999999999999 ) ;
#129 = CIRCLE ( 'NONE', #299, 0.1250000000000000000 ) ;
#130 = CARTESIAN_POINT ( 'NONE',  ( 0.0000000000000000000, 0.0000000000000000000, 2.500000000000000000 ) ) ;
#131 = ORIENTED_EDGE ( 'NONE', *, *, #337, .T. ) ;
#132 = AXIS2_PLACEMENT_3D ( 'NONE', #73, #6, #276 ) ;
#133 = EDGE_CURVE ( 'NONE', #110, #186, #316, .T. ) ;
#134 = ORIENTED_EDGE ( 'NONE', *, *, #133, .F. ) ;
#135 = FILL_AREA_STYLE ('',( #162 ) ) ;
#136 = AXIS2_PLACEMENT_3D ( 'NONE', #325, #212, #71 ) ;
#137 = PRODUCT_DEFINITION ( 'UNKNOWN', '', #189, #250 ) ;
#138 = ORIENTED_EDGE ( 'NONE', *, *, #111, .F. ) ;
#139 = ADVANCED_FACE ( 'NONE', ( #224 ), #96, .T. ) ;
#140 = DIRECTION ( 'NONE',  ( 0.0000000000000000000, 0.0000000000000000000, 1.000000000000000000 ) ) ;
#141 = ORIENTED_EDGE ( 'NONE', *, *, #213, .F. ) ;
#142 = DIRECTION ( 'NONE',  ( 1.000000000000000000, 0.0000000000000000000, 0.0000000000000000000 ) ) ;
#143 = FILL_AREA_STYLE_COLOUR ( '', #249 ) ;
#144 =( GEOMETRIC_REPRESENTATION_CONTEXT ( 3 ) GLOBAL_UNCERTAINTY_ASSIGNED_CONTEXT ( ( #195 ) ) GLOBAL_UNIT_ASSIGNED_CONTEXT ( ( #154, #214, #35 ) ) REPRESENTATION_CONTEXT ( 'NONE', 'WORKASPACE' ) );
#145 = TOROIDAL_SURFACE ( 'NONE', #266, 0.1148750000000000049, 0.01000000000000000021 ) ;
#146 = DIRECTION ( 'NONE',  ( 1.000000000000000000, 0.0000000000000000000, 0.0000000000000000000 ) ) ;
#147 = DIRECTION ( 'NONE',  ( -0.0000000000000000000, -0.0000000000000000000, -1.000000000000000000 ) ) ;
#148 = DIRECTION ( 'NONE',  ( -1.224646799147353207E-16, -0.0000000000000000000, -1.000000000000000000 ) ) ;
#149 = PRESENTATION_LAYER_ASSIGNMENT (  '', '', ( #308 ) ) ;
#150 = MECHANICAL_DESIGN_GEOMETRIC_PRESENTATION_REPRESENTATION (  '', ( #228 ), #237 ) ;
#151 = SHAPE_DEFINITION_REPRESENTATION ( #69, #95 ) ;
#152 = FACE_OUTER_BOUND ( 'NONE', #109, .T. ) ;
#153 = APPLICATION_PROTOCOL_DEFINITION ( 'draft international standard', 'automotive_design', 1998, #202 ) ;
#154 =( CONVERSION_BASED_UNIT ( 'INCH', #9 ) LENGTH_UNIT ( ) NAMED_UNIT ( #256 ) );
#155 = AXIS2_PLACEMENT_3D ( 'NONE', #274, #253, #102 ) ;
#156 = EDGE_CURVE ( 'NONE', #98, #229, #215, .T. ) ;
#157 = EDGE_CURVE ( 'NONE', #186, #98, #29, .T. ) ;
#158 = SURFACE_STYLE_USAGE ( .BOTH. , #107 ) ;
#159 = DIMENSIONAL_EXPONENTS ( 1.000000000000000000, 0.0000000000000000000, 0.0000000000000000000, 0.0000000000000000000, 0.0000000000000000000, 0.0000000000000000000, 0.0000000000000000000 ) ;
#160 = AXIS2_PLACEMENT_3D ( 'NONE', #190, #49, #171 ) ;
#161 = PRESENTATION_LAYER_ASSIGNMENT (  '', '', ( #228 ) ) ;
#162 = FILL_AREA_STYLE_COLOUR ( '', #19 ) ;
#163 = EDGE_LOOP ( 'NONE', ( #187, #313, #260, #138 ) ) ;
#164 = AXIS2_PLACEMENT_3D ( 'NONE', #60, #223, #57 ) ;
#165 = ORIENTED_EDGE ( 'NONE', *, *, #15, .T. ) ;
#166 = CARTESIAN_POINT ( 'NONE',  ( 1.224646799147353384E-18, 0.0000000000000000000, 0.01000000000000000021 ) ) ;
#167 = DIRECTION ( 'NONE',  ( 1.000000000000000000, 0.0000000000000000000, 0.0000000000000000000 ) ) ;
#168 = DIRECTION ( 'NONE',  ( 1.000000000000000000, 0.0000000000000000000, -0.0000000000000000000 ) ) ;
#169 = DIRECTION ( 'NONE',  ( 1.224646799147353207E-16, 1.000000000000000000, -0.0000000000000000000 ) ) ;
#170 = EDGE_CURVE ( 'NONE', #295, #81, #329, .T. ) ;
#171 = DIRECTION ( 'NONE',  ( 1.000000000000000000, 0.0000000000000000000, 0.0000000000000000000 ) ) ;
#172 = MECHANICAL_DESIGN_GEOMETRIC_PRESENTATION_REPRESENTATION (  '', ( #308 ), #144 ) ;
#173 = CARTESIAN_POINT ( 'NONE',  ( 0.0000000000000000000, 0.0000000000000000000, 2.500000000000000000 ) ) ;
#174 = MANIFOLD_SOLID_BREP ( 'Fillet1', #43 ) ;
#175 = DIRECTION ( 'NONE',  ( 0.0000000000000000000, 0.0000000000000000000, 1.000000000000000000 ) ) ;
#176 = CARTESIAN_POINT ( 'NONE',  ( 0.1148750000000000049, 0.0000000000000000000, 0.0000000000000000000 ) ) ;
#177 = CARTESIAN_POINT ( 'NONE',  ( -0.1248749999999999999, 0.0000000000000000000, 0.01000000000000000194 ) ) ;
#178 = APPLICATION_CONTEXT ( 'automotive_design' ) ;
#179 =( NAMED_UNIT ( * ) PLANE_ANGLE_UNIT ( ) SI_UNIT ( $, .RADIAN. ) );
#180 = ADVANCED_FACE ( 'NONE', ( #39 ), #61, .T. ) ;
#181 = CIRCLE ( 'NONE', #4, 0.1250000000000000000 ) ;
#182 = CARTESIAN_POINT ( 'NONE',  ( -0.1148750000000000049, 1.468045350477889642E-17, 0.0000000000000000000 ) ) ;
#183 = ORIENTED_EDGE ( 'NONE', *, *, #307, .F. ) ;
#184 = DIRECTION ( 'NONE',  ( -0.0000000000000000000, -0.0000000000000000000, -1.000000000000000000 ) ) ;
#185 = DIRECTION ( 'NONE',  ( -1.000000000000000000, 0.0000000000000000000, 0.0000000000000000000 ) ) ;
#186 = VERTEX_POINT ( 'NONE', #72 ) ;
#187 = ORIENTED_EDGE ( 'NONE', *, *, #217, .T. ) ;
#188 = AXIS2_PLACEMENT_3D ( 'NONE', #326, #175, #168 ) ;
#189 = PRODUCT_DEFINITION_FORMATION_WITH_SPECIFIED_SOURCE ( 'ANY', '', #330, .NOT_KNOWN. ) ;
#190 = CARTESIAN_POINT ( 'NONE',  ( 1.224646799147353577E-18, 0.0000000000000000000, 0.01000000000000000194 ) ) ;
#191 = EDGE_LOOP ( 'NONE', ( #222, #193, #22, #100 ) ) ;
#192 =( GEOMETRIC_REPRESENTATION_CONTEXT ( 3 ) GLOBAL_UNCERTAINTY_ASSIGNED_CONTEXT ( ( #38 ) ) GLOBAL_UNIT_ASSIGNED_CONTEXT ( ( #320, #264, #85 ) ) REPRESENTATION_CONTEXT ( 'NONE', 'WORKASPACE' ) );
#193 = ORIENTED_EDGE ( 'NONE', *, *, #133, .T. ) ;
#194 = EDGE_CURVE ( 'NONE', #221, #81, #275, .T. ) ;
#195 = UNCERTAINTY_MEASURE_WITH_UNIT (LENGTH_MEASURE( 1.000000000000000082E-05 ), #154, 'distance_accuracy_value', 'NONE');
#196 = CARTESIAN_POINT ( 'NONE',  ( 0.1100000000000001948, 1.438959988998141146E-17, 2.500000000000000000 ) ) ;
#197 = EDGE_LOOP ( 'NONE', ( #141, #31, #220, #3 ) ) ;
#198 = DIRECTION ( 'NONE',  ( -1.000000000000000000, 0.0000000000000000000, 0.0000000000000000000 ) ) ;
#199 = FACE_OUTER_BOUND ( 'NONE', #45, .T. ) ;
#200 = CARTESIAN_POINT ( 'NONE',  ( 1.224646799147353384E-18, 0.0000000000000000000, 0.0000000000000000000 ) ) ;
#201 = DIRECTION ( 'NONE',  ( -0.1736481776669311083, 2.126576849575782084E-17, 0.9848077530122080203 ) ) ;
#202 = APPLICATION_CONTEXT ( 'automotive_design' ) ;
#203 = FACE_OUTER_BOUND ( 'NONE', #65, .T. ) ;
#204 = VECTOR ( 'NONE', #300, 39.37007874015748143 ) ;
#205 = CARTESIAN_POINT ( 'NONE',  ( 1.224646799147353384E-18, 0.0000000000000000000, 0.0000000000000000000 ) ) ;
#206 = CARTESIAN_POINT ( 'NONE',  ( 9.184850993605150903E-17, 0.0000000000000000000, 0.7500000000000001110 ) ) ;
#207 = CARTESIAN_POINT ( 'NONE',  ( 0.0000000000000000000, 0.0000000000000000000, 0.0000000000000000000 ) ) ;
#208 = ORIENTED_EDGE ( 'NONE', *, *, #302, .F. ) ;
#209 = EDGE_CURVE ( 'NONE', #48, #110, #216, .T. ) ;
#210 = VERTEX_POINT ( 'NONE', #176 ) ;
#211 = CIRCLE ( 'NONE', #160, 0.1248749999999999999 ) ;
#212 = DIRECTION ( 'NONE',  ( 1.224646799147353207E-16, 0.0000000000000000000, 1.000000000000000000 ) ) ;
#213 = EDGE_CURVE ( 'NONE', #221, #314, #123, .T. ) ;
#214 =( NAMED_UNIT ( * ) PLANE_ANGLE_UNIT ( ) SI_UNIT ( $, .RADIAN. ) );
#215 = CIRCLE ( 'NONE', #343, 0.1250000000000000000 ) ;
#216 = CIRCLE ( 'NONE', #332, 0.1100000000000001948 ) ;
#217 = EDGE_CURVE ( 'NONE', #44, #186, #129, .T. ) ;
#218 = EDGE_LOOP ( 'NONE', ( #339, #80 ) ) ;
#219 = ORIENTED_EDGE ( 'NONE', *, *, #337, .F. ) ;
#220 = ORIENTED_EDGE ( 'NONE', *, *, #42, .T. ) ;
#221 = VERTEX_POINT ( 'NONE', #227 ) ;
#222 = ORIENTED_EDGE ( 'NONE', *, *, #105, .F. ) ;
#223 = DIRECTION ( 'NONE',  ( 0.0000000000000000000, 0.0000000000000000000, -1.000000000000000000 ) ) ;
#224 = FACE_OUTER_BOUND ( 'NONE', #191, .T. ) ;
#225 =( LENGTH_UNIT ( ) NAMED_UNIT ( * ) SI_UNIT ( $, .METRE. ) );
#226 = CARTESIAN_POINT ( 'NONE',  ( -0.1248749999999999166, 1.529277690435257475E-17, 0.7500000000000001110 ) ) ;
#227 = CARTESIAN_POINT ( 'NONE',  ( -0.1248749999999999166, 1.530043094684724646E-17, 0.7500000000000001110 ) ) ;
#228 = STYLED_ITEM ( 'NONE', ( #234 ), #95 ) ;
#229 = VERTEX_POINT ( 'NONE', #254 ) ;
#230 = VECTOR ( 'NONE', #75, 39.37007874015748143 ) ;
#231 = CONICAL_SURFACE ( 'NONE', #136, 0.1248749999999999999, 0.1745329251994338082 ) ;
#232 = EDGE_LOOP ( 'NONE', ( #279, #183, #131, #310 ) ) ;
#233 = PRODUCT_CONTEXT ( 'NONE', #202, 'mechanical' ) ;
#234 = PRESENTATION_STYLE_ASSIGNMENT (( #158 ) ) ;
#235 = DIRECTION ( 'NONE',  ( -0.0000000000000000000, -0.0000000000000000000, -1.000000000000000000 ) ) ;
#236 = CIRCLE ( 'NONE', #91, 0.1100000000000001948 ) ;
#237 =( GEOMETRIC_REPRESENTATION_CONTEXT ( 3 ) GLOBAL_UNCERTAINTY_ASSIGNED_CONTEXT ( ( #24 ) ) GLOBAL_UNIT_ASSIGNED_CONTEXT ( ( #252, #179, #273 ) ) REPRESENTATION_CONTEXT ( 'NONE', 'WORKASPACE' ) );
#238 = ORIENTED_EDGE ( 'NONE', *, *, #247, .F. ) ;
#239 = ORIENTED_EDGE ( 'NONE', *, *, #21, .F. ) ;
#240 = ADVANCED_FACE ( 'NONE', ( #2 ), #321, .T. ) ;
#241 = DIRECTION ( 'NONE',  ( -0.0000000000000000000, -0.0000000000000000000, -1.000000000000000000 ) ) ;
#242 = EDGE_LOOP ( 'NONE', ( #208, #50, #88, #219 ) ) ;
#243 = VECTOR ( 'NONE', #20, 39.37007874015748143 ) ;
#244 = CYLINDRICAL_SURFACE ( 'NONE', #32, 0.1250000000000000000 ) ;
#245 = FILL_AREA_STYLE ('',( #143 ) ) ;
#246 = CYLINDRICAL_SURFACE ( 'NONE', #78, 0.1248749999999999999 ) ;
#247 = EDGE_CURVE ( 'NONE', #314, #221, #33, .T. ) ;
#248 = FACE_OUTER_BOUND ( 'NONE', #46, .T. ) ;
#249 = COLOUR_RGB ( '',0.7921568627450980005, 0.8196078431372548767, 0.9333333333333333481 ) ;
#250 = PRODUCT_DEFINITION_CONTEXT ( 'detailed design', #178, 'design' ) ;
#251 = DIRECTION ( 'NONE',  ( -0.0000000000000000000, -0.0000000000000000000, -1.000000000000000000 ) ) ;
#252 =( CONVERSION_BASED_UNIT ( 'INCH', #12 ) LENGTH_UNIT ( ) NAMED_UNIT ( #278 ) );
#253 = DIRECTION ( 'NONE',  ( 1.224646799147353207E-16, 0.0000000000000000000, 1.000000000000000000 ) ) ;
#254 = CARTESIAN_POINT ( 'NONE',  ( -0.1249999999999999167, 0.0000000000000000000, 0.7507089102274522308 ) ) ;
#255 = CARTESIAN_POINT ( 'NONE',  ( 0.1248749999999999999, 1.529277690435257475E-17, -1.529277690435257475E-17 ) ) ;
#256 = DIMENSIONAL_EXPONENTS ( 1.000000000000000000, 0.0000000000000000000, 0.0000000000000000000, 0.0000000000000000000, 0.0000000000000000000, 0.0000000000000000000, 0.0000000000000000000 ) ;
#257 = CARTESIAN_POINT ( 'NONE',  ( -0.1248749999999999999, 0.0000000000000000000, 1.529277690435257475E-17 ) ) ;
#258 = ADVANCED_FACE ( 'NONE', ( #67 ), #231, .T. ) ;
#259 = CARTESIAN_POINT ( 'NONE',  ( -0.1250000000000000000, 0.0000000000000000000, 2.485000000000000320 ) ) ;
#260 = ORIENTED_EDGE ( 'NONE', *, *, #42, .F. ) ;
#261 = ORIENTED_EDGE ( 'NONE', *, *, #105, .T. ) ;
#262 = ORIENTED_EDGE ( 'NONE', *, *, #306, .F. ) ;
#263 = DIRECTION ( 'NONE',  ( 0.7071067811865499042, 8.659560562354961208E-17, -0.7071067811865451302 ) ) ;
#264 =( NAMED_UNIT ( * ) PLANE_ANGLE_UNIT ( ) SI_UNIT ( $, .RADIAN. ) );
#265 = DIRECTION ( 'NONE',  ( -1.000000000000000000, 0.0000000000000000000, 0.0000000000000000000 ) ) ;
#266 = AXIS2_PLACEMENT_3D ( 'NONE', #166, #140, #146 ) ;
#267 = DIRECTION ( 'NONE',  ( 1.000000000000000000, 0.0000000000000000000, 0.0000000000000000000 ) ) ;
#268 = ADVANCED_FACE ( 'NONE', ( #269 ), #122, .F. ) ;
#269 = FACE_OUTER_BOUND ( 'NONE', #218, .T. ) ;
#270 = EDGE_LOOP ( 'NONE', ( #277, #336, #47, #7 ) ) ;
#271 = CARTESIAN_POINT ( 'NONE',  ( 1.224646799147353577E-18, 0.0000000000000000000, 0.01000000000000000194 ) ) ;
#272 = DIRECTION ( 'NONE',  ( 1.000000000000000000, 0.0000000000000000000, 0.0000000000000000000 ) ) ;
#273 =( NAMED_UNIT ( * ) SI_UNIT ( $, .STERADIAN. ) SOLID_ANGLE_UNIT ( ) );
#274 = CARTESIAN_POINT ( 'NONE',  ( 9.184850993605150903E-17, 0.0000000000000000000, 0.7500000000000001110 ) ) ;
#275 = LINE ( 'NONE', #257, #204 ) ;
#276 = DIRECTION ( 'NONE',  ( 1.000000000000000000, 0.0000000000000000000, 0.0000000000000000000 ) ) ;
#277 = ORIENTED_EDGE ( 'NONE', *, *, #157, .F. ) ;
#278 = DIMENSIONAL_EXPONENTS ( 1.000000000000000000, 0.0000000000000000000, 0.0000000000000000000, 0.0000000000000000000, 0.0000000000000000000, 0.0000000000000000000, 0.0000000000000000000 ) ;
#279 = ORIENTED_EDGE ( 'NONE', *, *, #170, .F. ) ;
#280 = ORIENTED_EDGE ( 'NONE', *, *, #213, .T. ) ;
#281 = ORIENTED_EDGE ( 'NONE', *, *, #66, .T. ) ;
#282 = CARTESIAN_POINT ( 'NONE',  ( -0.1100000000000001948, 0.0000000000000000000, 2.500000000000000000 ) ) ;
#283 = ORIENTED_EDGE ( 'NONE', *, *, #1, .F. ) ;
#284 = ORIENTED_EDGE ( 'NONE', *, *, #194, .T. ) ;
#285 = DIRECTION ( 'NONE',  ( 1.000000000000000000, 0.0000000000000000000, 0.0000000000000000000 ) ) ;
#286 = CARTESIAN_POINT ( 'NONE',  ( 0.0000000000000000000, 0.0000000000000000000, 0.0000000000000000000 ) ) ;
#287 = CARTESIAN_POINT ( 'NONE',  ( -0.1148750000000000049, 1.406813010520522117E-17, 0.01000000000000000021 ) ) ;
#288 = LENGTH_MEASURE_WITH_UNIT ( LENGTH_MEASURE( 0.02539999999999999897 ), #225 );
#289 = LINE ( 'NONE', #349, #230 ) ;
#290 = CARTESIAN_POINT ( 'NONE',  ( 0.1100000000000001948, 1.347111479062090784E-17, 2.500000000000000000 ) ) ;
#291 = DIRECTION ( 'NONE',  ( -1.000000000000000000, 0.0000000000000000000, 1.224646799147353454E-16 ) ) ;
#292 = AXIS2_PLACEMENT_3D ( 'NONE', #173, #84, #198 ) ;
#293 = DIRECTION ( 'NONE',  ( -1.224646799147353207E-16, -0.0000000000000000000, -1.000000000000000000 ) ) ;
#294 = DIRECTION ( 'NONE',  ( -1.224646799147353207E-16, -0.0000000000000000000, -1.000000000000000000 ) ) ;
#295 = VERTEX_POINT ( 'NONE', #182 ) ;
#296 = CARTESIAN_POINT ( 'NONE',  ( 0.1250000000000000833, 1.530808498934192433E-17, 0.7507089102274522308 ) ) ;
#297 = DIRECTION ( 'NONE',  ( -1.000000000000000000, 0.0000000000000000000, 0.0000000000000000000 ) ) ;
#298 = AXIS2_PLACEMENT_3D ( 'NONE', #117, #89, #62 ) ;
#299 = AXIS2_PLACEMENT_3D ( 'NONE', #5, #94, #272 ) ;
#300 = DIRECTION ( 'NONE',  ( -1.224646799147353207E-16, -0.0000000000000000000, -1.000000000000000000 ) ) ;
#301 = DIRECTION ( 'NONE',  ( 1.000000000000000000, 0.0000000000000000000, -0.0000000000000000000 ) ) ;
#302 = EDGE_CURVE ( 'NONE', #295, #210, #333, .T. ) ;
#303 = ORIENTED_EDGE ( 'NONE', *, *, #247, .T. ) ;
#304 = VECTOR ( 'NONE', #184, 39.37007874015748143 ) ;
#305 = AXIS2_PLACEMENT_3D ( 'NONE', #205, #28, #285 ) ;
#306 = EDGE_CURVE ( 'NONE', #221, #229, #351, .T. ) ;
#307 = EDGE_CURVE ( 'NONE', #210, #295, #52, .T. ) ;
#308 = STYLED_ITEM ( 'NONE', ( #87 ), #174 ) ;
#309 = AXIS2_PLACEMENT_3D ( 'NONE', #200, #241, #23 ) ;
#310 = ORIENTED_EDGE ( 'NONE', *, *, #77, .F. ) ;
#311 = ORIENTED_EDGE ( 'NONE', *, *, #209, .F. ) ;
#312 = DIRECTION ( 'NONE',  ( 1.000000000000000000, 0.0000000000000000000, 0.0000000000000000000 ) ) ;
#313 = ORIENTED_EDGE ( 'NONE', *, *, #157, .T. ) ;
#314 = VERTEX_POINT ( 'NONE', #58 ) ;
#315 = AXIS2_PLACEMENT_3D ( 'NONE', #271, #319, #26 ) ;
#316 = LINE ( 'NONE', #290, #14 ) ;
#317 = DIRECTION ( 'NONE',  ( 0.0000000000000000000, 0.0000000000000000000, -1.000000000000000000 ) ) ;
#318 = SURFACE_STYLE_USAGE ( .BOTH. , #115 ) ;
#319 = DIRECTION ( 'NONE',  ( 0.0000000000000000000, 0.0000000000000000000, 1.000000000000000000 ) ) ;
#320 =( CONVERSION_BASED_UNIT ( 'INCH', #288 ) LENGTH_UNIT ( ) NAMED_UNIT ( #159 ) );
#321 = CYLINDRICAL_SURFACE ( 'NONE', #11, 0.1250000000000000000 ) ;
#322 = TOROIDAL_SURFACE ( 'NONE', #121, 0.1148750000000000049, 0.01000000000000000021 ) ;
#323 = CIRCLE ( 'NONE', #127, 0.01000000000000000021 ) ;
#324 = APPLICATION_PROTOCOL_DEFINITION ( 'draft international standard', 'automotive_design', 1998, #178 ) ;
#325 = CARTESIAN_POINT ( 'NONE',  ( 9.184850993605150903E-17, 0.0000000000000000000, 0.7500000000000001110 ) ) ;
#326 = CARTESIAN_POINT ( 'NONE',  ( 0.0000000000000000000, 0.0000000000000000000, 2.500000000000000000 ) ) ;
#327 = DIRECTION ( 'NONE',  ( 0.0000000000000000000, 0.0000000000000000000, 1.000000000000000000 ) ) ;
#328 = ORIENTED_EDGE ( 'NONE', *, *, #209, .T. ) ;
#329 = CIRCLE ( 'NONE', #41, 0.009999999999999995004 ) ;
#330 = PRODUCT ( 'Micro_GEC-250-4-010', 'Micro_GEC-250-4-010', '', ( #233 ) ) ;
#331 = SURFACE_STYLE_FILL_AREA ( #135 ) ;
#332 = AXIS2_PLACEMENT_3D ( 'NONE', #130, #327, #119 ) ;
#333 = CIRCLE ( 'NONE', #309, 0.1148750000000000049 ) ;
#334 = FACE_OUTER_BOUND ( 'NONE', #242, .T. ) ;
#335 = ADVANCED_FACE ( 'NONE', ( #63 ), #145, .T. ) ;
#336 = ORIENTED_EDGE ( 'NONE', *, *, #21, .T. ) ;
#337 = EDGE_CURVE ( 'NONE', #210, #16, #323, .T. ) ;
#338 = CARTESIAN_POINT ( 'NONE',  ( 0.0000000000000000000, 0.0000000000000000000, 2.500000000000000000 ) ) ;
#339 = ORIENTED_EDGE ( 'NONE', *, *, #307, .T. ) ;
#340 = DIRECTION ( 'NONE',  ( 0.0000000000000000000, 0.0000000000000000000, -1.000000000000000000 ) ) ;
#341 = DIRECTION ( 'NONE',  ( -1.224646799147353207E-16, -0.0000000000000000000, -1.000000000000000000 ) ) ;
#342 = CARTESIAN_POINT ( 'NONE',  ( 0.1148750000000000049, 0.0000000000000000000, 0.01000000000000000021 ) ) ;
#343 = AXIS2_PLACEMENT_3D ( 'NONE', #350, #341, #267 ) ;
#344 = ADVANCED_FACE ( 'NONE', ( #199 ), #246, .T. ) ;
#345 = AXIS2_PLACEMENT_3D ( 'NONE', #206, #294, #297 ) ;
#346 = FACE_OUTER_BOUND ( 'NONE', #270, .T. ) ;
#347 = DIRECTION ( 'NONE',  ( -1.000000000000000000, 1.224646799147354933E-16, 0.0000000000000000000 ) ) ;
#348 = CARTESIAN_POINT ( 'NONE',  ( 0.0000000000000000000, 0.0000000000000000000, 0.0000000000000000000 ) ) ;
#349 = CARTESIAN_POINT ( 'NONE',  ( -0.1100000000000001948, 0.0000000000000000000, 2.500000000000000000 ) ) ;
#350 = CARTESIAN_POINT ( 'NONE',  ( 9.193532640014472135E-17, 0.0000000000000000000, 0.7507089102274522308 ) ) ;
#351 = LINE ( 'NONE', #226, #76 ) ;
ENDSEC;
END-ISO-10303-21;
