ISO-10303-21;
HEADER;
FILE_DESCRIPTION (( 'STEP AP214' ),
    '1' );
FILE_NAME ('06258.STEP',
    '2023-07-05T16:01:24',
    ( '' ),
    ( '' ),
    'SwSTEP 2.0',
    'SolidWorks 2023',
    '' );
FILE_SCHEMA (( 'AUTOMOTIVE_DESIGN' ));
ENDSEC;

DATA;
#1 = CARTESIAN_POINT ( 'NONE',  ( 1.530808498934191201E-17, 0.2165063509461090385, -0.1249999999999999861 ) ) ;
#2 = ORIENTED_EDGE ( 'NONE', *, *, #126, .T. ) ;
#3 = ORIENTED_EDGE ( 'NONE', *, *, #229, .T. ) ;
#4 = AXIS2_PLACEMENT_3D ( 'NONE', #172, #211, #254 ) ;
#5 = LENGTH_MEASURE_WITH_UNIT ( LENGTH_MEASURE( 0.02539999999999999897 ), #228 );
#6 = VERTEX_POINT ( 'NONE', #85 ) ;
#7 = STYLED_ITEM ( 'NONE', ( #191 ), #33 ) ;
#8 =( GEOMETRIC_REPRESENTATION_CONTEXT ( 3 ) GLOBAL_UNCERTAINTY_ASSIGNED_CONTEXT ( ( #182 ) ) GLOBAL_UNIT_ASSIGNED_CONTEXT ( ( #200, #159, #166 ) ) REPRESENTATION_CONTEXT ( 'NONE', 'WORKASPACE' ) );
#9 = EDGE_CURVE ( 'NONE', #27, #251, #66, .T. ) ;
#10 =( LENGTH_UNIT ( ) NAMED_UNIT ( * ) SI_UNIT ( $, .METRE. ) );
#11 = DIRECTION ( 'NONE',  ( -1.000000000000000000, 0.000000000000000000, 0.000000000000000000 ) ) ;
#12 = EDGE_CURVE ( 'NONE', #27, #187, #253, .T. ) ;
#13 = FILL_AREA_STYLE_COLOUR ( '', #153 ) ;
#14 = PRESENTATION_LAYER_ASSIGNMENT (  '', '', ( #29 ) ) ;
#15 = DIRECTION ( 'NONE',  ( -1.221490049109858028E-16, 1.000000000000000000, -0.000000000000000000 ) ) ;
#16 = DIRECTION ( 'NONE',  ( -1.000000000000000000, 0.000000000000000000, 0.000000000000000000 ) ) ;
#17 = LENGTH_MEASURE_WITH_UNIT ( LENGTH_MEASURE( 0.02539999999999999897 ), #142 );
#18 = LENGTH_MEASURE_WITH_UNIT ( LENGTH_MEASURE( 0.02539999999999999897 ), #155 );
#19 = ADVANCED_BREP_SHAPE_REPRESENTATION ( '06258', ( #33, #122, #80 ), #8 ) ;
#20 = MECHANICAL_DESIGN_GEOMETRIC_PRESENTATION_REPRESENTATION (  '', ( #7 ), #223 ) ;
#21 = LENGTH_MEASURE_WITH_UNIT ( LENGTH_MEASURE( 0.02539999999999999897 ), #157 );
#22 = FILL_AREA_STYLE_COLOUR ( '', #40 ) ;
#23 = EDGE_CURVE ( 'NONE', #250, #6, #241, .T. ) ;
#24 =( GEOMETRIC_REPRESENTATION_CONTEXT ( 3 ) GLOBAL_UNCERTAINTY_ASSIGNED_CONTEXT ( ( #77 ) ) GLOBAL_UNIT_ASSIGNED_CONTEXT ( ( #39, #217, #198 ) ) REPRESENTATION_CONTEXT ( 'NONE', 'WORKASPACE' ) );
#25 = ORIENTED_EDGE ( 'NONE', *, *, #225, .T. ) ;
#26 = DIRECTION ( 'NONE',  ( 0.000000000000000000, 0.000000000000000000, 1.000000000000000000 ) ) ;
#27 = VERTEX_POINT ( 'NONE', #188 ) ;
#28 = APPLICATION_PROTOCOL_DEFINITION ( 'draft international standard', 'automotive_design', 1998, #86 ) ;
#29 = STYLED_ITEM ( 'NONE', ( #112 ), #234 ) ;
#30 = UNCERTAINTY_MEASURE_WITH_UNIT (LENGTH_MEASURE( 1.000000000000000082E-05 ), #235, 'distance_accuracy_value', 'NONE');
#31 = SURFACE_SIDE_STYLE ('',( #208 ) ) ;
#32 = DIRECTION ( 'NONE',  ( -1.221490049109858028E-16, 1.000000000000000000, -0.000000000000000000 ) ) ;
#33 = MANIFOLD_SOLID_BREP ( 'Revolve - Cutting Edge', #90 ) ;
#34 = CARTESIAN_POINT ( 'NONE',  ( -6.123233995736766036E-17, 2.500000000000000000, 0.000000000000000000 ) ) ;
#35 = FACE_OUTER_BOUND ( 'NONE', #164, .T. ) ;
#36 = DIRECTION ( 'NONE',  ( -0.000000000000000000, -1.000000000000000000, -0.000000000000000000 ) ) ;
#37 = CIRCLE ( 'NONE', #4, 0.1250000000000000278 ) ;
#38 = ADVANCED_FACE ( 'NONE', ( #152 ), #257, .F. ) ;
#39 =( CONVERSION_BASED_UNIT ( 'INCH', #21 ) LENGTH_UNIT ( ) NAMED_UNIT ( #221 ) );
#40 = COLOUR_RGB ( '',0.7921568627450980005, 0.8196078431372548767, 0.9333333333333333481 ) ;
#41 = PRESENTATION_LAYER_ASSIGNMENT (  '', '', ( #63 ) ) ;
#42 = SURFACE_STYLE_USAGE ( .BOTH. , #226 ) ;
#43 = ORIENTED_EDGE ( 'NONE', *, *, #23, .F. ) ;
#44 = MECHANICAL_DESIGN_GEOMETRIC_PRESENTATION_REPRESENTATION (  '', ( #99 ), #134 ) ;
#45 =( GEOMETRIC_REPRESENTATION_CONTEXT ( 3 ) GLOBAL_UNCERTAINTY_ASSIGNED_CONTEXT ( ( #50 ) ) GLOBAL_UNIT_ASSIGNED_CONTEXT ( ( #96, #245, #180 ) ) REPRESENTATION_CONTEXT ( 'NONE', 'WORKASPACE' ) );
#46 = EDGE_CURVE ( 'NONE', #251, #61, #231, .T. ) ;
#47 = ORIENTED_EDGE ( 'NONE', *, *, #12, .F. ) ;
#48 = PRODUCT_DEFINITION_SHAPE ( 'NONE', 'NONE',  #209 ) ;
#49 = FILL_AREA_STYLE ('',( #74 ) ) ;
#50 = UNCERTAINTY_MEASURE_WITH_UNIT (LENGTH_MEASURE( 1.000000000000000082E-05 ), #96, 'distance_accuracy_value', 'NONE');
#51 = CARTESIAN_POINT ( 'NONE',  ( 0.1249999999999999445, 2.500000000000000000, 1.530808498934190893E-17 ) ) ;
#52 =( NAMED_UNIT ( * ) PLANE_ANGLE_UNIT ( ) SI_UNIT ( $, .RADIAN. ) );
#53 = DIRECTION ( 'NONE',  ( -1.000000000000000000, 0.000000000000000000, 0.000000000000000000 ) ) ;
#54 = PRESENTATION_STYLE_ASSIGNMENT (( #42 ) ) ;
#55 = AXIS2_PLACEMENT_3D ( 'NONE', #176, #174, #263 ) ;
#56 = DIMENSIONAL_EXPONENTS ( 1.000000000000000000, 0.000000000000000000, 0.000000000000000000, 0.000000000000000000, 0.000000000000000000, 0.000000000000000000, 0.000000000000000000 ) ;
#57 = FACE_OUTER_BOUND ( 'NONE', #81, .T. ) ;
#58 = DIRECTION ( 'NONE',  ( 1.221490049109858028E-16, -1.000000000000000000, 0.000000000000000000 ) ) ;
#59 = ORIENTED_EDGE ( 'NONE', *, *, #225, .F. ) ;
#60 = SHAPE_DEFINITION_REPRESENTATION ( #48, #19 ) ;
#61 = VERTEX_POINT ( 'NONE', #51 ) ;
#62 = ORIENTED_EDGE ( 'NONE', *, *, #126, .F. ) ;
#63 = STYLED_ITEM ( 'NONE', ( #54 ), #258 ) ;
#64 = CARTESIAN_POINT ( 'NONE',  ( -0.1249999999999999584, 2.500000000000000000, 0.000000000000000000 ) ) ;
#65 = SURFACE_STYLE_USAGE ( .BOTH. , #237 ) ;
#66 = CIRCLE ( 'NONE', #109, 0.1249999999999997780 ) ;
#67 = COLOUR_RGB ( '',1.000000000000000000, 0.000000000000000000, 0.000000000000000000 ) ;
#68 = DIRECTION ( 'NONE',  ( 6.123233995736778362E-17, 0.8660254037844380415, -0.5000000000000009992 ) ) ;
#69 = CARTESIAN_POINT ( 'NONE',  ( -0.1250000000000001110, 2.500000000000000000, 0.000000000000000000 ) ) ;
#70 = CARTESIAN_POINT ( 'NONE',  ( 0.1249999999999998335, 2.500000000000000000, 1.530808498934190276E-17 ) ) ;
#71 = CARTESIAN_POINT ( 'NONE',  ( -6.123233995736766036E-17, 2.500000000000000000, 0.000000000000000000 ) ) ;
#72 = DIRECTION ( 'NONE',  ( -0.000000000000000000, -1.000000000000000000, -0.000000000000000000 ) ) ;
#73 =( CONVERSION_BASED_UNIT ( 'INCH', #17 ) LENGTH_UNIT ( ) NAMED_UNIT ( #239 ) );
#74 = FILL_AREA_STYLE_COLOUR ( '', #124 ) ;
#75 = COLOUR_RGB ( '',1.000000000000000000, 0.000000000000000000, 0.000000000000000000 ) ;
#76 = AXIS2_PLACEMENT_3D ( 'NONE', #240, #133, #11 ) ;
#77 = UNCERTAINTY_MEASURE_WITH_UNIT (LENGTH_MEASURE( 1.000000000000000082E-05 ), #39, 'distance_accuracy_value', 'NONE');
#78 = ORIENTED_EDGE ( 'NONE', *, *, #179, .F. ) ;
#79 = SURFACE_STYLE_USAGE ( .BOTH. , #189 ) ;
#80 = AXIS2_PLACEMENT_3D ( 'NONE', #165, #26, #247 ) ;
#81 = EDGE_LOOP ( 'NONE', ( #123, #25, #227 ) ) ;
#82 = EDGE_LOOP ( 'NONE', ( #206, #183 ) ) ;
#83 = ADVANCED_FACE ( 'NONE', ( #195 ), #128, .T. ) ;
#84 = AXIS2_PLACEMENT_3D ( 'NONE', #265, #114, #181 ) ;
#85 = CARTESIAN_POINT ( 'NONE',  ( 0.000000000000000000, 0.2165063509461090385, 0.1249999999999999861 ) ) ;
#86 = APPLICATION_CONTEXT ( 'automotive_design' ) ;
#87 = LINE ( 'NONE', #88, #151 ) ;
#88 = CARTESIAN_POINT ( 'NONE',  ( 0.000000000000000000, 0.000000000000000000, 0.000000000000000000 ) ) ;
#89 = DIRECTION ( 'NONE',  ( 0.000000000000000000, 0.000000000000000000, -1.000000000000000000 ) ) ;
#90 = CLOSED_SHELL ( 'NONE', ( #145, #234, #258 ) ) ;
#91 = FILL_AREA_STYLE ('',( #13 ) ) ;
#92 = SURFACE_STYLE_USAGE ( .BOTH. , #31 ) ;
#93 = SURFACE_STYLE_FILL_AREA ( #91 ) ;
#94 = AXIS2_PLACEMENT_3D ( 'NONE', #144, #108, #260 ) ;
#95 = CARTESIAN_POINT ( 'NONE',  ( 0.1250000000000000000, 0.2165063509461089553, 1.530808498934191201E-17 ) ) ;
#96 =( CONVERSION_BASED_UNIT ( 'INCH', #18 ) LENGTH_UNIT ( ) NAMED_UNIT ( #178 ) );
#97 = DIRECTION ( 'NONE',  ( 0.000000000000000000, 1.000000000000000000, 0.000000000000000000 ) ) ;
#98 = PRODUCT_CONTEXT ( 'NONE', #244, 'mechanical' ) ;
#99 = STYLED_ITEM ( 'NONE', ( #163 ), #122 ) ;
#100 = EDGE_CURVE ( 'NONE', #140, #250, #87, .T. ) ;
#101 = PRODUCT_DEFINITION_FORMATION_WITH_SPECIFIED_SOURCE ( 'ANY', '', #170, .NOT_KNOWN. ) ;
#102 = EDGE_LOOP ( 'NONE', ( #167, #3, #121, #78 ) ) ;
#103 = PRESENTATION_LAYER_ASSIGNMENT (  '', '', ( #7 ) ) ;
#104 = MECHANICAL_DESIGN_GEOMETRIC_PRESENTATION_REPRESENTATION (  '', ( #29 ), #45 ) ;
#105 = DIRECTION ( 'NONE',  ( -1.000000000000000000, 0.000000000000000000, 0.000000000000000000 ) ) ;
#106 = SURFACE_STYLE_FILL_AREA ( #220 ) ;
#107 = FACE_OUTER_BOUND ( 'NONE', #117, .T. ) ;
#108 = DIRECTION ( 'NONE',  ( -1.221490049109858028E-16, 1.000000000000000000, 0.000000000000000000 ) ) ;
#109 = AXIS2_PLACEMENT_3D ( 'NONE', #207, #169, #162 ) ;
#110 = CONICAL_SURFACE ( 'NONE', #168, 22.73032555864674364, 0.5235987755983000369 ) ;
#111 = CYLINDRICAL_SURFACE ( 'NONE', #255, 0.1249999999999999029 ) ;
#112 = PRESENTATION_STYLE_ASSIGNMENT (( #150 ) ) ;
#113 = CARTESIAN_POINT ( 'NONE',  ( 0.000000000000000000, 39.37007874015748143, 0.000000000000000000 ) ) ;
#114 = DIRECTION ( 'NONE',  ( 0.000000000000000000, 1.000000000000000000, 0.000000000000000000 ) ) ;
#115 = CLOSED_SHELL ( 'NONE', ( #199, #38, #83, #249 ) ) ;
#116 = MECHANICAL_DESIGN_GEOMETRIC_PRESENTATION_REPRESENTATION (  '', ( #184 ), #131 ) ;
#117 = EDGE_LOOP ( 'NONE', ( #186, #43 ) ) ;
#118 = APPLICATION_PROTOCOL_DEFINITION ( 'draft international standard', 'automotive_design', 1998, #244 ) ;
#119 = AXIS2_PLACEMENT_3D ( 'NONE', #149, #72, #215 ) ;
#120 = ORIENTED_EDGE ( 'NONE', *, *, #46, .T. ) ;
#121 = ORIENTED_EDGE ( 'NONE', *, *, #12, .T. ) ;
#122 = MANIFOLD_SOLID_BREP ( 'Revolve - Tool Body (Pointed)', #115 ) ;
#123 = ORIENTED_EDGE ( 'NONE', *, *, #100, .F. ) ;
#124 = COLOUR_RGB ( '',0.7921568627450980005, 0.8196078431372548767, 0.9333333333333333481 ) ;
#125 = CARTESIAN_POINT ( 'NONE',  ( 2.176941369951209721E-16, 0.2165063509461089553, 0.000000000000000000 ) ) ;
#126 = EDGE_CURVE ( 'NONE', #187, #61, #194, .T. ) ;
#127 = EDGE_CURVE ( 'NONE', #6, #250, #214, .T. ) ;
#128 = CYLINDRICAL_SURFACE ( 'NONE', #213, 0.1249999999999999029 ) ;
#129 = SURFACE_STYLE_FILL_AREA ( #154 ) ;
#130 =( NAMED_UNIT ( * ) SI_UNIT ( $, .STERADIAN. ) SOLID_ANGLE_UNIT ( ) );
#131 =( GEOMETRIC_REPRESENTATION_CONTEXT ( 3 ) GLOBAL_UNCERTAINTY_ASSIGNED_CONTEXT ( ( #143 ) ) GLOBAL_UNIT_ASSIGNED_CONTEXT ( ( #73, #212, #210 ) ) REPRESENTATION_CONTEXT ( 'NONE', 'WORKASPACE' ) );
#132 = CARTESIAN_POINT ( 'NONE',  ( 0.000000000000000000, 0.000000000000000000, 0.000000000000000000 ) ) ;
#133 = DIRECTION ( 'NONE',  ( -1.221490049109858028E-16, 1.000000000000000000, -0.000000000000000000 ) ) ;
#134 =( GEOMETRIC_REPRESENTATION_CONTEXT ( 3 ) GLOBAL_UNCERTAINTY_ASSIGNED_CONTEXT ( ( #190 ) ) GLOBAL_UNIT_ASSIGNED_CONTEXT ( ( #148, #52, #192 ) ) REPRESENTATION_CONTEXT ( 'NONE', 'WORKASPACE' ) );
#135 = CARTESIAN_POINT ( 'NONE',  ( 0.1249999999999999584, 2.500000000000000000, 0.000000000000000000 ) ) ;
#136 = LENGTH_MEASURE_WITH_UNIT ( LENGTH_MEASURE( 0.02539999999999999897 ), #160 );
#137 = PRODUCT_DEFINITION_CONTEXT ( 'detailed design', #86, 'design' ) ;
#138 = FILL_AREA_STYLE ('',( #222 ) ) ;
#139 = EDGE_LOOP ( 'NONE', ( #2, #230 ) ) ;
#140 = VERTEX_POINT ( 'NONE', #132 ) ;
#141 = DIRECTION ( 'NONE',  ( -1.221490049109858028E-16, 1.000000000000000000, -0.000000000000000000 ) ) ;
#142 =( LENGTH_UNIT ( ) NAMED_UNIT ( * ) SI_UNIT ( $, .METRE. ) );
#143 = UNCERTAINTY_MEASURE_WITH_UNIT (LENGTH_MEASURE( 1.000000000000000082E-05 ), #73, 'distance_accuracy_value', 'NONE');
#144 = CARTESIAN_POINT ( 'NONE',  ( 2.176941369951209721E-16, 0.2165063509461090385, 0.000000000000000000 ) ) ;
#145 = ADVANCED_FACE ( 'NONE', ( #35 ), #205, .T. ) ;
#146 = LINE ( 'NONE', #232, #202 ) ;
#147 = DIRECTION ( 'NONE',  ( -1.221490049109858028E-16, 1.000000000000000000, -0.000000000000000000 ) ) ;
#148 =( CONVERSION_BASED_UNIT ( 'INCH', #5 ) LENGTH_UNIT ( ) NAMED_UNIT ( #256 ) );
#149 = CARTESIAN_POINT ( 'NONE',  ( 0.000000000000000000, 0.2165063509461090385, 0.000000000000000000 ) ) ;
#150 = SURFACE_STYLE_USAGE ( .BOTH. , #175 ) ;
#151 = VECTOR ( 'NONE', #68, 39.37007874015748143 ) ;
#152 = FACE_OUTER_BOUND ( 'NONE', #82, .T. ) ;
#153 = COLOUR_RGB ( '',1.000000000000000000, 0.000000000000000000, 0.000000000000000000 ) ;
#154 = FILL_AREA_STYLE ('',( #261 ) ) ;
#155 =( LENGTH_UNIT ( ) NAMED_UNIT ( * ) SI_UNIT ( $, .METRE. ) );
#156 = PRESENTATION_LAYER_ASSIGNMENT (  '', '', ( #99 ) ) ;
#157 =( LENGTH_UNIT ( ) NAMED_UNIT ( * ) SI_UNIT ( $, .METRE. ) );
#158 = AXIS2_PLACEMENT_3D ( 'NONE', #125, #32, #16 ) ;
#159 =( NAMED_UNIT ( * ) PLANE_ANGLE_UNIT ( ) SI_UNIT ( $, .RADIAN. ) );
#160 =( LENGTH_UNIT ( ) NAMED_UNIT ( * ) SI_UNIT ( $, .METRE. ) );
#161 = PRODUCT_RELATED_PRODUCT_CATEGORY ( 'part', '', ( #170 ) ) ;
#162 = DIRECTION ( 'NONE',  ( -1.000000000000000000, 0.000000000000000000, 0.000000000000000000 ) ) ;
#163 = PRESENTATION_STYLE_ASSIGNMENT (( #79 ) ) ;
#164 = EDGE_LOOP ( 'NONE', ( #59, #185, #204 ) ) ;
#165 = CARTESIAN_POINT ( 'NONE',  ( 0.000000000000000000, 0.000000000000000000, 0.000000000000000000 ) ) ;
#166 =( NAMED_UNIT ( * ) SI_UNIT ( $, .STERADIAN. ) SOLID_ANGLE_UNIT ( ) );
#167 = ORIENTED_EDGE ( 'NONE', *, *, #46, .F. ) ;
#168 = AXIS2_PLACEMENT_3D ( 'NONE', #113, #97, #201 ) ;
#169 = DIRECTION ( 'NONE',  ( -1.221490049109858028E-16, 1.000000000000000000, -0.000000000000000000 ) ) ;
#170 = PRODUCT ( '06258', '06258', '', ( #98 ) ) ;
#171 = DIRECTION ( 'NONE',  ( 0.000000000000000000, 0.8660254037844380415, 0.5000000000000009992 ) ) ;
#172 = CARTESIAN_POINT ( 'NONE',  ( -6.123233995736766036E-17, 2.500000000000000000, 0.000000000000000000 ) ) ;
#173 =( NAMED_UNIT ( * ) PLANE_ANGLE_UNIT ( ) SI_UNIT ( $, .RADIAN. ) );
#174 = DIRECTION ( 'NONE',  ( 0.000000000000000000, 1.000000000000000000, 0.000000000000000000 ) ) ;
#175 = SURFACE_SIDE_STYLE ('',( #93 ) ) ;
#176 = CARTESIAN_POINT ( 'NONE',  ( 0.000000000000000000, 39.37007874015748143, 0.000000000000000000 ) ) ;
#177 = MECHANICAL_DESIGN_GEOMETRIC_PRESENTATION_REPRESENTATION (  '', ( #63 ), #24 ) ;
#178 = DIMENSIONAL_EXPONENTS ( 1.000000000000000000, 0.000000000000000000, 0.000000000000000000, 0.000000000000000000, 0.000000000000000000, 0.000000000000000000, 0.000000000000000000 ) ;
#179 = EDGE_CURVE ( 'NONE', #61, #187, #37, .T. ) ;
#180 =( NAMED_UNIT ( * ) SI_UNIT ( $, .STERADIAN. ) SOLID_ANGLE_UNIT ( ) );
#181 = DIRECTION ( 'NONE',  ( 0.000000000000000000, -0.000000000000000000, 1.000000000000000000 ) ) ;
#182 = UNCERTAINTY_MEASURE_WITH_UNIT (LENGTH_MEASURE( 1.000000000000000082E-05 ), #200, 'distance_accuracy_value', 'NONE');
#183 = ORIENTED_EDGE ( 'NONE', *, *, #229, .F. ) ;
#184 = STYLED_ITEM ( 'NONE', ( #216 ), #145 ) ;
#185 = ORIENTED_EDGE ( 'NONE', *, *, #100, .T. ) ;
#186 = ORIENTED_EDGE ( 'NONE', *, *, #127, .F. ) ;
#187 = VERTEX_POINT ( 'NONE', #69 ) ;
#188 = CARTESIAN_POINT ( 'NONE',  ( -0.1249999999999995559, 0.2165063509461089553, 0.000000000000000000 ) ) ;
#189 = SURFACE_SIDE_STYLE ('',( #106 ) ) ;
#190 = UNCERTAINTY_MEASURE_WITH_UNIT (LENGTH_MEASURE( 1.000000000000000082E-05 ), #148, 'distance_accuracy_value', 'NONE');
#191 = PRESENTATION_STYLE_ASSIGNMENT (( #92 ) ) ;
#192 =( NAMED_UNIT ( * ) SI_UNIT ( $, .STERADIAN. ) SOLID_ANGLE_UNIT ( ) );
#193 = PLANE ( 'NONE',  #84 ) ;
#194 = CIRCLE ( 'NONE', #76, 0.1250000000000000278 ) ;
#195 = FACE_OUTER_BOUND ( 'NONE', #102, .T. ) ;
#196 = DIRECTION ( 'NONE',  ( -1.221490049109858028E-16, 1.000000000000000000, -0.000000000000000000 ) ) ;
#197 = PLANE ( 'NONE',  #219 ) ;
#198 =( NAMED_UNIT ( * ) SI_UNIT ( $, .STERADIAN. ) SOLID_ANGLE_UNIT ( ) );
#199 = ADVANCED_FACE ( 'NONE', ( #259 ), #111, .T. ) ;
#200 =( CONVERSION_BASED_UNIT ( 'INCH', #136 ) LENGTH_UNIT ( ) NAMED_UNIT ( #56 ) );
#201 = DIRECTION ( 'NONE',  ( 0.000000000000000000, 0.000000000000000000, 1.000000000000000000 ) ) ;
#202 = VECTOR ( 'NONE', #171, 39.37007874015748143 ) ;
#203 = EDGE_LOOP ( 'NONE', ( #248, #120, #62, #47 ) ) ;
#204 = ORIENTED_EDGE ( 'NONE', *, *, #23, .T. ) ;
#205 = CONICAL_SURFACE ( 'NONE', #55, 22.73032555864674364, 0.5235987755983000369 ) ;
#206 = ORIENTED_EDGE ( 'NONE', *, *, #9, .F. ) ;
#207 = CARTESIAN_POINT ( 'NONE',  ( 2.176941369951209721E-16, 0.2165063509461089553, 0.000000000000000000 ) ) ;
#208 = SURFACE_STYLE_FILL_AREA ( #49 ) ;
#209 = PRODUCT_DEFINITION ( 'UNKNOWN', '', #101, #137 ) ;
#210 =( NAMED_UNIT ( * ) SI_UNIT ( $, .STERADIAN. ) SOLID_ANGLE_UNIT ( ) );
#211 = DIRECTION ( 'NONE',  ( -1.221490049109858028E-16, 1.000000000000000000, -0.000000000000000000 ) ) ;
#212 =( NAMED_UNIT ( * ) PLANE_ANGLE_UNIT ( ) SI_UNIT ( $, .RADIAN. ) );
#213 = AXIS2_PLACEMENT_3D ( 'NONE', #34, #15, #105 ) ;
#214 = CIRCLE ( 'NONE', #242, 0.1249999999999999861 ) ;
#215 = DIRECTION ( 'NONE',  ( 0.000000000000000000, 0.000000000000000000, -1.000000000000000000 ) ) ;
#216 = PRESENTATION_STYLE_ASSIGNMENT (( #65 ) ) ;
#217 =( NAMED_UNIT ( * ) PLANE_ANGLE_UNIT ( ) SI_UNIT ( $, .RADIAN. ) );
#218 = VECTOR ( 'NONE', #147, 39.37007874015748143 ) ;
#219 = AXIS2_PLACEMENT_3D ( 'NONE', #135, #58, #264 ) ;
#220 = FILL_AREA_STYLE ('',( #22 ) ) ;
#221 = DIMENSIONAL_EXPONENTS ( 1.000000000000000000, 0.000000000000000000, 0.000000000000000000, 0.000000000000000000, 0.000000000000000000, 0.000000000000000000, 0.000000000000000000 ) ;
#222 = FILL_AREA_STYLE_COLOUR ( '', #75 ) ;
#223 =( GEOMETRIC_REPRESENTATION_CONTEXT ( 3 ) GLOBAL_UNCERTAINTY_ASSIGNED_CONTEXT ( ( #30 ) ) GLOBAL_UNIT_ASSIGNED_CONTEXT ( ( #235, #173, #130 ) ) REPRESENTATION_CONTEXT ( 'NONE', 'WORKASPACE' ) );
#224 = PRESENTATION_LAYER_ASSIGNMENT (  '', '', ( #184 ) ) ;
#225 = EDGE_CURVE ( 'NONE', #140, #6, #146, .T. ) ;
#226 = SURFACE_SIDE_STYLE ('',( #238 ) ) ;
#227 = ORIENTED_EDGE ( 'NONE', *, *, #127, .T. ) ;
#228 =( LENGTH_UNIT ( ) NAMED_UNIT ( * ) SI_UNIT ( $, .METRE. ) );
#229 = EDGE_CURVE ( 'NONE', #251, #27, #252, .T. ) ;
#230 = ORIENTED_EDGE ( 'NONE', *, *, #179, .T. ) ;
#231 = LINE ( 'NONE', #70, #218 ) ;
#232 = CARTESIAN_POINT ( 'NONE',  ( 0.000000000000000000, 0.000000000000000000, 0.000000000000000000 ) ) ;
#233 = DIMENSIONAL_EXPONENTS ( 1.000000000000000000, 0.000000000000000000, 0.000000000000000000, 0.000000000000000000, 0.000000000000000000, 0.000000000000000000, 0.000000000000000000 ) ;
#234 = ADVANCED_FACE ( 'NONE', ( #107 ), #193, .T. ) ;
#235 =( CONVERSION_BASED_UNIT ( 'INCH', #262 ) LENGTH_UNIT ( ) NAMED_UNIT ( #233 ) );
#236 = CARTESIAN_POINT ( 'NONE',  ( 0.000000000000000000, 0.2165063509461090385, 0.000000000000000000 ) ) ;
#237 = SURFACE_SIDE_STYLE ('',( #129 ) ) ;
#238 = SURFACE_STYLE_FILL_AREA ( #138 ) ;
#239 = DIMENSIONAL_EXPONENTS ( 1.000000000000000000, 0.000000000000000000, 0.000000000000000000, 0.000000000000000000, 0.000000000000000000, 0.000000000000000000, 0.000000000000000000 ) ;
#240 = CARTESIAN_POINT ( 'NONE',  ( -6.123233995736766036E-17, 2.500000000000000000, 0.000000000000000000 ) ) ;
#241 = CIRCLE ( 'NONE', #119, 0.1249999999999999861 ) ;
#242 = AXIS2_PLACEMENT_3D ( 'NONE', #236, #36, #89 ) ;
#243 = FACE_OUTER_BOUND ( 'NONE', #139, .T. ) ;
#244 = APPLICATION_CONTEXT ( 'automotive_design' ) ;
#245 =( NAMED_UNIT ( * ) PLANE_ANGLE_UNIT ( ) SI_UNIT ( $, .RADIAN. ) );
#246 = VECTOR ( 'NONE', #141, 39.37007874015748143 ) ;
#247 = DIRECTION ( 'NONE',  ( 1.000000000000000000, 0.000000000000000000, 0.000000000000000000 ) ) ;
#248 = ORIENTED_EDGE ( 'NONE', *, *, #9, .T. ) ;
#249 = ADVANCED_FACE ( 'NONE', ( #243 ), #197, .F. ) ;
#250 = VERTEX_POINT ( 'NONE', #1 ) ;
#251 = VERTEX_POINT ( 'NONE', #95 ) ;
#252 = CIRCLE ( 'NONE', #158, 0.1249999999999997780 ) ;
#253 = LINE ( 'NONE', #64, #246 ) ;
#254 = DIRECTION ( 'NONE',  ( -1.000000000000000000, 0.000000000000000000, 0.000000000000000000 ) ) ;
#255 = AXIS2_PLACEMENT_3D ( 'NONE', #71, #196, #53 ) ;
#256 = DIMENSIONAL_EXPONENTS ( 1.000000000000000000, 0.000000000000000000, 0.000000000000000000, 0.000000000000000000, 0.000000000000000000, 0.000000000000000000, 0.000000000000000000 ) ;
#257 = PLANE ( 'NONE',  #94 ) ;
#258 = ADVANCED_FACE ( 'NONE', ( #57 ), #110, .T. ) ;
#259 = FACE_OUTER_BOUND ( 'NONE', #203, .T. ) ;
#260 = DIRECTION ( 'NONE',  ( -1.000000000000000000, -1.221490049109858028E-16, 0.000000000000000000 ) ) ;
#261 = FILL_AREA_STYLE_COLOUR ( '', #67 ) ;
#262 = LENGTH_MEASURE_WITH_UNIT ( LENGTH_MEASURE( 0.02539999999999999897 ), #10 );
#263 = DIRECTION ( 'NONE',  ( 0.000000000000000000, 0.000000000000000000, 1.000000000000000000 ) ) ;
#264 = DIRECTION ( 'NONE',  ( 1.000000000000000000, 1.221490049109858028E-16, 0.000000000000000000 ) ) ;
#265 = CARTESIAN_POINT ( 'NONE',  ( 0.000000000000000000, 0.2165063509461090385, 0.000000000000000000 ) ) ;
ENDSEC;
END-ISO-10303-21;
