ISO-10303-21;
HEADER;
FILE_DESCRIPTION (( 'STEP AP214' ),
    '1' );
FILE_NAME ('17242.STEP',
    '2023-06-30T21:53:09',
    ( '' ),
    ( '' ),
    'SwSTEP 2.0',
    'SolidWorks 2023',
    '' );
FILE_SCHEMA (( 'AUTOMOTIVE_DESIGN' ));
ENDSEC;

DATA;
#1 = VERTEX_POINT ( 'NONE', #109 ) ;
#2 = PRESENTATION_LAYER_ASSIGNMENT (  '', '', ( #220 ) ) ;
#3 = AXIS2_PLACEMENT_3D ( 'NONE', #274, #59, #96 ) ;
#4 = LENGTH_MEASURE_WITH_UNIT ( LENGTH_MEASURE( 0.02539999999999999897 ), #306 );
#5 = PRODUCT_DEFINITION ( 'UNKNOWN', '', #176, #7 ) ;
#6 = UNCERTAINTY_MEASURE_WITH_UNIT (LENGTH_MEASURE( 1.000000000000000082E-05 ), #182, 'distance_accuracy_value', 'NONE');
#7 = PRODUCT_DEFINITION_CONTEXT ( 'detailed design', #125, 'design' ) ;
#8 = ORIENTED_EDGE ( 'NONE', *, *, #295, .F. ) ;
#9 = ORIENTED_EDGE ( 'NONE', *, *, #92, .T. ) ;
#10 = CIRCLE ( 'NONE', #17, 0.1562499999999996947 ) ;
#11 = FILL_AREA_STYLE_COLOUR ( '', #111 ) ;
#12 = ORIENTED_EDGE ( 'NONE', *, *, #49, .F. ) ;
#13 = PRODUCT ( '17242', '17242', '', ( #190 ) ) ;
#14 = CARTESIAN_POINT ( 'NONE',  ( 6.123233995736766036E-17, 2.000000000000000000, 0.000000000000000000 ) ) ;
#15 = DIRECTION ( 'NONE',  ( -1.225583758747666601E-16, 1.000000000000000000, -0.000000000000000000 ) ) ;
#16 = STYLED_ITEM ( 'NONE', ( #368 ), #118 ) ;
#17 = AXIS2_PLACEMENT_3D ( 'NONE', #146, #231, #213 ) ;
#18 = CYLINDRICAL_SURFACE ( 'NONE', #91, 0.1562500000000000000 ) ;
#19 = SURFACE_STYLE_FILL_AREA ( #243 ) ;
#20 =( LENGTH_UNIT ( ) NAMED_UNIT ( * ) SI_UNIT ( $, .METRE. ) );
#21 = MECHANICAL_DESIGN_GEOMETRIC_PRESENTATION_REPRESENTATION (  '', ( #16 ), #246 ) ;
#22 = VECTOR ( 'NONE', #234, 39.37007874015748143 ) ;
#23 = PRESENTATION_STYLE_ASSIGNMENT (( #123 ) ) ;
#24 = APPLICATION_PROTOCOL_DEFINITION ( 'draft international standard', 'automotive_design', 1998, #125 ) ;
#25 = CARTESIAN_POINT ( 'NONE',  ( 0.1562500000000000000, 0.1562500000000000833, 0.000000000000000000 ) ) ;
#26 = CARTESIAN_POINT ( 'NONE',  ( 0.000000000000000000, 0.000000000000000000, 0.000000000000000000 ) ) ;
#27 =( GEOMETRIC_REPRESENTATION_CONTEXT ( 3 ) GLOBAL_UNCERTAINTY_ASSIGNED_CONTEXT ( ( #93 ) ) GLOBAL_UNIT_ASSIGNED_CONTEXT ( ( #370, #217, #89 ) ) REPRESENTATION_CONTEXT ( 'NONE', 'WORKASPACE' ) );
#28 =( NAMED_UNIT ( * ) PLANE_ANGLE_UNIT ( ) SI_UNIT ( $, .RADIAN. ) );
#29 = VERTEX_POINT ( 'NONE', #291 ) ;
#30 = DIRECTION ( 'NONE',  ( -0.000000000000000000, -1.000000000000000000, -0.000000000000000000 ) ) ;
#31 = DIMENSIONAL_EXPONENTS ( 1.000000000000000000, 0.000000000000000000, 0.000000000000000000, 0.000000000000000000, 0.000000000000000000, 0.000000000000000000, 0.000000000000000000 ) ;
#32 =( LENGTH_UNIT ( ) NAMED_UNIT ( * ) SI_UNIT ( $, .METRE. ) );
#33 = ORIENTED_EDGE ( 'NONE', *, *, #49, .T. ) ;
#34 = EDGE_CURVE ( 'NONE', #127, #67, #328, .T. ) ;
#35 = PRESENTATION_LAYER_ASSIGNMENT (  '', '', ( #133 ) ) ;
#36 = ORIENTED_EDGE ( 'NONE', *, *, #333, .F. ) ;
#37 = DIRECTION ( 'NONE',  ( -1.000000000000000000, 0.000000000000000000, 0.000000000000000000 ) ) ;
#38 = ADVANCED_BREP_SHAPE_REPRESENTATION ( '17242', ( #117, #118, #253 ), #27 ) ;
#39 = CARTESIAN_POINT ( 'NONE',  ( 0.1562499999999999722, 2.000000000000000000, 0.000000000000000000 ) ) ;
#40 =( NAMED_UNIT ( * ) PLANE_ANGLE_UNIT ( ) SI_UNIT ( $, .RADIAN. ) );
#41 = MECHANICAL_DESIGN_GEOMETRIC_PRESENTATION_REPRESENTATION (  '', ( #220 ), #338 ) ;
#42 =( GEOMETRIC_REPRESENTATION_CONTEXT ( 3 ) GLOBAL_UNCERTAINTY_ASSIGNED_CONTEXT ( ( #163 ) ) GLOBAL_UNIT_ASSIGNED_CONTEXT ( ( #90, #281, #94 ) ) REPRESENTATION_CONTEXT ( 'NONE', 'WORKASPACE' ) );
#43 = ADVANCED_FACE ( 'NONE', ( #77 ), #136, .F. ) ;
#44 = ORIENTED_EDGE ( 'NONE', *, *, #218, .T. ) ;
#45 = DIRECTION ( 'NONE',  ( -1.225583758747666601E-16, 1.000000000000000000, -0.000000000000000000 ) ) ;
#46 = VERTEX_POINT ( 'NONE', #211 ) ;
#47 = DIRECTION ( 'NONE',  ( 0.000000000000000000, 0.000000000000000000, -1.000000000000000000 ) ) ;
#48 = LENGTH_MEASURE_WITH_UNIT ( LENGTH_MEASURE( 0.02539999999999999897 ), #367 );
#49 = EDGE_CURVE ( 'NONE', #208, #113, #173, .T. ) ;
#50 = SURFACE_STYLE_USAGE ( .BOTH. , #106 ) ;
#51 = CIRCLE ( 'NONE', #209, 0.1562499999999999722 ) ;
#52 = AXIS2_PLACEMENT_3D ( 'NONE', #188, #275, #122 ) ;
#53 = LINE ( 'NONE', #78, #105 ) ;
#54 = EDGE_CURVE ( 'NONE', #265, #1, #51, .T. ) ;
#55 = DIRECTION ( 'NONE',  ( -0.000000000000000000, -1.000000000000000000, -0.000000000000000000 ) ) ;
#56 = DIRECTION ( 'NONE',  ( 0.000000000000000000, -0.000000000000000000, 1.000000000000000000 ) ) ;
#57 = COLOUR_RGB ( '',1.000000000000000000, 0.000000000000000000, 0.000000000000000000 ) ;
#58 = APPLICATION_PROTOCOL_DEFINITION ( 'draft international standard', 'automotive_design', 1998, #102 ) ;
#59 = DIRECTION ( 'NONE',  ( 1.224646799147353207E-16, -0.000000000000000000, 1.000000000000000000 ) ) ;
#60 =( LENGTH_UNIT ( ) NAMED_UNIT ( * ) SI_UNIT ( $, .METRE. ) );
#61 = FACE_OUTER_BOUND ( 'NONE', #140, .T. ) ;
#62 = AXIS2_PLACEMENT_3D ( 'NONE', #233, #172, #261 ) ;
#63 = CIRCLE ( 'NONE', #76, 0.1562500000000000000 ) ;
#64 = SURFACE_STYLE_USAGE ( .BOTH. , #225 ) ;
#65 = UNCERTAINTY_MEASURE_WITH_UNIT (LENGTH_MEASURE( 1.000000000000000082E-05 ), #256, 'distance_accuracy_value', 'NONE');
#66 = CARTESIAN_POINT ( 'NONE',  ( 0.000000000000000000, 0.1562500000000000833, 0.000000000000000000 ) ) ;
#67 = VERTEX_POINT ( 'NONE', #294 ) ;
#68 = DIMENSIONAL_EXPONENTS ( 1.000000000000000000, 0.000000000000000000, 0.000000000000000000, 0.000000000000000000, 0.000000000000000000, 0.000000000000000000, 0.000000000000000000 ) ;
#69 = EDGE_LOOP ( 'NONE', ( #8, #135, #162, #288 ) ) ;
#70 = FACE_OUTER_BOUND ( 'NONE', #177, .T. ) ;
#71 = COLOUR_RGB ( '',1.000000000000000000, 0.000000000000000000, 0.000000000000000000 ) ;
#72 = DIRECTION ( 'NONE',  ( -1.000000000000000000, 0.000000000000000000, 0.000000000000000000 ) ) ;
#73 = DIRECTION ( 'NONE',  ( -1.000000000000000000, 0.000000000000000000, 0.000000000000000000 ) ) ;
#74 = ORIENTED_EDGE ( 'NONE', *, *, #164, .T. ) ;
#75 = PRESENTATION_STYLE_ASSIGNMENT (( #50 ) ) ;
#76 = AXIS2_PLACEMENT_3D ( 'NONE', #114, #242, #124 ) ;
#77 = FACE_OUTER_BOUND ( 'NONE', #347, .T. ) ;
#78 = CARTESIAN_POINT ( 'NONE',  ( 0.000000000000000000, 0.000000000000000000, -0.1562500000000000000 ) ) ;
#79 =( CONVERSION_BASED_UNIT ( 'INCH', #185 ) LENGTH_UNIT ( ) NAMED_UNIT ( #139 ) );
#80 = DIRECTION ( 'NONE',  ( -1.000000000000000000, 0.000000000000000000, 0.000000000000000000 ) ) ;
#81 =( CONVERSION_BASED_UNIT ( 'INCH', #189 ) LENGTH_UNIT ( ) NAMED_UNIT ( #167 ) );
#82 =( CONVERSION_BASED_UNIT ( 'INCH', #178 ) LENGTH_UNIT ( ) NAMED_UNIT ( #68 ) );
#83 = AXIS2_PLACEMENT_3D ( 'NONE', #14, #145, #72 ) ;
#84 = FILL_AREA_STYLE_COLOUR ( '', #343 ) ;
#85 = AXIS2_PLACEMENT_3D ( 'NONE', #304, #287, #120 ) ;
#86 =( NAMED_UNIT ( * ) SI_UNIT ( $, .STERADIAN. ) SOLID_ANGLE_UNIT ( ) );
#87 = LENGTH_MEASURE_WITH_UNIT ( LENGTH_MEASURE( 0.02539999999999999897 ), #277 );
#88 = FILL_AREA_STYLE ('',( #84 ) ) ;
#89 =( NAMED_UNIT ( * ) SI_UNIT ( $, .STERADIAN. ) SOLID_ANGLE_UNIT ( ) );
#90 =( CONVERSION_BASED_UNIT ( 'INCH', #4 ) LENGTH_UNIT ( ) NAMED_UNIT ( #31 ) );
#91 = AXIS2_PLACEMENT_3D ( 'NONE', #26, #30, #346 ) ;
#92 = EDGE_CURVE ( 'NONE', #67, #127, #278, .T. ) ;
#93 = UNCERTAINTY_MEASURE_WITH_UNIT (LENGTH_MEASURE( 1.000000000000000082E-05 ), #370, 'distance_accuracy_value', 'NONE');
#94 =( NAMED_UNIT ( * ) SI_UNIT ( $, .STERADIAN. ) SOLID_ANGLE_UNIT ( ) );
#95 = ORIENTED_EDGE ( 'NONE', *, *, #164, .F. ) ;
#96 = DIRECTION ( 'NONE',  ( 1.000000000000000000, 0.000000000000000000, -1.224646799147353207E-16 ) ) ;
#97 = ORIENTED_EDGE ( 'NONE', *, *, #279, .T. ) ;
#98 = MECHANICAL_DESIGN_GEOMETRIC_PRESENTATION_REPRESENTATION (  '', ( #159 ), #356 ) ;
#99 = ADVANCED_FACE ( 'NONE', ( #70 ), #258, .T. ) ;
#100 = FILL_AREA_STYLE_COLOUR ( '', #57 ) ;
#101 = EDGE_LOOP ( 'NONE', ( #310, #132, #12, #74 ) ) ;
#102 = APPLICATION_CONTEXT ( 'automotive_design' ) ;
#103 = CARTESIAN_POINT ( 'NONE',  ( -1.913510623667739771E-17, 0.1562500000000000278, 0.000000000000000000 ) ) ;
#104 = DIRECTION ( 'NONE',  ( 1.000000000000000000, 1.225583758747666601E-16, 0.000000000000000000 ) ) ;
#105 = VECTOR ( 'NONE', #150, 39.37007874015748143 ) ;
#106 = SURFACE_SIDE_STYLE ('',( #108 ) ) ;
#107 = ORIENTED_EDGE ( 'NONE', *, *, #207, .F. ) ;
#108 = SURFACE_STYLE_FILL_AREA ( #317 ) ;
#109 = CARTESIAN_POINT ( 'NONE',  ( 0.000000000000000000, 0.4375000000000000000, -0.1562499999999999722 ) ) ;
#110 = CARTESIAN_POINT ( 'NONE',  ( -0.1562499999999997224, 2.000000000000000000, 0.000000000000000000 ) ) ;
#111 = COLOUR_RGB ( '',1.000000000000000000, 0.000000000000000000, 0.000000000000000000 ) ;
#112 = PRESENTATION_LAYER_ASSIGNMENT (  '', '', ( #221 ) ) ;
#113 = VERTEX_POINT ( 'NONE', #301 ) ;
#114 = CARTESIAN_POINT ( 'NONE',  ( 0.000000000000000000, 0.1562500000000000833, 0.000000000000000000 ) ) ;
#115 =( NAMED_UNIT ( * ) PLANE_ANGLE_UNIT ( ) SI_UNIT ( $, .RADIAN. ) );
#116 = FACE_OUTER_BOUND ( 'NONE', #323, .T. ) ;
#117 = MANIFOLD_SOLID_BREP ( 'Revolve - Cutting Edge', #183 ) ;
#118 = MANIFOLD_SOLID_BREP ( 'Revolve - Tool Body (Straight Shanked)', #241 ) ;
#119 = SURFACE_SIDE_STYLE ('',( #19 ) ) ;
#120 = DIRECTION ( 'NONE',  ( 0.000000000000000000, 0.000000000000000000, -1.000000000000000000 ) ) ;
#121 = EDGE_CURVE ( 'NONE', #265, #224, #299, .T. ) ;
#122 = DIRECTION ( 'NONE',  ( 1.000000000000000000, 0.000000000000000000, 0.000000000000000000 ) ) ;
#123 = SURFACE_STYLE_USAGE ( .BOTH. , #119 ) ;
#124 = DIRECTION ( 'NONE',  ( 0.000000000000000000, 0.000000000000000000, -1.000000000000000000 ) ) ;
#125 = APPLICATION_CONTEXT ( 'automotive_design' ) ;
#126 = ADVANCED_FACE ( 'NONE', ( #155 ), #18, .T. ) ;
#127 = VERTEX_POINT ( 'NONE', #285 ) ;
#128 = DIRECTION ( 'NONE',  ( -0.000000000000000000, -1.000000000000000000, -0.000000000000000000 ) ) ;
#129 = UNCERTAINTY_MEASURE_WITH_UNIT (LENGTH_MEASURE( 1.000000000000000082E-05 ), #82, 'distance_accuracy_value', 'NONE');
#130 = CARTESIAN_POINT ( 'NONE',  ( 0.000000000000000000, 0.000000000000000000, 0.000000000000000000 ) ) ;
#131 = ORIENTED_EDGE ( 'NONE', *, *, #207, .T. ) ;
#132 = ORIENTED_EDGE ( 'NONE', *, *, #170, .T. ) ;
#133 = STYLED_ITEM ( 'NONE', ( #342 ), #126 ) ;
#134 = CIRCLE ( 'NONE', #138, 0.1562500000000000000 ) ;
#135 = ORIENTED_EDGE ( 'NONE', *, *, #302, .T. ) ;
#136 = PLANE ( 'NONE',  #153 ) ;
#137 = CARTESIAN_POINT ( 'NONE',  ( -0.1562499999999994726, 0.4374999999999998890, 0.000000000000000000 ) ) ;
#138 = AXIS2_PLACEMENT_3D ( 'NONE', #66, #191, #249 ) ;
#139 = DIMENSIONAL_EXPONENTS ( 1.000000000000000000, 0.000000000000000000, 0.000000000000000000, 0.000000000000000000, 0.000000000000000000, 0.000000000000000000, 0.000000000000000000 ) ;
#140 = EDGE_LOOP ( 'NONE', ( #308, #169, #97, #362, #355 ) ) ;
#141 = DIRECTION ( 'NONE',  ( 0.000000000000000000, 0.000000000000000000, -1.000000000000000000 ) ) ;
#142 = ORIENTED_EDGE ( 'NONE', *, *, #283, .F. ) ;
#143 = ADVANCED_FACE ( 'NONE', ( #61 ), #371, .T. ) ;
#144 = DIRECTION ( 'NONE',  ( -0.000000000000000000, -1.000000000000000000, -0.000000000000000000 ) ) ;
#145 = DIRECTION ( 'NONE',  ( -1.225583758747666601E-16, 1.000000000000000000, -0.000000000000000000 ) ) ;
#146 = CARTESIAN_POINT ( 'NONE',  ( 2.527298022616905960E-16, 0.4374999999999998890, 0.000000000000000000 ) ) ;
#147 = AXIS2_PLACEMENT_3D ( 'NONE', #300, #340, #56 ) ;
#148 = VECTOR ( 'NONE', #236, 39.37007874015748143 ) ;
#149 =( NAMED_UNIT ( * ) PLANE_ANGLE_UNIT ( ) SI_UNIT ( $, .RADIAN. ) );
#150 = DIRECTION ( 'NONE',  ( -0.000000000000000000, -1.000000000000000000, -0.000000000000000000 ) ) ;
#151 = CARTESIAN_POINT ( 'NONE',  ( 1.913510623667739463E-17, 0.000000000000000000, 0.1562500000000000000 ) ) ;
#152 = ADVANCED_FACE ( 'NONE', ( #194 ), #222, .T. ) ;
#153 = AXIS2_PLACEMENT_3D ( 'NONE', #39, #330, #104 ) ;
#154 = CIRCLE ( 'NONE', #3, 0.1562500000000000278 ) ;
#155 = FACE_OUTER_BOUND ( 'NONE', #331, .T. ) ;
#156 = SPHERICAL_SURFACE ( 'NONE', #52, 0.1562500000000000278 ) ;
#157 =( NAMED_UNIT ( * ) SI_UNIT ( $, .STERADIAN. ) SOLID_ANGLE_UNIT ( ) );
#158 = FILL_AREA_STYLE_COLOUR ( '', #297 ) ;
#159 = STYLED_ITEM ( 'NONE', ( #23 ), #117 ) ;
#160 = CYLINDRICAL_SURFACE ( 'NONE', #174, 0.1562499999999998057 ) ;
#161 = FILL_AREA_STYLE ('',( #100 ) ) ;
#162 = ORIENTED_EDGE ( 'NONE', *, *, #283, .T. ) ;
#163 = UNCERTAINTY_MEASURE_WITH_UNIT (LENGTH_MEASURE( 1.000000000000000082E-05 ), #90, 'distance_accuracy_value', 'NONE');
#164 = EDGE_CURVE ( 'NONE', #208, #224, #327, .T. ) ;
#165 = SURFACE_SIDE_STYLE ('',( #223 ) ) ;
#166 = PRESENTATION_LAYER_ASSIGNMENT (  '', '', ( #344 ) ) ;
#167 = DIMENSIONAL_EXPONENTS ( 1.000000000000000000, 0.000000000000000000, 0.000000000000000000, 0.000000000000000000, 0.000000000000000000, 0.000000000000000000, 0.000000000000000000 ) ;
#168 = UNCERTAINTY_MEASURE_WITH_UNIT (LENGTH_MEASURE( 1.000000000000000082E-05 ), #81, 'distance_accuracy_value', 'NONE');
#169 = ORIENTED_EDGE ( 'NONE', *, *, #54, .T. ) ;
#170 = EDGE_CURVE ( 'NONE', #309, #113, #154, .T. ) ;
#171 = SURFACE_STYLE_USAGE ( .BOTH. , #228 ) ;
#172 = DIRECTION ( 'NONE',  ( 0.000000000000000000, 0.000000000000000000, -1.000000000000000000 ) ) ;
#173 = CIRCLE ( 'NONE', #62, 0.1562500000000000278 ) ;
#174 = AXIS2_PLACEMENT_3D ( 'NONE', #264, #45, #73 ) ;
#175 = CARTESIAN_POINT ( 'NONE',  ( 0.000000000000000000, 0.1562500000000000833, 0.000000000000000000 ) ) ;
#176 = PRODUCT_DEFINITION_FORMATION_WITH_SPECIFIED_SOURCE ( 'ANY', '', #13, .NOT_KNOWN. ) ;
#177 = EDGE_LOOP ( 'NONE', ( #203, #373 ) ) ;
#178 = LENGTH_MEASURE_WITH_UNIT ( LENGTH_MEASURE( 0.02539999999999999897 ), #206 );
#179 = DIMENSIONAL_EXPONENTS ( 1.000000000000000000, 0.000000000000000000, 0.000000000000000000, 0.000000000000000000, 0.000000000000000000, 0.000000000000000000, 0.000000000000000000 ) ;
#180 = ORIENTED_EDGE ( 'NONE', *, *, #34, .T. ) ;
#181 = DIRECTION ( 'NONE',  ( -1.000000000000000000, 0.000000000000000000, 0.000000000000000000 ) ) ;
#182 =( CONVERSION_BASED_UNIT ( 'INCH', #48 ) LENGTH_UNIT ( ) NAMED_UNIT ( #307 ) );
#183 = CLOSED_SHELL ( 'NONE', ( #341, #126, #99, #143, #152 ) ) ;
#184 = AXIS2_PLACEMENT_3D ( 'NONE', #103, #293, #353 ) ;
#185 = LENGTH_MEASURE_WITH_UNIT ( LENGTH_MEASURE( 0.02539999999999999897 ), #230 );
#186 = DIRECTION ( 'NONE',  ( -1.000000000000000000, -1.225583758747666601E-16, 0.000000000000000000 ) ) ;
#187 =( NAMED_UNIT ( * ) SI_UNIT ( $, .STERADIAN. ) SOLID_ANGLE_UNIT ( ) );
#188 = CARTESIAN_POINT ( 'NONE',  ( -1.913510623667739771E-17, 0.1562500000000000278, 0.000000000000000000 ) ) ;
#189 = LENGTH_MEASURE_WITH_UNIT ( LENGTH_MEASURE( 0.02539999999999999897 ), #20 );
#190 = PRODUCT_CONTEXT ( 'NONE', #102, 'mechanical' ) ;
#191 = DIRECTION ( 'NONE',  ( -0.000000000000000000, -1.000000000000000000, -0.000000000000000000 ) ) ;
#192 = FILL_AREA_STYLE_COLOUR ( '', #71 ) ;
#193 = ORIENTED_EDGE ( 'NONE', *, *, #121, .T. ) ;
#194 = FACE_OUTER_BOUND ( 'NONE', #350, .T. ) ;
#195 = UNCERTAINTY_MEASURE_WITH_UNIT (LENGTH_MEASURE( 1.000000000000000082E-05 ), #79, 'distance_accuracy_value', 'NONE');
#196 = AXIS2_PLACEMENT_3D ( 'NONE', #358, #15, #80 ) ;
#197 = PRESENTATION_STYLE_ASSIGNMENT (( #64 ) ) ;
#198 = ORIENTED_EDGE ( 'NONE', *, *, #279, .F. ) ;
#199 = SURFACE_STYLE_USAGE ( .BOTH. , #276 ) ;
#200 = DIMENSIONAL_EXPONENTS ( 1.000000000000000000, 0.000000000000000000, 0.000000000000000000, 0.000000000000000000, 0.000000000000000000, 0.000000000000000000, 0.000000000000000000 ) ;
#201 = FILL_AREA_STYLE ('',( #11 ) ) ;
#202 = AXIS2_PLACEMENT_3D ( 'NONE', #336, #366, #181 ) ;
#203 = ORIENTED_EDGE ( 'NONE', *, *, #227, .F. ) ;
#204 = PRODUCT_DEFINITION_SHAPE ( 'NONE', 'NONE',  #5 ) ;
#205 = CARTESIAN_POINT ( 'NONE',  ( 0.000000000000000000, 0.4375000000000000000, 0.000000000000000000 ) ) ;
#206 =( LENGTH_UNIT ( ) NAMED_UNIT ( * ) SI_UNIT ( $, .METRE. ) );
#207 = EDGE_CURVE ( 'NONE', #29, #208, #134, .T. ) ;
#208 = VERTEX_POINT ( 'NONE', #25 ) ;
#209 = AXIS2_PLACEMENT_3D ( 'NONE', #205, #314, #237 ) ;
#210 =( NAMED_UNIT ( * ) SI_UNIT ( $, .STERADIAN. ) SOLID_ANGLE_UNIT ( ) );
#211 = CARTESIAN_POINT ( 'NONE',  ( 0.1562499999999999445, 0.4374999999999998890, 1.913510623667737614E-17 ) ) ;
#212 = CARTESIAN_POINT ( 'NONE',  ( 0.1562499999999998612, 2.000000000000000000, 1.913510623667736998E-17 ) ) ;
#213 = DIRECTION ( 'NONE',  ( -1.000000000000000000, 0.000000000000000000, 0.000000000000000000 ) ) ;
#214 = ADVANCED_FACE ( 'NONE', ( #345 ), #160, .T. ) ;
#215 = VECTOR ( 'NONE', #55, 39.37007874015748143 ) ;
#216 = STYLED_ITEM ( 'NONE', ( #248 ), #143 ) ;
#217 =( NAMED_UNIT ( * ) PLANE_ANGLE_UNIT ( ) SI_UNIT ( $, .RADIAN. ) );
#218 = EDGE_CURVE ( 'NONE', #309, #29, #363, .T. ) ;
#219 = SURFACE_SIDE_STYLE ('',( #365 ) ) ;
#220 = STYLED_ITEM ( 'NONE', ( #359 ), #99 ) ;
#221 = STYLED_ITEM ( 'NONE', ( #75 ), #341 ) ;
#222 = SPHERICAL_SURFACE ( 'NONE', #184, 0.1562500000000000278 ) ;
#223 = SURFACE_STYLE_FILL_AREA ( #372 ) ;
#224 = VERTEX_POINT ( 'NONE', #332 ) ;
#225 = SURFACE_SIDE_STYLE ('',( #252 ) ) ;
#226 = LENGTH_MEASURE_WITH_UNIT ( LENGTH_MEASURE( 0.02539999999999999897 ), #32 );
#227 = EDGE_CURVE ( 'NONE', #1, #265, #286, .T. ) ;
#228 = SURFACE_SIDE_STYLE ('',( #267 ) ) ;
#229 = PRESENTATION_LAYER_ASSIGNMENT (  '', '', ( #216 ) ) ;
#230 =( LENGTH_UNIT ( ) NAMED_UNIT ( * ) SI_UNIT ( $, .METRE. ) );
#231 = DIRECTION ( 'NONE',  ( -1.225583758747666601E-16, 1.000000000000000000, -0.000000000000000000 ) ) ;
#232 =( NAMED_UNIT ( * ) SI_UNIT ( $, .STERADIAN. ) SOLID_ANGLE_UNIT ( ) );
#233 = CARTESIAN_POINT ( 'NONE',  ( -1.913510623667739771E-17, 0.1562500000000000278, 0.000000000000000000 ) ) ;
#234 = DIRECTION ( 'NONE',  ( -1.225583758747666601E-16, 1.000000000000000000, -0.000000000000000000 ) ) ;
#235 = AXIS2_PLACEMENT_3D ( 'NONE', #175, #144, #141 ) ;
#236 = DIRECTION ( 'NONE',  ( -1.225583758747666601E-16, 1.000000000000000000, -0.000000000000000000 ) ) ;
#237 = DIRECTION ( 'NONE',  ( 0.000000000000000000, 0.000000000000000000, -1.000000000000000000 ) ) ;
#238 = FILL_AREA_STYLE_COLOUR ( '', #247 ) ;
#239 = ADVANCED_FACE ( 'NONE', ( #116 ), #335, .F. ) ;
#240 = CARTESIAN_POINT ( 'NONE',  ( 2.527298022616905467E-16, 0.4375000000000000000, 0.000000000000000000 ) ) ;
#241 = CLOSED_SHELL ( 'NONE', ( #214, #239, #262, #43 ) ) ;
#242 = DIRECTION ( 'NONE',  ( -0.000000000000000000, -1.000000000000000000, -0.000000000000000000 ) ) ;
#243 = FILL_AREA_STYLE ('',( #273 ) ) ;
#244 = SURFACE_STYLE_USAGE ( .BOTH. , #165 ) ;
#245 = SHAPE_DEFINITION_REPRESENTATION ( #204, #38 ) ;
#246 =( GEOMETRIC_REPRESENTATION_CONTEXT ( 3 ) GLOBAL_UNCERTAINTY_ASSIGNED_CONTEXT ( ( #6 ) ) GLOBAL_UNIT_ASSIGNED_CONTEXT ( ( #182, #115, #86 ) ) REPRESENTATION_CONTEXT ( 'NONE', 'WORKASPACE' ) );
#247 = COLOUR_RGB ( '',1.000000000000000000, 0.000000000000000000, 0.000000000000000000 ) ;
#248 = PRESENTATION_STYLE_ASSIGNMENT (( #244 ) ) ;
#249 = DIRECTION ( 'NONE',  ( 0.000000000000000000, 0.000000000000000000, -1.000000000000000000 ) ) ;
#250 = DIRECTION ( 'NONE',  ( 1.000000000000000000, 0.000000000000000000, 0.000000000000000000 ) ) ;
#251 = DIRECTION ( 'NONE',  ( 0.000000000000000000, 0.000000000000000000, -1.000000000000000000 ) ) ;
#252 = SURFACE_STYLE_FILL_AREA ( #161 ) ;
#253 = AXIS2_PLACEMENT_3D ( 'NONE', #369, #324, #250 ) ;
#254 = MECHANICAL_DESIGN_GEOMETRIC_PRESENTATION_REPRESENTATION (  '', ( #221 ), #329 ) ;
#255 = DIMENSIONAL_EXPONENTS ( 1.000000000000000000, 0.000000000000000000, 0.000000000000000000, 0.000000000000000000, 0.000000000000000000, 0.000000000000000000, 0.000000000000000000 ) ;
#256 =( CONVERSION_BASED_UNIT ( 'INCH', #226 ) LENGTH_UNIT ( ) NAMED_UNIT ( #255 ) );
#257 = VERTEX_POINT ( 'NONE', #137 ) ;
#258 = PLANE ( 'NONE',  #147 ) ;
#259 = AXIS2_PLACEMENT_3D ( 'NONE', #130, #128, #251 ) ;
#260 = CYLINDRICAL_SURFACE ( 'NONE', #196, 0.1562499999999998057 ) ;
#261 = DIRECTION ( 'NONE',  ( -1.000000000000000000, 0.000000000000000000, 0.000000000000000000 ) ) ;
#262 = ADVANCED_FACE ( 'NONE', ( #315 ), #260, .T. ) ;
#263 = CARTESIAN_POINT ( 'NONE',  ( 1.913510623667738847E-17, 0.4375000000000000000, 0.1562499999999999722 ) ) ;
#264 = CARTESIAN_POINT ( 'NONE',  ( 6.123233995736766036E-17, 2.000000000000000000, 0.000000000000000000 ) ) ;
#265 = VERTEX_POINT ( 'NONE', #263 ) ;
#266 = DIRECTION ( 'NONE',  ( -0.000000000000000000, -1.000000000000000000, -0.000000000000000000 ) ) ;
#267 = SURFACE_STYLE_FILL_AREA ( #201 ) ;
#268 = MECHANICAL_DESIGN_GEOMETRIC_PRESENTATION_REPRESENTATION (  '', ( #344 ), #313 ) ;
#269 = FACE_OUTER_BOUND ( 'NONE', #101, .T. ) ;
#270 = PRODUCT_RELATED_PRODUCT_CATEGORY ( 'part', '', ( #13 ) ) ;
#271 = AXIS2_PLACEMENT_3D ( 'NONE', #334, #289, #37 ) ;
#272 = AXIS2_PLACEMENT_3D ( 'NONE', #240, #298, #186 ) ;
#273 = FILL_AREA_STYLE_COLOUR ( '', #290 ) ;
#274 = CARTESIAN_POINT ( 'NONE',  ( -1.913510623667739771E-17, 0.1562500000000000278, 0.000000000000000000 ) ) ;
#275 = DIRECTION ( 'NONE',  ( 0.000000000000000000, 0.000000000000000000, 1.000000000000000000 ) ) ;
#276 = SURFACE_SIDE_STYLE ('',( #322 ) ) ;
#277 =( LENGTH_UNIT ( ) NAMED_UNIT ( * ) SI_UNIT ( $, .METRE. ) );
#278 = CIRCLE ( 'NONE', #83, 0.1562499999999999167 ) ;
#279 = EDGE_CURVE ( 'NONE', #1, #29, #53, .T. ) ;
#280 = MECHANICAL_DESIGN_GEOMETRIC_PRESENTATION_REPRESENTATION (  '', ( #133 ), #42 ) ;
#281 =( NAMED_UNIT ( * ) PLANE_ANGLE_UNIT ( ) SI_UNIT ( $, .RADIAN. ) );
#282 = ORIENTED_EDGE ( 'NONE', *, *, #295, .T. ) ;
#283 = EDGE_CURVE ( 'NONE', #257, #127, #361, .T. ) ;
#284 = PRESENTATION_LAYER_ASSIGNMENT (  '', '', ( #159 ) ) ;
#285 = CARTESIAN_POINT ( 'NONE',  ( -0.1562499999999998335, 2.000000000000000000, 0.000000000000000000 ) ) ;
#286 = CIRCLE ( 'NONE', #319, 0.1562499999999999722 ) ;
#287 = DIRECTION ( 'NONE',  ( -0.000000000000000000, -1.000000000000000000, -0.000000000000000000 ) ) ;
#288 = ORIENTED_EDGE ( 'NONE', *, *, #92, .F. ) ;
#289 = DIRECTION ( 'NONE',  ( -1.225583758747666601E-16, 1.000000000000000000, -0.000000000000000000 ) ) ;
#290 = COLOUR_RGB ( '',0.7921568627450980005, 0.8196078431372548767, 0.9333333333333333481 ) ;
#291 = CARTESIAN_POINT ( 'NONE',  ( 0.000000000000000000, 0.1562500000000000833, -0.1562500000000000000 ) ) ;
#292 = ORIENTED_EDGE ( 'NONE', *, *, #333, .T. ) ;
#293 = DIRECTION ( 'NONE',  ( 0.000000000000000000, 0.000000000000000000, 1.000000000000000000 ) ) ;
#294 = CARTESIAN_POINT ( 'NONE',  ( 0.1562499999999999722, 2.000000000000000000, 1.913510623667737614E-17 ) ) ;
#295 = EDGE_CURVE ( 'NONE', #46, #67, #364, .T. ) ;
#296 = CARTESIAN_POINT ( 'NONE',  ( -0.1562500000000000278, 0.1562500000000000833, 1.913510623667739463E-17 ) ) ;
#297 = COLOUR_RGB ( '',1.000000000000000000, 0.000000000000000000, 0.000000000000000000 ) ;
#298 = DIRECTION ( 'NONE',  ( -1.225583758747666601E-16, 1.000000000000000000, 0.000000000000000000 ) ) ;
#299 = LINE ( 'NONE', #151, #215 ) ;
#300 = CARTESIAN_POINT ( 'NONE',  ( 0.000000000000000000, 0.4375000000000000000, 0.000000000000000000 ) ) ;
#301 = CARTESIAN_POINT ( 'NONE',  ( -9.567553118338698857E-18, 0.000000000000000000, 0.000000000000000000 ) ) ;
#302 = EDGE_CURVE ( 'NONE', #46, #257, #339, .T. ) ;
#303 = MECHANICAL_DESIGN_GEOMETRIC_PRESENTATION_REPRESENTATION (  '', ( #216 ), #357 ) ;
#304 = CARTESIAN_POINT ( 'NONE',  ( 0.000000000000000000, 0.1562500000000000833, 0.000000000000000000 ) ) ;
#305 = ORIENTED_EDGE ( 'NONE', *, *, #170, .F. ) ;
#306 =( LENGTH_UNIT ( ) NAMED_UNIT ( * ) SI_UNIT ( $, .METRE. ) );
#307 = DIMENSIONAL_EXPONENTS ( 1.000000000000000000, 0.000000000000000000, 0.000000000000000000, 0.000000000000000000, 0.000000000000000000, 0.000000000000000000, 0.000000000000000000 ) ;
#308 = ORIENTED_EDGE ( 'NONE', *, *, #121, .F. ) ;
#309 = VERTEX_POINT ( 'NONE', #296 ) ;
#310 = ORIENTED_EDGE ( 'NONE', *, *, #354, .T. ) ;
#311 =( NAMED_UNIT ( * ) PLANE_ANGLE_UNIT ( ) SI_UNIT ( $, .RADIAN. ) );
#312 = ORIENTED_EDGE ( 'NONE', *, *, #302, .F. ) ;
#313 =( GEOMETRIC_REPRESENTATION_CONTEXT ( 3 ) GLOBAL_UNCERTAINTY_ASSIGNED_CONTEXT ( ( #65 ) ) GLOBAL_UNIT_ASSIGNED_CONTEXT ( ( #256, #311, #232 ) ) REPRESENTATION_CONTEXT ( 'NONE', 'WORKASPACE' ) );
#314 = DIRECTION ( 'NONE',  ( -0.000000000000000000, -1.000000000000000000, -0.000000000000000000 ) ) ;
#315 = FACE_OUTER_BOUND ( 'NONE', #69, .T. ) ;
#316 =( NAMED_UNIT ( * ) PLANE_ANGLE_UNIT ( ) SI_UNIT ( $, .RADIAN. ) );
#317 = FILL_AREA_STYLE ('',( #238 ) ) ;
#318 = SURFACE_STYLE_USAGE ( .BOTH. , #219 ) ;
#319 = AXIS2_PLACEMENT_3D ( 'NONE', #337, #266, #47 ) ;
#320 =( NAMED_UNIT ( * ) SI_UNIT ( $, .STERADIAN. ) SOLID_ANGLE_UNIT ( ) );
#321 = LENGTH_MEASURE_WITH_UNIT ( LENGTH_MEASURE( 0.02539999999999999897 ), #60 );
#322 = SURFACE_STYLE_FILL_AREA ( #348 ) ;
#323 = EDGE_LOOP ( 'NONE', ( #36, #312 ) ) ;
#324 = DIRECTION ( 'NONE',  ( 0.000000000000000000, 0.000000000000000000, 1.000000000000000000 ) ) ;
#325 =( CONVERSION_BASED_UNIT ( 'INCH', #321 ) LENGTH_UNIT ( ) NAMED_UNIT ( #179 ) );
#326 = ORIENTED_EDGE ( 'NONE', *, *, #34, .F. ) ;
#327 = CIRCLE ( 'NONE', #85, 0.1562500000000000000 ) ;
#328 = CIRCLE ( 'NONE', #271, 0.1562499999999999167 ) ;
#329 =( GEOMETRIC_REPRESENTATION_CONTEXT ( 3 ) GLOBAL_UNCERTAINTY_ASSIGNED_CONTEXT ( ( #129 ) ) GLOBAL_UNIT_ASSIGNED_CONTEXT ( ( #82, #40, #210 ) ) REPRESENTATION_CONTEXT ( 'NONE', 'WORKASPACE' ) );
#330 = DIRECTION ( 'NONE',  ( 1.225583758747666601E-16, -1.000000000000000000, 0.000000000000000000 ) ) ;
#331 = EDGE_LOOP ( 'NONE', ( #360, #193, #95, #107, #198 ) ) ;
#332 = CARTESIAN_POINT ( 'NONE',  ( 1.913510623667739463E-17, 0.1562500000000000833, 0.1562500000000000000 ) ) ;
#333 = EDGE_CURVE ( 'NONE', #257, #46, #10, .T. ) ;
#334 = CARTESIAN_POINT ( 'NONE',  ( 6.123233995736766036E-17, 2.000000000000000000, 0.000000000000000000 ) ) ;
#335 = PLANE ( 'NONE',  #272 ) ;
#336 = CARTESIAN_POINT ( 'NONE',  ( 2.527298022616905960E-16, 0.4374999999999998890, 0.000000000000000000 ) ) ;
#337 = CARTESIAN_POINT ( 'NONE',  ( 0.000000000000000000, 0.4375000000000000000, 0.000000000000000000 ) ) ;
#338 =( GEOMETRIC_REPRESENTATION_CONTEXT ( 3 ) GLOBAL_UNCERTAINTY_ASSIGNED_CONTEXT ( ( #195 ) ) GLOBAL_UNIT_ASSIGNED_CONTEXT ( ( #79, #316, #187 ) ) REPRESENTATION_CONTEXT ( 'NONE', 'WORKASPACE' ) );
#339 = CIRCLE ( 'NONE', #202, 0.1562499999999996947 ) ;
#340 = DIRECTION ( 'NONE',  ( 0.000000000000000000, 1.000000000000000000, 0.000000000000000000 ) ) ;
#341 = ADVANCED_FACE ( 'NONE', ( #269 ), #156, .T. ) ;
#342 = PRESENTATION_STYLE_ASSIGNMENT (( #199 ) ) ;
#343 = COLOUR_RGB ( '',0.7921568627450980005, 0.8196078431372548767, 0.9333333333333333481 ) ;
#344 = STYLED_ITEM ( 'NONE', ( #197 ), #152 ) ;
#345 = FACE_OUTER_BOUND ( 'NONE', #352, .T. ) ;
#346 = DIRECTION ( 'NONE',  ( 0.000000000000000000, 0.000000000000000000, -1.000000000000000000 ) ) ;
#347 = EDGE_LOOP ( 'NONE', ( #180, #9 ) ) ;
#348 = FILL_AREA_STYLE ('',( #192 ) ) ;
#349 = UNCERTAINTY_MEASURE_WITH_UNIT (LENGTH_MEASURE( 1.000000000000000082E-05 ), #325, 'distance_accuracy_value', 'NONE');
#350 = EDGE_LOOP ( 'NONE', ( #305, #44, #131, #33 ) ) ;
#351 = PRESENTATION_LAYER_ASSIGNMENT (  '', '', ( #16 ) ) ;
#352 = EDGE_LOOP ( 'NONE', ( #292, #282, #326, #142 ) ) ;
#353 = DIRECTION ( 'NONE',  ( 1.000000000000000000, 0.000000000000000000, 0.000000000000000000 ) ) ;
#354 = EDGE_CURVE ( 'NONE', #224, #309, #63, .T. ) ;
#355 = ORIENTED_EDGE ( 'NONE', *, *, #354, .F. ) ;
#356 =( GEOMETRIC_REPRESENTATION_CONTEXT ( 3 ) GLOBAL_UNCERTAINTY_ASSIGNED_CONTEXT ( ( #168 ) ) GLOBAL_UNIT_ASSIGNED_CONTEXT ( ( #81, #149, #320 ) ) REPRESENTATION_CONTEXT ( 'NONE', 'WORKASPACE' ) );
#357 =( GEOMETRIC_REPRESENTATION_CONTEXT ( 3 ) GLOBAL_UNCERTAINTY_ASSIGNED_CONTEXT ( ( #349 ) ) GLOBAL_UNIT_ASSIGNED_CONTEXT ( ( #325, #28, #157 ) ) REPRESENTATION_CONTEXT ( 'NONE', 'WORKASPACE' ) );
#358 = CARTESIAN_POINT ( 'NONE',  ( 6.123233995736766036E-17, 2.000000000000000000, 0.000000000000000000 ) ) ;
#359 = PRESENTATION_STYLE_ASSIGNMENT (( #171 ) ) ;
#360 = ORIENTED_EDGE ( 'NONE', *, *, #227, .T. ) ;
#361 = LINE ( 'NONE', #110, #148 ) ;
#362 = ORIENTED_EDGE ( 'NONE', *, *, #218, .F. ) ;
#363 = CIRCLE ( 'NONE', #235, 0.1562500000000000000 ) ;
#364 = LINE ( 'NONE', #212, #22 ) ;
#365 = SURFACE_STYLE_FILL_AREA ( #88 ) ;
#366 = DIRECTION ( 'NONE',  ( -1.225583758747666601E-16, 1.000000000000000000, -0.000000000000000000 ) ) ;
#367 =( LENGTH_UNIT ( ) NAMED_UNIT ( * ) SI_UNIT ( $, .METRE. ) );
#368 = PRESENTATION_STYLE_ASSIGNMENT (( #318 ) ) ;
#369 = CARTESIAN_POINT ( 'NONE',  ( 0.000000000000000000, 0.000000000000000000, 0.000000000000000000 ) ) ;
#370 =( CONVERSION_BASED_UNIT ( 'INCH', #87 ) LENGTH_UNIT ( ) NAMED_UNIT ( #200 ) );
#371 = CYLINDRICAL_SURFACE ( 'NONE', #259, 0.1562500000000000000 ) ;
#372 = FILL_AREA_STYLE ('',( #158 ) ) ;
#373 = ORIENTED_EDGE ( 'NONE', *, *, #54, .F. ) ;
ENDSEC;
END-ISO-10303-21;
