ISO-10303-21;
HEADER;
FILE_DESCRIPTION (( 'STEP AP214' ),
    '1' );
FILE_NAME ('Micro_SBMM-060-218.STEP',
    '2021-09-02T17:11:45',
    ( '' ),
    ( '' ),
    'SwSTEP 2.0',
    'SolidWorks 2020',
    '' );
FILE_SCHEMA (( 'AUTOMOTIVE_DESIGN' ));
ENDSEC;

DATA;
#1 = SHAPE_DEFINITION_REPRESENTATION ( #26, #298 ) ;
#2 = DIRECTION ( 'NONE',  ( 1.000000000000000000, 0.0000000000000000000, 0.0000000000000000000 ) ) ;
#3 = FILL_AREA_STYLE_COLOUR ( '', #151 ) ;
#4 =( NAMED_UNIT ( * ) SI_UNIT ( $, .STERADIAN. ) SOLID_ANGLE_UNIT ( ) );
#5 = AXIS2_PLACEMENT_3D ( 'NONE', #91, #152, #252 ) ;
#6 =( GEOMETRIC_REPRESENTATION_CONTEXT ( 3 ) GLOBAL_UNCERTAINTY_ASSIGNED_CONTEXT ( ( #101 ) ) GLOBAL_UNIT_ASSIGNED_CONTEXT ( ( #220, #89, #4 ) ) REPRESENTATION_CONTEXT ( 'NONE', 'WORKASPACE' ) );
#7 = PRESENTATION_STYLE_ASSIGNMENT (( #117 ) ) ;
#8 = EDGE_CURVE ( 'NONE', #127, #225, #277, .T. ) ;
#9 = FACE_OUTER_BOUND ( 'NONE', #16, .T. ) ;
#10 = EDGE_CURVE ( 'NONE', #121, #303, #262, .T. ) ;
#11 = CARTESIAN_POINT ( 'NONE',  ( 0.0000000000000000000, 0.0000000000000000000, 2.952755999999999936 ) ) ;
#12 = DIRECTION ( 'NONE',  ( -1.000000000000000000, 0.0000000000000000000, 0.0000000000000000000 ) ) ;
#13 = VERTEX_POINT ( 'NONE', #208 ) ;
#14 = EDGE_CURVE ( 'NONE', #303, #121, #269, .T. ) ;
#15 = CARTESIAN_POINT ( 'NONE',  ( -0.1181100000000000344, 0.0000000000000000000, 2.937755999999999368 ) ) ;
#16 = EDGE_LOOP ( 'NONE', ( #124, #230, #94, #108 ) ) ;
#17 = CARTESIAN_POINT ( 'NONE',  ( 0.0000000000000000000, 0.0000000000000000000, 0.0000000000000000000 ) ) ;
#18 = CONICAL_SURFACE ( 'NONE', #111, 0.1299209999999997589, 0.09065967900408447577 ) ;
#19 = DIRECTION ( 'NONE',  ( 0.0000000000000000000, 0.0000000000000000000, -1.000000000000000000 ) ) ;
#20 = ADVANCED_FACE ( 'NONE', ( #304 ), #74, .T. ) ;
#21 = PRODUCT ( 'Micro_SBMM-060-218', 'Micro_SBMM-060-218', '', ( #166 ) ) ;
#22 = EDGE_LOOP ( 'NONE', ( #201, #85, #155, #179, #137 ) ) ;
#23 = APPLICATION_CONTEXT ( 'automotive_design' ) ;
#24 = PRESENTATION_STYLE_ASSIGNMENT (( #49 ) ) ;
#25 = SURFACE_STYLE_FILL_AREA ( #263 ) ;
#26 = PRODUCT_DEFINITION_SHAPE ( 'NONE', 'NONE',  #326 ) ;
#27 = VERTEX_POINT ( 'NONE', #309 ) ;
#28 = DIRECTION ( 'NONE',  ( -1.000000000000000000, 0.0000000000000000000, 0.0000000000000000000 ) ) ;
#29 = DIRECTION ( 'NONE',  ( -0.0000000000000000000, -0.0000000000000000000, -1.000000000000000000 ) ) ;
#30 = DIRECTION ( 'NONE',  ( 0.09053553870087663324, 0.0000000000000000000, 0.9958932253169222593 ) ) ;
#31 = LENGTH_MEASURE_WITH_UNIT ( LENGTH_MEASURE( 0.02539999999999999897 ), #322 );
#32 = SURFACE_STYLE_FILL_AREA ( #114 ) ;
#33 = EDGE_CURVE ( 'NONE', #225, #127, #197, .T. ) ;
#34 = DIRECTION ( 'NONE',  ( -1.000000000000000000, 0.0000000000000000000, 0.0000000000000000000 ) ) ;
#35 = PRODUCT_RELATED_PRODUCT_CATEGORY ( 'part', '', ( #21 ) ) ;
#36 = DIRECTION ( 'NONE',  ( 1.000000000000000000, 0.0000000000000000000, 0.0000000000000000000 ) ) ;
#37 = CARTESIAN_POINT ( 'NONE',  ( -0.07873999999999996280, 0.0000000000000000000, 0.2061439962741667686 ) ) ;
#38 = CARTESIAN_POINT ( 'NONE',  ( 0.0000000000000000000, 0.0000000000000000000, 2.937755999999999368 ) ) ;
#39 = CONICAL_SURFACE ( 'NONE', #236, 0.1031099999999991745, 0.7853981633974500554 ) ;
#40 = AXIS2_PLACEMENT_3D ( 'NONE', #265, #288, #193 ) ;
#41 = CARTESIAN_POINT ( 'NONE',  ( 0.0000000000000000000, 0.0000000000000000000, 0.7086609999999999854 ) ) ;
#42 = ORIENTED_EDGE ( 'NONE', *, *, #8, .F. ) ;
#43 = CYLINDRICAL_SURFACE ( 'NONE', #130, 0.07873999999999994892 ) ;
#44 = ORIENTED_EDGE ( 'NONE', *, *, #281, .T. ) ;
#45 = EDGE_CURVE ( 'NONE', #235, #237, #62, .T. ) ;
#46 = EDGE_LOOP ( 'NONE', ( #339, #336, #233, #132, #332 ) ) ;
#47 = CONICAL_SURFACE ( 'NONE', #180, 0.1031099999999991745, 0.7853981633974500554 ) ;
#48 = ORIENTED_EDGE ( 'NONE', *, *, #196, .T. ) ;
#49 = SURFACE_STYLE_USAGE ( .BOTH. , #287 ) ;
#50 = VECTOR ( 'NONE', #204, 39.37007874015748143 ) ;
#51 = DIRECTION ( 'NONE',  ( -0.0000000000000000000, -0.0000000000000000000, -1.000000000000000000 ) ) ;
#52 = COLOUR_RGB ( '',0.7921568627450980005, 0.8196078431372548767, 0.9333333333333333481 ) ;
#53 = CARTESIAN_POINT ( 'NONE',  ( -0.1031099999999991745, 0.0000000000000000000, 2.952755999999999936 ) ) ;
#54 = CARTESIAN_POINT ( 'NONE',  ( 0.0000000000000000000, 0.0000000000000000000, 0.2061439962741667686 ) ) ;
#55 = DIRECTION ( 'NONE',  ( 0.0000000000000000000, 0.0000000000000000000, 1.000000000000000000 ) ) ;
#56 = ADVANCED_FACE ( 'NONE', ( #226 ), #334, .T. ) ;
#57 = CARTESIAN_POINT ( 'NONE',  ( 0.0000000000000000000, 0.0000000000000000000, 2.952755999999999936 ) ) ;
#58 = AXIS2_PLACEMENT_3D ( 'NONE', #17, #273, #229 ) ;
#59 =( NAMED_UNIT ( * ) SI_UNIT ( $, .STERADIAN. ) SOLID_ANGLE_UNIT ( ) );
#60 = ADVANCED_FACE ( 'NONE', ( #9 ), #302, .T. ) ;
#61 = DIRECTION ( 'NONE',  ( 1.000000000000000000, 0.0000000000000000000, 0.0000000000000000000 ) ) ;
#62 = CIRCLE ( 'NONE', #256, 0.07873999999999992117 ) ;
#63 = DIRECTION ( 'NONE',  ( -1.000000000000000000, 0.0000000000000000000, 0.0000000000000000000 ) ) ;
#64 = DIRECTION ( 'NONE',  ( -1.000000000000000000, 0.0000000000000000000, 0.0000000000000000000 ) ) ;
#65 = ORIENTED_EDGE ( 'NONE', *, *, #163, .T. ) ;
#66 = CARTESIAN_POINT ( 'NONE',  ( 0.0000000000000000000, 0.0000000000000000000, 0.1181100000000000066 ) ) ;
#67 = DIRECTION ( 'NONE',  ( 1.000000000000000000, 0.0000000000000000000, 0.0000000000000000000 ) ) ;
#68 = EDGE_CURVE ( 'NONE', #27, #239, #83, .T. ) ;
#69 = AXIS2_PLACEMENT_3D ( 'NONE', #153, #182, #157 ) ;
#70 = CIRCLE ( 'NONE', #205, 0.1181100000000000344 ) ;
#71 = DIRECTION ( 'NONE',  ( -0.0000000000000000000, -0.0000000000000000000, -1.000000000000000000 ) ) ;
#72 = ORIENTED_EDGE ( 'NONE', *, *, #33, .F. ) ;
#73 = EDGE_CURVE ( 'NONE', #237, #96, #118, .T. ) ;
#74 = SPHERICAL_SURFACE ( 'NONE', #266, 0.1181099999999999928 ) ;
#75 = ORIENTED_EDGE ( 'NONE', *, *, #68, .T. ) ;
#76 = CLOSED_SHELL ( 'NONE', ( #274, #286, #173, #295, #109, #20, #56, #97, #60, #105, #126 ) ) ;
#77 = AXIS2_PLACEMENT_3D ( 'NONE', #54, #51, #112 ) ;
#78 = ORIENTED_EDGE ( 'NONE', *, *, #241, .T. ) ;
#79 = DIRECTION ( 'NONE',  ( -1.000000000000000000, 0.0000000000000000000, 0.0000000000000000000 ) ) ;
#80 = EDGE_LOOP ( 'NONE', ( #209, #65, #283, #75 ) ) ;
#81 = CARTESIAN_POINT ( 'NONE',  ( -0.07873999999999994892, 0.0000000000000000000, 0.0000000000000000000 ) ) ;
#82 = EDGE_LOOP ( 'NONE', ( #255, #342, #276, #308 ) ) ;
#83 = CIRCLE ( 'NONE', #324, 0.1181099999999999789 ) ;
#84 = LINE ( 'NONE', #139, #198 ) ;
#85 = ORIENTED_EDGE ( 'NONE', *, *, #165, .T. ) ;
#86 = CARTESIAN_POINT ( 'NONE',  ( 0.0000000000000000000, 0.0000000000000000000, 2.952755999999999936 ) ) ;
#87 = LINE ( 'NONE', #294, #321 ) ;
#88 = DIMENSIONAL_EXPONENTS ( 1.000000000000000000, 0.0000000000000000000, 0.0000000000000000000, 0.0000000000000000000, 0.0000000000000000000, 0.0000000000000000000, 0.0000000000000000000 ) ;
#89 =( NAMED_UNIT ( * ) PLANE_ANGLE_UNIT ( ) SI_UNIT ( $, .RADIAN. ) );
#90 = FACE_OUTER_BOUND ( 'NONE', #210, .T. ) ;
#91 = CARTESIAN_POINT ( 'NONE',  ( 0.0000000000000000000, 0.0000000000000000000, 0.1181100000000000066 ) ) ;
#92 = VERTEX_POINT ( 'NONE', #37 ) ;
#93 = CARTESIAN_POINT ( 'NONE',  ( -0.1181100000000000344, 1.446430334472939084E-17, 1.141731999999999969 ) ) ;
#94 = ORIENTED_EDGE ( 'NONE', *, *, #172, .T. ) ;
#95 = DIRECTION ( 'NONE',  ( -0.0000000000000000000, -0.0000000000000000000, -1.000000000000000000 ) ) ;
#96 = VERTEX_POINT ( 'NONE', #93 ) ;
#97 = ADVANCED_FACE ( 'NONE', ( #329 ), #181, .T. ) ;
#98 = DIRECTION ( 'NONE',  ( 1.000000000000000000, 0.0000000000000000000, 0.0000000000000000000 ) ) ;
#99 = DIRECTION ( 'NONE',  ( 1.000000000000000000, 0.0000000000000000000, 0.0000000000000000000 ) ) ;
#100 = ORIENTED_EDGE ( 'NONE', *, *, #33, .T. ) ;
#101 = UNCERTAINTY_MEASURE_WITH_UNIT (LENGTH_MEASURE( 1.000000000000000082E-05 ), #220, 'distance_accuracy_value', 'NONE');
#102 = CIRCLE ( 'NONE', #77, 0.07873999999999996280 ) ;
#103 =( LENGTH_UNIT ( ) NAMED_UNIT ( * ) SI_UNIT ( $, .METRE. ) );
#104 = ORIENTED_EDGE ( 'NONE', *, *, #10, .T. ) ;
#105 = ADVANCED_FACE ( 'NONE', ( #90 ), #272, .T. ) ;
#106 = APPLICATION_CONTEXT ( 'automotive_design' ) ;
#107 = LINE ( 'NONE', #81, #190 ) ;
#108 = ORIENTED_EDGE ( 'NONE', *, *, #333, .T. ) ;
#109 = ADVANCED_FACE ( 'NONE', ( #149 ), #335, .T. ) ;
#110 = FACE_OUTER_BOUND ( 'NONE', #82, .T. ) ;
#111 = AXIS2_PLACEMENT_3D ( 'NONE', #143, #293, #2 ) ;
#112 = DIRECTION ( 'NONE',  ( -1.000000000000000000, 0.0000000000000000000, 0.0000000000000000000 ) ) ;
#113 = LINE ( 'NONE', #261, #314 ) ;
#114 = FILL_AREA_STYLE ('',( #3 ) ) ;
#115 = AXIS2_PLACEMENT_3D ( 'NONE', #178, #95, #279 ) ;
#116 = MECHANICAL_DESIGN_GEOMETRIC_PRESENTATION_REPRESENTATION (  '', ( #315 ), #134 ) ;
#117 = SURFACE_STYLE_USAGE ( .BOTH. , #146 ) ;
#118 = LINE ( 'NONE', #224, #168 ) ;
#119 = DIRECTION ( 'NONE',  ( -1.000000000000000000, 0.0000000000000000000, 0.0000000000000000000 ) ) ;
#120 = AXIS2_PLACEMENT_3D ( 'NONE', #148, #123, #61 ) ;
#121 = VERTEX_POINT ( 'NONE', #15 ) ;
#122 = AXIS2_PLACEMENT_3D ( 'NONE', #57, #343, #238 ) ;
#123 = DIRECTION ( 'NONE',  ( 0.0000000000000000000, 0.0000000000000000000, 1.000000000000000000 ) ) ;
#124 = ORIENTED_EDGE ( 'NONE', *, *, #218, .F. ) ;
#125 = CARTESIAN_POINT ( 'NONE',  ( 0.0000000000000000000, 0.0000000000000000000, 0.2061439962741667686 ) ) ;
#126 = ADVANCED_FACE ( 'NONE', ( #222 ), #39, .T. ) ;
#127 = VERTEX_POINT ( 'NONE', #199 ) ;
#128 = DIRECTION ( 'NONE',  ( 0.0000000000000000000, 0.0000000000000000000, 1.000000000000000000 ) ) ;
#129 = EDGE_LOOP ( 'NONE', ( #185, #251, #260, #223 ) ) ;
#130 = AXIS2_PLACEMENT_3D ( 'NONE', #301, #154, #63 ) ;
#131 = DIRECTION ( 'NONE',  ( 1.000000000000000000, 0.0000000000000000000, 0.0000000000000000000 ) ) ;
#132 = ORIENTED_EDGE ( 'NONE', *, *, #163, .F. ) ;
#133 = CIRCLE ( 'NONE', #115, 0.07873999999999996280 ) ;
#134 =( GEOMETRIC_REPRESENTATION_CONTEXT ( 3 ) GLOBAL_UNCERTAINTY_ASSIGNED_CONTEXT ( ( #259 ) ) GLOBAL_UNIT_ASSIGNED_CONTEXT ( ( #313, #319, #296 ) ) REPRESENTATION_CONTEXT ( 'NONE', 'WORKASPACE' ) );
#135 = DIRECTION ( 'NONE',  ( -0.0000000000000000000, -0.0000000000000000000, -1.000000000000000000 ) ) ;
#136 = LENGTH_MEASURE_WITH_UNIT ( LENGTH_MEASURE( 0.02539999999999999897 ), #103 );
#137 = ORIENTED_EDGE ( 'NONE', *, *, #187, .F. ) ;
#138 = EDGE_CURVE ( 'NONE', #27, #227, #133, .T. ) ;
#139 = CARTESIAN_POINT ( 'NONE',  ( 0.1031099999999991745, 1.262733314600825725E-17, 2.952755999999999936 ) ) ;
#140 = AXIS2_PLACEMENT_3D ( 'NONE', #38, #19, #67 ) ;
#141 = CARTESIAN_POINT ( 'NONE',  ( -0.07873999999999992117, 1.205358612060782005E-17, 0.7086609999999999854 ) ) ;
#142 = PRESENTATION_LAYER_ASSIGNMENT (  '', '', ( #257 ) ) ;
#143 = CARTESIAN_POINT ( 'NONE',  ( 0.0000000000000000000, 0.0000000000000000000, 1.271653299999996767 ) ) ;
#144 = DIRECTION ( 'NONE',  ( 1.000000000000000000, 0.0000000000000000000, 0.0000000000000000000 ) ) ;
#145 = DIMENSIONAL_EXPONENTS ( 1.000000000000000000, 0.0000000000000000000, 0.0000000000000000000, 0.0000000000000000000, 0.0000000000000000000, 0.0000000000000000000, 0.0000000000000000000 ) ;
#146 = SURFACE_SIDE_STYLE ('',( #32 ) ) ;
#147 = DIRECTION ( 'NONE',  ( 1.000000000000000000, 0.0000000000000000000, -0.0000000000000000000 ) ) ;
#148 = CARTESIAN_POINT ( 'NONE',  ( 0.0000000000000000000, 0.0000000000000000000, 1.271653299999996767 ) ) ;
#149 = FACE_OUTER_BOUND ( 'NONE', #189, .T. ) ;
#150 = ORIENTED_EDGE ( 'NONE', *, *, #14, .F. ) ;
#151 = COLOUR_RGB ( '',0.7921568627450980005, 0.8196078431372548767, 0.9333333333333333481 ) ;
#152 = DIRECTION ( 'NONE',  ( 1.000000000000000000, 1.224646799147353207E-16, -0.0000000000000000000 ) ) ;
#153 = CARTESIAN_POINT ( 'NONE',  ( 0.0000000000000000000, 0.0000000000000000000, 2.937755999999999368 ) ) ;
#154 = DIRECTION ( 'NONE',  ( -0.0000000000000000000, -0.0000000000000000000, -1.000000000000000000 ) ) ;
#155 = ORIENTED_EDGE ( 'NONE', *, *, #138, .F. ) ;
#156 = CARTESIAN_POINT ( 'NONE',  ( 0.0000000000000000000, 0.0000000000000000000, 2.952755999999999936 ) ) ;
#157 = DIRECTION ( 'NONE',  ( 1.000000000000000000, 0.0000000000000000000, 0.0000000000000000000 ) ) ;
#158 = EDGE_CURVE ( 'NONE', #328, #239, #289, .T. ) ;
#159 = FILL_AREA_STYLE_COLOUR ( '', #52 ) ;
#160 = AXIS2_PLACEMENT_3D ( 'NONE', #66, #98, #247 ) ;
#161 = CIRCLE ( 'NONE', #306, 0.07873999999999996280 ) ;
#162 = DIRECTION ( 'NONE',  ( 1.000000000000000000, 0.0000000000000000000, 0.0000000000000000000 ) ) ;
#163 = EDGE_CURVE ( 'NONE', #328, #92, #161, .T. ) ;
#164 = FACE_OUTER_BOUND ( 'NONE', #212, .T. ) ;
#165 = EDGE_CURVE ( 'NONE', #235, #227, #221, .T. ) ;
#166 = PRODUCT_CONTEXT ( 'NONE', #23, 'mechanical' ) ;
#167 = CARTESIAN_POINT ( 'NONE',  ( 9.642868896486255427E-18, -0.07873999999999996280, 0.2061439962741667686 ) ) ;
#168 = VECTOR ( 'NONE', #175, 39.37007874015748143 ) ;
#169 = CARTESIAN_POINT ( 'NONE',  ( 0.07873999999999996280, 9.642868896486255427E-18, 0.2061439962741667686 ) ) ;
#170 = PRODUCT_DEFINITION_FORMATION_WITH_SPECIFIED_SOURCE ( 'ANY', '', #21, .NOT_KNOWN. ) ;
#171 = APPLICATION_PROTOCOL_DEFINITION ( 'draft international standard', 'automotive_design', 1998, #23 ) ;
#172 = EDGE_CURVE ( 'NONE', #121, #96, #307, .T. ) ;
#173 = ADVANCED_FACE ( 'NONE', ( #282 ), #43, .T. ) ;
#174 = CARTESIAN_POINT ( 'NONE',  ( 0.0000000000000000000, 0.0000000000000000000, 0.1181100000000000066 ) ) ;
#175 = DIRECTION ( 'NONE',  ( -0.09053553870087663324, 1.108740576791098970E-17, 0.9958932253169222593 ) ) ;
#176 = CARTESIAN_POINT ( 'NONE',  ( 0.0000000000000000000, 0.0000000000000000000, 2.952755999999999936 ) ) ;
#177 = EDGE_LOOP ( 'NONE', ( #264, #72, #48, #150 ) ) ;
#178 = CARTESIAN_POINT ( 'NONE',  ( 0.0000000000000000000, 0.0000000000000000000, 0.2061439962741667686 ) ) ;
#179 = ORIENTED_EDGE ( 'NONE', *, *, #305, .F. ) ;
#180 = AXIS2_PLACEMENT_3D ( 'NONE', #86, #217, #28 ) ;
#181 = CYLINDRICAL_SURFACE ( 'NONE', #58, 0.07873999999999994892 ) ;
#182 = DIRECTION ( 'NONE',  ( 0.0000000000000000000, 0.0000000000000000000, -1.000000000000000000 ) ) ;
#183 = DIRECTION ( 'NONE',  ( 0.0000000000000000000, 0.0000000000000000000, 1.000000000000000000 ) ) ;
#184 = PRODUCT_DEFINITION_CONTEXT ( 'detailed design', #106, 'design' ) ;
#185 = ORIENTED_EDGE ( 'NONE', *, *, #73, .F. ) ;
#186 = CIRCLE ( 'NONE', #40, 0.07873999999999992117 ) ;
#187 = EDGE_CURVE ( 'NONE', #237, #92, #107, .T. ) ;
#188 = DIRECTION ( 'NONE',  ( -0.7071067811865486830, 0.0000000000000000000, -0.7071067811865462405 ) ) ;
#189 = EDGE_LOOP ( 'NONE', ( #311, #253, #206, #258 ) ) ;
#190 = VECTOR ( 'NONE', #213, 39.37007874015748143 ) ;
#191 = CARTESIAN_POINT ( 'NONE',  ( 0.0000000000000000000, 7.232151672364693882E-18, 1.707404996040164512E-17 ) ) ;
#192 = CYLINDRICAL_SURFACE ( 'NONE', #122, 0.1181100000000000344 ) ;
#193 = DIRECTION ( 'NONE',  ( -1.000000000000000000, 0.0000000000000000000, 0.0000000000000000000 ) ) ;
#194 =( GEOMETRIC_REPRESENTATION_CONTEXT ( 3 ) GLOBAL_UNCERTAINTY_ASSIGNED_CONTEXT ( ( #234 ) ) GLOBAL_UNIT_ASSIGNED_CONTEXT ( ( #297, #271, #59 ) ) REPRESENTATION_CONTEXT ( 'NONE', 'WORKASPACE' ) );
#195 = DIMENSIONAL_EXPONENTS ( 1.000000000000000000, 0.0000000000000000000, 0.0000000000000000000, 0.0000000000000000000, 0.0000000000000000000, 0.0000000000000000000, 0.0000000000000000000 ) ;
#196 = EDGE_CURVE ( 'NONE', #225, #121, #113, .T. ) ;
#197 = CIRCLE ( 'NONE', #299, 0.1031099999999991745 ) ;
#198 = VECTOR ( 'NONE', #240, 39.37007874015748854 ) ;
#199 = CARTESIAN_POINT ( 'NONE',  ( 0.1031099999999991745, 1.354581824536882559E-17, 2.952755999999999936 ) ) ;
#200 = DIRECTION ( 'NONE',  ( -0.0000000000000000000, -0.0000000000000000000, -1.000000000000000000 ) ) ;
#201 = ORIENTED_EDGE ( 'NONE', *, *, #231, .T. ) ;
#202 = CARTESIAN_POINT ( 'NONE',  ( 0.0000000000000000000, 0.0000000000000000000, 2.952755999999999936 ) ) ;
#203 = ORIENTED_EDGE ( 'NONE', *, *, #218, .T. ) ;
#204 = DIRECTION ( 'NONE',  ( -0.0000000000000000000, -0.0000000000000000000, -1.000000000000000000 ) ) ;
#205 = AXIS2_PLACEMENT_3D ( 'NONE', #243, #312, #162 ) ;
#206 = ORIENTED_EDGE ( 'NONE', *, *, #158, .T. ) ;
#207 = DIRECTION ( 'NONE',  ( -1.000000000000000000, 0.0000000000000000000, 0.0000000000000000000 ) ) ;
#208 = CARTESIAN_POINT ( 'NONE',  ( 0.1181100000000000344, 0.0000000000000000000, 1.141731999999999969 ) ) ;
#209 = ORIENTED_EDGE ( 'NONE', *, *, #158, .F. ) ;
#210 = EDGE_LOOP ( 'NONE', ( #100, #292 ) ) ;
#211 = CIRCLE ( 'NONE', #278, 0.1181100000000000344 ) ;
#212 = EDGE_LOOP ( 'NONE', ( #42, #44, #285, #310 ) ) ;
#213 = DIRECTION ( 'NONE',  ( -0.0000000000000000000, -0.0000000000000000000, -1.000000000000000000 ) ) ;
#214 = PRESENTATION_LAYER_ASSIGNMENT (  '', '', ( #315 ) ) ;
#215 = DIRECTION ( 'NONE',  ( 1.000000000000000000, 0.0000000000000000000, 0.0000000000000000000 ) ) ;
#216 =( LENGTH_UNIT ( ) NAMED_UNIT ( * ) SI_UNIT ( $, .METRE. ) );
#217 = DIRECTION ( 'NONE',  ( 0.0000000000000000000, 0.0000000000000000000, -1.000000000000000000 ) ) ;
#218 = EDGE_CURVE ( 'NONE', #303, #13, #87, .T. ) ;
#219 = EDGE_CURVE ( 'NONE', #235, #13, #316, .T. ) ;
#220 =( CONVERSION_BASED_UNIT ( 'INCH', #268 ) LENGTH_UNIT ( ) NAMED_UNIT ( #195 ) );
#221 = LINE ( 'NONE', #331, #50 ) ;
#222 = FACE_OUTER_BOUND ( 'NONE', #177, .T. ) ;
#223 = ORIENTED_EDGE ( 'NONE', *, *, #333, .F. ) ;
#224 = CARTESIAN_POINT ( 'NONE',  ( -0.1299209999999997589, 1.591073367920229727E-17, 1.271653299999996767 ) ) ;
#225 = VERTEX_POINT ( 'NONE', #53 ) ;
#226 = FACE_OUTER_BOUND ( 'NONE', #129, .T. ) ;
#227 = VERTEX_POINT ( 'NONE', #169 ) ;
#228 = AXIS2_PLACEMENT_3D ( 'NONE', #202, #327, #34 ) ;
#229 = DIRECTION ( 'NONE',  ( -1.000000000000000000, 0.0000000000000000000, 0.0000000000000000000 ) ) ;
#230 = ORIENTED_EDGE ( 'NONE', *, *, #14, .T. ) ;
#231 = EDGE_CURVE ( 'NONE', #237, #235, #186, .T. ) ;
#232 = DIRECTION ( 'NONE',  ( 0.0000000000000000000, 1.000000000000000000, 0.0000000000000000000 ) ) ;
#233 = ORIENTED_EDGE ( 'NONE', *, *, #187, .T. ) ;
#234 = UNCERTAINTY_MEASURE_WITH_UNIT (LENGTH_MEASURE( 1.000000000000000082E-05 ), #297, 'distance_accuracy_value', 'NONE');
#235 = VERTEX_POINT ( 'NONE', #318 ) ;
#236 = AXIS2_PLACEMENT_3D ( 'NONE', #11, #246, #119 ) ;
#237 = VERTEX_POINT ( 'NONE', #141 ) ;
#238 = DIRECTION ( 'NONE',  ( -1.000000000000000000, 0.0000000000000000000, 0.0000000000000000000 ) ) ;
#239 = VERTEX_POINT ( 'NONE', #191 ) ;
#240 = DIRECTION ( 'NONE',  ( 0.7071067811865486830, 8.659560562354947649E-17, -0.7071067811865462405 ) ) ;
#241 = EDGE_CURVE ( 'NONE', #13, #96, #211, .T. ) ;
#242 = CARTESIAN_POINT ( 'NONE',  ( 0.1181100000000000344, 1.446430334472939084E-17, 2.937755999999999368 ) ) ;
#243 = CARTESIAN_POINT ( 'NONE',  ( 0.0000000000000000000, 0.0000000000000000000, 1.141731999999999969 ) ) ;
#244 = APPLICATION_PROTOCOL_DEFINITION ( 'draft international standard', 'automotive_design', 1998, #106 ) ;
#245 = VECTOR ( 'NONE', #71, 39.37007874015748143 ) ;
#246 = DIRECTION ( 'NONE',  ( 0.0000000000000000000, 0.0000000000000000000, -1.000000000000000000 ) ) ;
#247 = DIRECTION ( 'NONE',  ( 0.0000000000000000000, 1.000000000000000000, 0.0000000000000000000 ) ) ;
#248 = AXIS2_PLACEMENT_3D ( 'NONE', #176, #128, #147 ) ;
#249 = VECTOR ( 'NONE', #30, 39.37007874015748143 ) ;
#250 = DIRECTION ( 'NONE',  ( 0.0000000000000000000, 0.0000000000000000000, 1.000000000000000000 ) ) ;
#251 = ORIENTED_EDGE ( 'NONE', *, *, #45, .F. ) ;
#252 = DIRECTION ( 'NONE',  ( -1.224646799147353207E-16, 1.000000000000000000, 0.0000000000000000000 ) ) ;
#253 = ORIENTED_EDGE ( 'NONE', *, *, #291, .T. ) ;
#254 = DIRECTION ( 'NONE',  ( 0.0000000000000000000, 0.0000000000000000000, 1.000000000000000000 ) ) ;
#255 = ORIENTED_EDGE ( 'NONE', *, *, #231, .F. ) ;
#256 = AXIS2_PLACEMENT_3D ( 'NONE', #41, #275, #12 ) ;
#257 = STYLED_ITEM ( 'NONE', ( #7 ), #298 ) ;
#258 = ORIENTED_EDGE ( 'NONE', *, *, #68, .F. ) ;
#259 = UNCERTAINTY_MEASURE_WITH_UNIT (LENGTH_MEASURE( 1.000000000000000082E-05 ), #313, 'distance_accuracy_value', 'NONE');
#260 = ORIENTED_EDGE ( 'NONE', *, *, #219, .T. ) ;
#261 = CARTESIAN_POINT ( 'NONE',  ( -0.1031099999999991745, 0.0000000000000000000, 2.952755999999999936 ) ) ;
#262 = CIRCLE ( 'NONE', #69, 0.1181100000000000344 ) ;
#263 = FILL_AREA_STYLE ('',( #159 ) ) ;
#264 = ORIENTED_EDGE ( 'NONE', *, *, #281, .F. ) ;
#265 = CARTESIAN_POINT ( 'NONE',  ( 0.0000000000000000000, 0.0000000000000000000, 0.7086609999999999854 ) ) ;
#266 = AXIS2_PLACEMENT_3D ( 'NONE', #284, #131, #232 ) ;
#267 = CARTESIAN_POINT ( 'NONE',  ( 0.1299209999999997589, 0.0000000000000000000, 1.271653299999996767 ) ) ;
#268 = LENGTH_MEASURE_WITH_UNIT ( LENGTH_MEASURE( 0.02539999999999999897 ), #216 );
#269 = CIRCLE ( 'NONE', #140, 0.1181100000000000344 ) ;
#270 = AXIS2_PLACEMENT_3D ( 'NONE', #290, #135, #79 ) ;
#271 =( NAMED_UNIT ( * ) PLANE_ANGLE_UNIT ( ) SI_UNIT ( $, .RADIAN. ) );
#272 = PLANE ( 'NONE',  #248 ) ;
#273 = DIRECTION ( 'NONE',  ( -0.0000000000000000000, -0.0000000000000000000, -1.000000000000000000 ) ) ;
#274 = ADVANCED_FACE ( 'NONE', ( #164 ), #47, .T. ) ;
#275 = DIRECTION ( 'NONE',  ( -0.0000000000000000000, -0.0000000000000000000, -1.000000000000000000 ) ) ;
#276 = ORIENTED_EDGE ( 'NONE', *, *, #241, .F. ) ;
#277 = CIRCLE ( 'NONE', #320, 0.1031099999999991745 ) ;
#278 = AXIS2_PLACEMENT_3D ( 'NONE', #345, #341, #215 ) ;
#279 = DIRECTION ( 'NONE',  ( -1.000000000000000000, 0.0000000000000000000, 0.0000000000000000000 ) ) ;
#280 = ORIENTED_EDGE ( 'NONE', *, *, #172, .F. ) ;
#281 = EDGE_CURVE ( 'NONE', #127, #303, #84, .T. ) ;
#282 = FACE_OUTER_BOUND ( 'NONE', #22, .T. ) ;
#283 = ORIENTED_EDGE ( 'NONE', *, *, #305, .T. ) ;
#284 = CARTESIAN_POINT ( 'NONE',  ( 0.0000000000000000000, 0.0000000000000000000, 0.1181100000000000066 ) ) ;
#285 = ORIENTED_EDGE ( 'NONE', *, *, #10, .F. ) ;
#286 = ADVANCED_FACE ( 'NONE', ( #344 ), #192, .T. ) ;
#287 = SURFACE_SIDE_STYLE ('',( #25 ) ) ;
#288 = DIRECTION ( 'NONE',  ( -0.0000000000000000000, -0.0000000000000000000, -1.000000000000000000 ) ) ;
#289 = CIRCLE ( 'NONE', #5, 0.1181099999999999928 ) ;
#290 = CARTESIAN_POINT ( 'NONE',  ( 0.0000000000000000000, 0.0000000000000000000, 0.2061439962741667686 ) ) ;
#291 = EDGE_CURVE ( 'NONE', #227, #328, #340, .T. ) ;
#292 = ORIENTED_EDGE ( 'NONE', *, *, #8, .T. ) ;
#293 = DIRECTION ( 'NONE',  ( 0.0000000000000000000, 0.0000000000000000000, 1.000000000000000000 ) ) ;
#294 = CARTESIAN_POINT ( 'NONE',  ( 0.1181100000000000344, 1.446430334472939084E-17, 2.952755999999999936 ) ) ;
#295 = ADVANCED_FACE ( 'NONE', ( #110 ), #18, .T. ) ;
#296 =( NAMED_UNIT ( * ) SI_UNIT ( $, .STERADIAN. ) SOLID_ANGLE_UNIT ( ) );
#297 =( CONVERSION_BASED_UNIT ( 'INCH', #31 ) LENGTH_UNIT ( ) NAMED_UNIT ( #145 ) );
#298 = ADVANCED_BREP_SHAPE_REPRESENTATION ( 'Micro_SBMM-060-218', ( #337, #325 ), #194 ) ;
#299 = AXIS2_PLACEMENT_3D ( 'NONE', #338, #250, #36 ) ;
#300 = MECHANICAL_DESIGN_GEOMETRIC_PRESENTATION_REPRESENTATION (  '', ( #257 ), #6 ) ;
#301 = CARTESIAN_POINT ( 'NONE',  ( 0.0000000000000000000, 0.0000000000000000000, 0.0000000000000000000 ) ) ;
#302 = CYLINDRICAL_SURFACE ( 'NONE', #228, 0.1181100000000000344 ) ;
#303 = VERTEX_POINT ( 'NONE', #242 ) ;
#304 = FACE_OUTER_BOUND ( 'NONE', #80, .T. ) ;
#305 = EDGE_CURVE ( 'NONE', #92, #27, #102, .T. ) ;
#306 = AXIS2_PLACEMENT_3D ( 'NONE', #125, #200, #207 ) ;
#307 = LINE ( 'NONE', #323, #245 ) ;
#308 = ORIENTED_EDGE ( 'NONE', *, *, #219, .F. ) ;
#309 = CARTESIAN_POINT ( 'NONE',  ( 0.0000000000000000000, 0.07873999999999996280, 0.2061439962741667686 ) ) ;
#310 = ORIENTED_EDGE ( 'NONE', *, *, #196, .F. ) ;
#311 = ORIENTED_EDGE ( 'NONE', *, *, #138, .T. ) ;
#312 = DIRECTION ( 'NONE',  ( 0.0000000000000000000, 0.0000000000000000000, 1.000000000000000000 ) ) ;
#313 =( CONVERSION_BASED_UNIT ( 'INCH', #136 ) LENGTH_UNIT ( ) NAMED_UNIT ( #88 ) );
#314 = VECTOR ( 'NONE', #188, 39.37007874015748854 ) ;
#315 = STYLED_ITEM ( 'NONE', ( #24 ), #337 ) ;
#316 = LINE ( 'NONE', #267, #249 ) ;
#317 = CARTESIAN_POINT ( 'NONE',  ( 0.0000000000000000000, 0.0000000000000000000, 0.0000000000000000000 ) ) ;
#318 = CARTESIAN_POINT ( 'NONE',  ( 0.07873999999999992117, 0.0000000000000000000, 0.7086609999999999854 ) ) ;
#319 =( NAMED_UNIT ( * ) PLANE_ANGLE_UNIT ( ) SI_UNIT ( $, .RADIAN. ) );
#320 = AXIS2_PLACEMENT_3D ( 'NONE', #156, #183, #99 ) ;
#321 = VECTOR ( 'NONE', #29, 39.37007874015748143 ) ;
#322 =( LENGTH_UNIT ( ) NAMED_UNIT ( * ) SI_UNIT ( $, .METRE. ) );
#323 = CARTESIAN_POINT ( 'NONE',  ( -0.1181100000000000344, 0.0000000000000000000, 2.952755999999999936 ) ) ;
#324 = AXIS2_PLACEMENT_3D ( 'NONE', #174, #64, #254 ) ;
#325 = AXIS2_PLACEMENT_3D ( 'NONE', #317, #55, #144 ) ;
#326 = PRODUCT_DEFINITION ( 'UNKNOWN', '', #170, #184 ) ;
#327 = DIRECTION ( 'NONE',  ( -0.0000000000000000000, -0.0000000000000000000, -1.000000000000000000 ) ) ;
#328 = VERTEX_POINT ( 'NONE', #167 ) ;
#329 = FACE_OUTER_BOUND ( 'NONE', #46, .T. ) ;
#330 = EDGE_LOOP ( 'NONE', ( #104, #203, #78, #280 ) ) ;
#331 = CARTESIAN_POINT ( 'NONE',  ( 0.07873999999999994892, 9.642868896486252346E-18, 0.0000000000000000000 ) ) ;
#332 = ORIENTED_EDGE ( 'NONE', *, *, #291, .F. ) ;
#333 = EDGE_CURVE ( 'NONE', #96, #13, #70, .T. ) ;
#334 = CONICAL_SURFACE ( 'NONE', #120, 0.1299209999999997589, 0.09065967900408447577 ) ;
#335 = SPHERICAL_SURFACE ( 'NONE', #160, 0.1181099999999999928 ) ;
#336 = ORIENTED_EDGE ( 'NONE', *, *, #45, .T. ) ;
#337 = MANIFOLD_SOLID_BREP ( 'Cut-Revolve3', #76 ) ;
#338 = CARTESIAN_POINT ( 'NONE',  ( 0.0000000000000000000, 0.0000000000000000000, 2.952755999999999936 ) ) ;
#339 = ORIENTED_EDGE ( 'NONE', *, *, #165, .F. ) ;
#340 = CIRCLE ( 'NONE', #270, 0.07873999999999996280 ) ;
#341 = DIRECTION ( 'NONE',  ( 0.0000000000000000000, 0.0000000000000000000, 1.000000000000000000 ) ) ;
#342 = ORIENTED_EDGE ( 'NONE', *, *, #73, .T. ) ;
#343 = DIRECTION ( 'NONE',  ( -0.0000000000000000000, -0.0000000000000000000, -1.000000000000000000 ) ) ;
#344 = FACE_OUTER_BOUND ( 'NONE', #330, .T. ) ;
#345 = CARTESIAN_POINT ( 'NONE',  ( 0.0000000000000000000, 0.0000000000000000000, 1.141731999999999969 ) ) ;
ENDSEC;
END-ISO-10303-21;
