ISO-10303-21;
HEADER;
FILE_DESCRIPTION (( 'STEP AP214' ),
    '1' );
FILE_NAME ('Micro_GEC-001-2-090.STEP',
    '2021-09-03T17:00:41',
    ( '' ),
    ( '' ),
    'SwSTEP 2.0',
    'SolidWorks 2020',
    '' );
FILE_SCHEMA (( 'AUTOMOTIVE_DESIGN' ));
ENDSEC;

DATA;
#1 = ORIENTED_EDGE ( 'NONE', *, *, #322, .T. ) ;
#2 = ADVANCED_FACE ( 'NONE', ( #273 ), #56, .T. ) ;
#3 = DIRECTION ( 'NONE',  ( -1.000000000000000000, 0.0000000000000000000, 0.0000000000000000000 ) ) ;
#4 = CARTESIAN_POINT ( 'NONE',  ( 1.840442857284759413E-16, 0.0000000000000000000, 1.502835640909809589 ) ) ;
#5 = CARTESIAN_POINT ( 'NONE',  ( 1.836970198721030181E-16, 0.0000000000000000000, 1.500000000000000222 ) ) ;
#6 = CARTESIAN_POINT ( 'NONE',  ( 0.4850000000000009859, 5.939536975864675788E-17, 4.000000000000000000 ) ) ;
#7 = COLOUR_RGB ( '',0.7921568627450980005, 0.8196078431372548767, 0.9333333333333333481 ) ;
#8 = DIRECTION ( 'NONE',  ( -0.0000000000000000000, -0.0000000000000000000, -1.000000000000000000 ) ) ;
#9 = UNCERTAINTY_MEASURE_WITH_UNIT (LENGTH_MEASURE( 1.000000000000000082E-05 ), #144, 'distance_accuracy_value', 'NONE');
#10 = CARTESIAN_POINT ( 'NONE',  ( 0.5000000000000000000, 6.123233995736766036E-17, 4.000000000000000000 ) ) ;
#11 = CARTESIAN_POINT ( 'NONE',  ( 1.836970198721030181E-16, 0.0000000000000000000, 1.500000000000000222 ) ) ;
#12 =( LENGTH_UNIT ( ) NAMED_UNIT ( * ) SI_UNIT ( $, .METRE. ) );
#13 = DIRECTION ( 'NONE',  ( 0.0000000000000000000, 0.0000000000000000000, 1.000000000000000000 ) ) ;
#14 = DIRECTION ( 'NONE',  ( 1.000000000000000000, 0.0000000000000000000, 0.0000000000000000000 ) ) ;
#15 = DIRECTION ( 'NONE',  ( 1.000000000000000000, 0.0000000000000000000, -0.0000000000000000000 ) ) ;
#16 = VERTEX_POINT ( 'NONE', #247 ) ;
#17 = SURFACE_STYLE_USAGE ( .BOTH. , #148 ) ;
#18 = ORIENTED_EDGE ( 'NONE', *, *, #191, .T. ) ;
#19 = DIRECTION ( 'NONE',  ( 1.000000000000000000, 0.0000000000000000000, 0.0000000000000000000 ) ) ;
#20 = EDGE_LOOP ( 'NONE', ( #349, #261, #74, #209 ) ) ;
#21 = APPLICATION_PROTOCOL_DEFINITION ( 'draft international standard', 'automotive_design', 1998, #143 ) ;
#22 = CARTESIAN_POINT ( 'NONE',  ( 0.4995000000000001106, 0.0000000000000000000, 1.500000000000000222 ) ) ;
#23 = VERTEX_POINT ( 'NONE', #111 ) ;
#24 = ADVANCED_FACE ( 'NONE', ( #193 ), #165, .T. ) ;
#25 = CARTESIAN_POINT ( 'NONE',  ( -0.5000000000000000000, 0.0000000000000000000, 4.000000000000000000 ) ) ;
#26 = ORIENTED_EDGE ( 'NONE', *, *, #93, .T. ) ;
#27 = AXIS2_PLACEMENT_3D ( 'NONE', #239, #58, #15 ) ;
#28 = PRESENTATION_LAYER_ASSIGNMENT (  '', '', ( #242 ) ) ;
#29 = ADVANCED_FACE ( 'NONE', ( #87 ), #92, .F. ) ;
#30 = FACE_OUTER_BOUND ( 'NONE', #236, .T. ) ;
#31 = CARTESIAN_POINT ( 'NONE',  ( 7.347880794884118380E-18, 0.0000000000000000000, 0.0000000000000000000 ) ) ;
#32 = AXIS2_PLACEMENT_3D ( 'NONE', #42, #101, #215 ) ;
#33 = LINE ( 'NONE', #10, #283 ) ;
#34 = ADVANCED_FACE ( 'NONE', ( #185 ), #91, .T. ) ;
#35 = FILL_AREA_STYLE ('',( #171 ) ) ;
#36 = SURFACE_STYLE_USAGE ( .BOTH. , #119 ) ;
#37 =( NAMED_UNIT ( * ) PLANE_ANGLE_UNIT ( ) SI_UNIT ( $, .RADIAN. ) );
#38 = EDGE_CURVE ( 'NONE', #45, #182, #72, .T. ) ;
#39 = CARTESIAN_POINT ( 'NONE',  ( -0.4395000000000000018, 5.382322682252617137E-17, 0.05999999999999999778 ) ) ;
#40 = CARTESIAN_POINT ( 'NONE',  ( 0.0000000000000000000, 0.0000000000000000000, 3.985000000000000764 ) ) ;
#41 = PRODUCT_DEFINITION_FORMATION_WITH_SPECIFIED_SOURCE ( 'ANY', '', #344, .NOT_KNOWN. ) ;
#42 = CARTESIAN_POINT ( 'NONE',  ( 7.347880794884118380E-18, 0.0000000000000000000, 0.05999999999999999778 ) ) ;
#43 = PRODUCT_DEFINITION ( 'UNKNOWN', '', #41, #312 ) ;
#44 = FILL_AREA_STYLE ('',( #317 ) ) ;
#45 = VERTEX_POINT ( 'NONE', #243 ) ;
#46 = EDGE_LOOP ( 'NONE', ( #214, #154, #98, #133 ) ) ;
#47 = PRODUCT_DEFINITION_SHAPE ( 'NONE', 'NONE',  #43 ) ;
#48 = AXIS2_PLACEMENT_3D ( 'NONE', #313, #113, #139 ) ;
#49 = ORIENTED_EDGE ( 'NONE', *, *, #232, .T. ) ;
#50 = AXIS2_PLACEMENT_3D ( 'NONE', #62, #168, #201 ) ;
#51 = CARTESIAN_POINT ( 'NONE',  ( 0.5000000000000002220, 6.123233995736768501E-17, 1.502835640909809589 ) ) ;
#52 = EDGE_LOOP ( 'NONE', ( #95, #234, #183, #159 ) ) ;
#53 = DIRECTION ( 'NONE',  ( 0.7071067811865443531, 8.659560562354894648E-17, -0.7071067811865507924 ) ) ;
#54 = ORIENTED_EDGE ( 'NONE', *, *, #257, .F. ) ;
#55 = DIRECTION ( 'NONE',  ( -1.224646799147353207E-16, -0.0000000000000000000, -1.000000000000000000 ) ) ;
#56 = CONICAL_SURFACE ( 'NONE', #200, 0.4850000000000009859, 0.7853981633974437271 ) ;
#57 = CONICAL_SURFACE ( 'NONE', #253, 0.4994999999999998885, 0.1745329251994339192 ) ;
#58 = DIRECTION ( 'NONE',  ( 0.0000000000000000000, 0.0000000000000000000, 1.000000000000000000 ) ) ;
#59 = DIRECTION ( 'NONE',  ( -1.000000000000000000, 0.0000000000000000000, 0.0000000000000000000 ) ) ;
#60 = CARTESIAN_POINT ( 'NONE',  ( -0.4994999999999999440, 0.0000000000000000000, 6.117110761741028667E-17 ) ) ;
#61 = CIRCLE ( 'NONE', #256, 0.4994999999999998885 ) ;
#62 = CARTESIAN_POINT ( 'NONE',  ( 7.347880794884118380E-18, 0.0000000000000000000, 0.05999999999999999778 ) ) ;
#63 = DIRECTION ( 'NONE',  ( -0.0000000000000000000, -0.0000000000000000000, -1.000000000000000000 ) ) ;
#64 = CARTESIAN_POINT ( 'NONE',  ( 0.0000000000000000000, 0.0000000000000000000, 4.000000000000000000 ) ) ;
#65 = AXIS2_PLACEMENT_3D ( 'NONE', #147, #158, #3 ) ;
#66 = DIRECTION ( 'NONE',  ( 0.0000000000000000000, -1.000000000000000000, 0.0000000000000000000 ) ) ;
#67 = ADVANCED_FACE ( 'NONE', ( #245 ), #265, .T. ) ;
#68 = AXIS2_PLACEMENT_3D ( 'NONE', #39, #211, #176 ) ;
#69 = EDGE_LOOP ( 'NONE', ( #151, #266, #206, #240 ) ) ;
#70 = ORIENTED_EDGE ( 'NONE', *, *, #198, .T. ) ;
#71 = EDGE_CURVE ( 'NONE', #293, #45, #174, .T. ) ;
#72 = LINE ( 'NONE', #274, #255 ) ;
#73 = AXIS2_PLACEMENT_3D ( 'NONE', #31, #137, #226 ) ;
#74 = ORIENTED_EDGE ( 'NONE', *, *, #130, .T. ) ;
#75 = FACE_OUTER_BOUND ( 'NONE', #46, .T. ) ;
#76 = VERTEX_POINT ( 'NONE', #269 ) ;
#77 = LINE ( 'NONE', #25, #314 ) ;
#78 = ADVANCED_FACE ( 'NONE', ( #224 ), #328, .T. ) ;
#79 = DIRECTION ( 'NONE',  ( 1.000000000000000000, 0.0000000000000000000, 0.0000000000000000000 ) ) ;
#80 = AXIS2_PLACEMENT_3D ( 'NONE', #164, #88, #227 ) ;
#81 = CARTESIAN_POINT ( 'NONE',  ( 1.836970198721030181E-16, 0.0000000000000000000, 1.500000000000000222 ) ) ;
#82 = CARTESIAN_POINT ( 'NONE',  ( 0.4995000000000001106, 0.0000000000000000000, 1.500000000000000222 ) ) ;
#83 = VERTEX_POINT ( 'NONE', #51 ) ;
#84 = EDGE_CURVE ( 'NONE', #264, #182, #77, .T. ) ;
#85 = CARTESIAN_POINT ( 'NONE',  ( -0.5000000000000000000, 0.0000000000000000000, 3.985000000000000764 ) ) ;
#86 = STYLED_ITEM ( 'NONE', ( #260 ), #170 ) ;
#87 = FACE_OUTER_BOUND ( 'NONE', #319, .T. ) ;
#88 = DIRECTION ( 'NONE',  ( 0.0000000000000000000, 0.0000000000000000000, 1.000000000000000000 ) ) ;
#89 = UNCERTAINTY_MEASURE_WITH_UNIT (LENGTH_MEASURE( 1.000000000000000082E-05 ), #343, 'distance_accuracy_value', 'NONE');
#90 = EDGE_CURVE ( 'NONE', #264, #16, #132, .T. ) ;
#91 = CONICAL_SURFACE ( 'NONE', #276, 0.4850000000000009859, 0.7853981633974437271 ) ;
#92 = PLANE ( 'NONE',  #27 ) ;
#93 = EDGE_CURVE ( 'NONE', #293, #83, #135, .T. ) ;
#94 = CARTESIAN_POINT ( 'NONE',  ( 7.347880794884119921E-18, 0.0000000000000000000, 0.06000000000000001166 ) ) ;
#95 = ORIENTED_EDGE ( 'NONE', *, *, #90, .T. ) ;
#96 =( NAMED_UNIT ( * ) SI_UNIT ( $, .STERADIAN. ) SOLID_ANGLE_UNIT ( ) );
#97 = CIRCLE ( 'NONE', #302, 0.4994999999999999440 ) ;
#98 = ORIENTED_EDGE ( 'NONE', *, *, #100, .T. ) ;
#99 = ORIENTED_EDGE ( 'NONE', *, *, #191, .F. ) ;
#100 = EDGE_CURVE ( 'NONE', #182, #83, #178, .T. ) ;
#101 = DIRECTION ( 'NONE',  ( 0.0000000000000000000, 0.0000000000000000000, 1.000000000000000000 ) ) ;
#102 = ORIENTED_EDGE ( 'NONE', *, *, #322, .F. ) ;
#103 = FACE_OUTER_BOUND ( 'NONE', #203, .T. ) ;
#104 = ORIENTED_EDGE ( 'NONE', *, *, #38, .F. ) ;
#105 = AXIS2_PLACEMENT_3D ( 'NONE', #94, #208, #316 ) ;
#106 = PRODUCT_CONTEXT ( 'NONE', #262, 'mechanical' ) ;
#107 = PRODUCT_RELATED_PRODUCT_CATEGORY ( 'part', '', ( #344 ) ) ;
#108 = CARTESIAN_POINT ( 'NONE',  ( 0.0000000000000000000, 0.0000000000000000000, 0.0000000000000000000 ) ) ;
#109 = DIRECTION ( 'NONE',  ( 1.000000000000000000, 0.0000000000000000000, 0.0000000000000000000 ) ) ;
#110 = DIRECTION ( 'NONE',  ( 1.000000000000000000, 0.0000000000000000000, 0.0000000000000000000 ) ) ;
#111 = CARTESIAN_POINT ( 'NONE',  ( 0.4395000000000000018, 0.0000000000000000000, 0.0000000000000000000 ) ) ;
#112 = AXIS2_PLACEMENT_3D ( 'NONE', #64, #115, #279 ) ;
#113 = DIRECTION ( 'NONE',  ( -0.0000000000000000000, -0.0000000000000000000, -1.000000000000000000 ) ) ;
#114 = CARTESIAN_POINT ( 'NONE',  ( 0.0000000000000000000, 0.0000000000000000000, 4.000000000000000000 ) ) ;
#115 = DIRECTION ( 'NONE',  ( -0.0000000000000000000, -0.0000000000000000000, -1.000000000000000000 ) ) ;
#116 = CARTESIAN_POINT ( 'NONE',  ( 0.4850000000000009859, 6.031385485800721528E-17, 4.000000000000000000 ) ) ;
#117 = AXIS2_PLACEMENT_3D ( 'NONE', #108, #304, #272 ) ;
#118 = VERTEX_POINT ( 'NONE', #300 ) ;
#119 = SURFACE_SIDE_STYLE ('',( #281 ) ) ;
#120 = DIRECTION ( 'NONE',  ( -0.1736481776669312194, 2.126576849575783625E-17, 0.9848077530122080203 ) ) ;
#121 = ORIENTED_EDGE ( 'NONE', *, *, #282, .F. ) ;
#122 = CARTESIAN_POINT ( 'NONE',  ( 0.4395000000000000018, 0.0000000000000000000, 0.05999999999999999778 ) ) ;
#123 = AXIS2_PLACEMENT_3D ( 'NONE', #267, #332, #79 ) ;
#124 = MECHANICAL_DESIGN_GEOMETRIC_PRESENTATION_REPRESENTATION (  '', ( #86 ), #250 ) ;
#125 = ADVANCED_FACE ( 'NONE', ( #30 ), #295, .T. ) ;
#126 = EDGE_LOOP ( 'NONE', ( #121, #127, #99, #102 ) ) ;
#127 = ORIENTED_EDGE ( 'NONE', *, *, #348, .T. ) ;
#128 = LINE ( 'NONE', #6, #152 ) ;
#129 = ORIENTED_EDGE ( 'NONE', *, *, #244, .T. ) ;
#130 = EDGE_CURVE ( 'NONE', #156, #264, #192, .T. ) ;
#131 = DIRECTION ( 'NONE',  ( -1.000000000000000000, 0.0000000000000000000, 1.224646799147353207E-16 ) ) ;
#132 = CIRCLE ( 'NONE', #123, 0.5000000000000000000 ) ;
#133 = ORIENTED_EDGE ( 'NONE', *, *, #93, .F. ) ;
#134 = DIRECTION ( 'NONE',  ( 0.0000000000000000000, 0.0000000000000000000, -1.000000000000000000 ) ) ;
#135 = LINE ( 'NONE', #22, #190 ) ;
#136 = ORIENTED_EDGE ( 'NONE', *, *, #337, .F. ) ;
#137 = DIRECTION ( 'NONE',  ( -0.0000000000000000000, -0.0000000000000000000, -1.000000000000000000 ) ) ;
#138 = CYLINDRICAL_SURFACE ( 'NONE', #48, 0.5000000000000000000 ) ;
#139 = DIRECTION ( 'NONE',  ( -1.000000000000000000, 0.0000000000000000000, 0.0000000000000000000 ) ) ;
#140 = PRESENTATION_STYLE_ASSIGNMENT (( #36 ) ) ;
#141 = VECTOR ( 'NONE', #249, 39.37007874015748143 ) ;
#142 =( NAMED_UNIT ( * ) SI_UNIT ( $, .STERADIAN. ) SOLID_ANGLE_UNIT ( ) );
#143 = APPLICATION_CONTEXT ( 'automotive_design' ) ;
#144 =( CONVERSION_BASED_UNIT ( 'INCH', #181 ) LENGTH_UNIT ( ) NAMED_UNIT ( #195 ) );
#145 = ADVANCED_FACE ( 'NONE', ( #103 ), #161, .T. ) ;
#146 = DIRECTION ( 'NONE',  ( 0.0000000000000000000, 0.0000000000000000000, -1.000000000000000000 ) ) ;
#147 = CARTESIAN_POINT ( 'NONE',  ( 1.836970198721030181E-16, 0.0000000000000000000, 1.500000000000000222 ) ) ;
#148 = SURFACE_SIDE_STYLE ('',( #177 ) ) ;
#149 = ORIENTED_EDGE ( 'NONE', *, *, #348, .F. ) ;
#150 = EDGE_CURVE ( 'NONE', #219, #16, #128, .T. ) ;
#151 = ORIENTED_EDGE ( 'NONE', *, *, #198, .F. ) ;
#152 = VECTOR ( 'NONE', #53, 39.37007874015748143 ) ;
#153 =( GEOMETRIC_REPRESENTATION_CONTEXT ( 3 ) GLOBAL_UNCERTAINTY_ASSIGNED_CONTEXT ( ( #89 ) ) GLOBAL_UNIT_ASSIGNED_CONTEXT ( ( #343, #290, #96 ) ) REPRESENTATION_CONTEXT ( 'NONE', 'WORKASPACE' ) );
#154 = ORIENTED_EDGE ( 'NONE', *, *, #38, .T. ) ;
#155 = DIRECTION ( 'NONE',  ( 1.224646799147353207E-16, 0.0000000000000000000, 1.000000000000000000 ) ) ;
#156 = VERTEX_POINT ( 'NONE', #297 ) ;
#157 = ADVANCED_FACE ( 'NONE', ( #75 ), #57, .T. ) ;
#158 = DIRECTION ( 'NONE',  ( -1.224646799147353207E-16, -0.0000000000000000000, -1.000000000000000000 ) ) ;
#159 = ORIENTED_EDGE ( 'NONE', *, *, #84, .F. ) ;
#160 = DIRECTION ( 'NONE',  ( -1.224646799147353207E-16, -0.0000000000000000000, -1.000000000000000000 ) ) ;
#161 = TOROIDAL_SURFACE ( 'NONE', #32, 0.4395000000000000018, 0.05999999999999999778 ) ;
#162 = CIRCLE ( 'NONE', #105, 0.4994999999999999440 ) ;
#163 = DIRECTION ( 'NONE',  ( 0.1736481776669314137, 0.0000000000000000000, 0.9848077530122077983 ) ) ;
#164 = CARTESIAN_POINT ( 'NONE',  ( 0.0000000000000000000, 0.0000000000000000000, 4.000000000000000000 ) ) ;
#165 = PLANE ( 'NONE',  #172 ) ;
#166 = CARTESIAN_POINT ( 'NONE',  ( 7.347880794884119921E-18, 0.0000000000000000000, 0.06000000000000001166 ) ) ;
#167 =( GEOMETRIC_REPRESENTATION_CONTEXT ( 3 ) GLOBAL_UNCERTAINTY_ASSIGNED_CONTEXT ( ( #194 ) ) GLOBAL_UNIT_ASSIGNED_CONTEXT ( ( #229, #173, #142 ) ) REPRESENTATION_CONTEXT ( 'NONE', 'WORKASPACE' ) );
#168 = DIRECTION ( 'NONE',  ( 0.0000000000000000000, 0.0000000000000000000, 1.000000000000000000 ) ) ;
#169 = EDGE_CURVE ( 'NONE', #83, #182, #341, .T. ) ;
#170 = ADVANCED_BREP_SHAPE_REPRESENTATION ( 'Micro_GEC-001-2-090', ( #311, #335 ), #153 ) ;
#171 = FILL_AREA_STYLE_COLOUR ( '', #326 ) ;
#172 = AXIS2_PLACEMENT_3D ( 'NONE', #114, #284, #291 ) ;
#173 =( NAMED_UNIT ( * ) PLANE_ANGLE_UNIT ( ) SI_UNIT ( $, .RADIAN. ) );
#174 = CIRCLE ( 'NONE', #65, 0.4994999999999998885 ) ;
#175 = CIRCLE ( 'NONE', #303, 0.05999999999999999778 ) ;
#176 = DIRECTION ( 'NONE',  ( -1.000000000000000000, 1.224646799147353454E-16, 0.0000000000000000000 ) ) ;
#177 = SURFACE_STYLE_FILL_AREA ( #44 ) ;
#178 = CIRCLE ( 'NONE', #228, 0.5000000000000000000 ) ;
#179 = LENGTH_MEASURE_WITH_UNIT ( LENGTH_MEASURE( 0.02539999999999999897 ), #258 );
#180 = ORIENTED_EDGE ( 'NONE', *, *, #232, .F. ) ;
#181 = LENGTH_MEASURE_WITH_UNIT ( LENGTH_MEASURE( 0.02539999999999999897 ), #285 );
#182 = VERTEX_POINT ( 'NONE', #220 ) ;
#183 = ORIENTED_EDGE ( 'NONE', *, *, #100, .F. ) ;
#184 = AXIS2_PLACEMENT_3D ( 'NONE', #230, #251, #340 ) ;
#185 = FACE_OUTER_BOUND ( 'NONE', #20, .T. ) ;
#186 = CARTESIAN_POINT ( 'NONE',  ( 0.0000000000000000000, 0.0000000000000000000, 0.0000000000000000000 ) ) ;
#187 = EDGE_LOOP ( 'NONE', ( #296, #294, #268, #346 ) ) ;
#188 = DIRECTION ( 'NONE',  ( -1.000000000000000000, 0.0000000000000000000, 0.0000000000000000000 ) ) ;
#189 = DIRECTION ( 'NONE',  ( -1.224646799147353207E-16, -0.0000000000000000000, -1.000000000000000000 ) ) ;
#190 = VECTOR ( 'NONE', #163, 39.37007874015748143 ) ;
#191 = EDGE_CURVE ( 'NONE', #76, #292, #97, .T. ) ;
#192 = LINE ( 'NONE', #246, #320 ) ;
#193 = FACE_OUTER_BOUND ( 'NONE', #323, .T. ) ;
#194 = UNCERTAINTY_MEASURE_WITH_UNIT (LENGTH_MEASURE( 1.000000000000000082E-05 ), #229, 'distance_accuracy_value', 'NONE');
#195 = DIMENSIONAL_EXPONENTS ( 1.000000000000000000, 0.0000000000000000000, 0.0000000000000000000, 0.0000000000000000000, 0.0000000000000000000, 0.0000000000000000000, 0.0000000000000000000 ) ;
#196 = FACE_OUTER_BOUND ( 'NONE', #199, .T. ) ;
#197 = CARTESIAN_POINT ( 'NONE',  ( -0.4994999999999999440, 0.0000000000000000000, 0.06000000000000001166 ) ) ;
#198 = EDGE_CURVE ( 'NONE', #219, #156, #333, .T. ) ;
#199 = EDGE_LOOP ( 'NONE', ( #54, #351, #298, #270 ) ) ;
#200 = AXIS2_PLACEMENT_3D ( 'NONE', #221, #301, #59 ) ;
#201 = DIRECTION ( 'NONE',  ( 1.000000000000000000, 0.0000000000000000000, 0.0000000000000000000 ) ) ;
#202 = DIRECTION ( 'NONE',  ( -1.224646799147353207E-16, -0.0000000000000000000, -1.000000000000000000 ) ) ;
#203 = EDGE_LOOP ( 'NONE', ( #149, #180, #1, #136 ) ) ;
#204 = CIRCLE ( 'NONE', #248, 0.4395000000000000018 ) ;
#205 = CARTESIAN_POINT ( 'NONE',  ( 0.0000000000000000000, 0.0000000000000000000, 0.0000000000000000000 ) ) ;
#206 = ORIENTED_EDGE ( 'NONE', *, *, #90, .F. ) ;
#207 =( NAMED_UNIT ( * ) SI_UNIT ( $, .STERADIAN. ) SOLID_ANGLE_UNIT ( ) );
#208 = DIRECTION ( 'NONE',  ( 0.0000000000000000000, 0.0000000000000000000, 1.000000000000000000 ) ) ;
#209 = ORIENTED_EDGE ( 'NONE', *, *, #327, .F. ) ;
#210 = AXIS2_PLACEMENT_3D ( 'NONE', #4, #189, #110 ) ;
#211 = DIRECTION ( 'NONE',  ( 1.224646799147353207E-16, 1.000000000000000000, -0.0000000000000000000 ) ) ;
#212 = ORIENTED_EDGE ( 'NONE', *, *, #71, .F. ) ;
#213 = SHAPE_DEFINITION_REPRESENTATION ( #47, #170 ) ;
#214 = ORIENTED_EDGE ( 'NONE', *, *, #318, .F. ) ;
#215 = DIRECTION ( 'NONE',  ( 1.000000000000000000, 0.0000000000000000000, 0.0000000000000000000 ) ) ;
#216 = ORIENTED_EDGE ( 'NONE', *, *, #169, .T. ) ;
#217 = AXIS2_PLACEMENT_3D ( 'NONE', #40, #146, #14 ) ;
#218 = DIRECTION ( 'NONE',  ( 1.000000000000000000, 0.0000000000000000000, 0.0000000000000000000 ) ) ;
#219 = VERTEX_POINT ( 'NONE', #116 ) ;
#220 = CARTESIAN_POINT ( 'NONE',  ( -0.4999999999999997780, 0.0000000000000000000, 1.502835640909809589 ) ) ;
#221 = CARTESIAN_POINT ( 'NONE',  ( 0.0000000000000000000, 0.0000000000000000000, 4.000000000000000000 ) ) ;
#222 = DIRECTION ( 'NONE',  ( 1.000000000000000000, 0.0000000000000000000, 0.0000000000000000000 ) ) ;
#223 = EDGE_CURVE ( 'NONE', #45, #292, #275, .T. ) ;
#224 = FACE_OUTER_BOUND ( 'NONE', #187, .T. ) ;
#225 = LINE ( 'NONE', #307, #235 ) ;
#226 = DIRECTION ( 'NONE',  ( 1.000000000000000000, 0.0000000000000000000, 0.0000000000000000000 ) ) ;
#227 = DIRECTION ( 'NONE',  ( 1.000000000000000000, 0.0000000000000000000, 0.0000000000000000000 ) ) ;
#228 = AXIS2_PLACEMENT_3D ( 'NONE', #336, #160, #109 ) ;
#229 =( CONVERSION_BASED_UNIT ( 'INCH', #305 ) LENGTH_UNIT ( ) NAMED_UNIT ( #280 ) );
#230 = CARTESIAN_POINT ( 'NONE',  ( 0.0000000000000000000, 0.0000000000000000000, 4.000000000000000000 ) ) ;
#231 = AXIS2_PLACEMENT_3D ( 'NONE', #81, #324, #218 ) ;
#232 = EDGE_CURVE ( 'NONE', #23, #118, #350, .T. ) ;
#233 = DIRECTION ( 'NONE',  ( -1.224646799147353207E-16, -0.0000000000000000000, -1.000000000000000000 ) ) ;
#234 = ORIENTED_EDGE ( 'NONE', *, *, #257, .T. ) ;
#235 = VECTOR ( 'NONE', #202, 39.37007874015748143 ) ;
#236 = EDGE_LOOP ( 'NONE', ( #325, #129, #18, #321 ) ) ;
#237 = DIRECTION ( 'NONE',  ( -0.7071067811865443531, 0.0000000000000000000, -0.7071067811865507924 ) ) ;
#238 = ORIENTED_EDGE ( 'NONE', *, *, #282, .T. ) ;
#239 = CARTESIAN_POINT ( 'NONE',  ( 0.0000000000000000000, 0.0000000000000000000, 0.0000000000000000000 ) ) ;
#240 = ORIENTED_EDGE ( 'NONE', *, *, #130, .F. ) ;
#241 = AXIS2_PLACEMENT_3D ( 'NONE', #186, #55, #131 ) ;
#242 = STYLED_ITEM ( 'NONE', ( #140 ), #311 ) ;
#243 = CARTESIAN_POINT ( 'NONE',  ( -0.4994999999999996665, 6.120172378738897351E-17, 1.500000000000000222 ) ) ;
#244 = EDGE_CURVE ( 'NONE', #293, #76, #225, .T. ) ;
#245 = FACE_OUTER_BOUND ( 'NONE', #288, .T. ) ;
#246 = CARTESIAN_POINT ( 'NONE',  ( -0.4850000000000009859, 0.0000000000000000000, 4.000000000000000000 ) ) ;
#247 = CARTESIAN_POINT ( 'NONE',  ( 0.5000000000000000000, 6.123233995736766036E-17, 3.985000000000000764 ) ) ;
#248 = AXIS2_PLACEMENT_3D ( 'NONE', #338, #63, #277 ) ;
#249 = DIRECTION ( 'NONE',  ( -1.224646799147353207E-16, -0.0000000000000000000, -1.000000000000000000 ) ) ;
#250 =( GEOMETRIC_REPRESENTATION_CONTEXT ( 3 ) GLOBAL_UNCERTAINTY_ASSIGNED_CONTEXT ( ( #9 ) ) GLOBAL_UNIT_ASSIGNED_CONTEXT ( ( #144, #37, #207 ) ) REPRESENTATION_CONTEXT ( 'NONE', 'WORKASPACE' ) );
#251 = DIRECTION ( 'NONE',  ( 0.0000000000000000000, 0.0000000000000000000, 1.000000000000000000 ) ) ;
#252 = FACE_OUTER_BOUND ( 'NONE', #126, .T. ) ;
#253 = AXIS2_PLACEMENT_3D ( 'NONE', #5, #155, #222 ) ;
#254 = EDGE_CURVE ( 'NONE', #156, #219, #334, .T. ) ;
#255 = VECTOR ( 'NONE', #120, 39.37007874015747433 ) ;
#256 = AXIS2_PLACEMENT_3D ( 'NONE', #11, #233, #347 ) ;
#257 = EDGE_CURVE ( 'NONE', #16, #83, #33, .T. ) ;
#258 =( LENGTH_UNIT ( ) NAMED_UNIT ( * ) SI_UNIT ( $, .METRE. ) );
#259 = DIRECTION ( 'NONE',  ( -0.0000000000000000000, -0.0000000000000000000, -1.000000000000000000 ) ) ;
#260 = PRESENTATION_STYLE_ASSIGNMENT (( #17 ) ) ;
#261 = ORIENTED_EDGE ( 'NONE', *, *, #254, .F. ) ;
#262 = APPLICATION_CONTEXT ( 'automotive_design' ) ;
#263 = APPLICATION_PROTOCOL_DEFINITION ( 'draft international standard', 'automotive_design', 1998, #262 ) ;
#264 = VERTEX_POINT ( 'NONE', #85 ) ;
#265 = CONICAL_SURFACE ( 'NONE', #231, 0.4994999999999998885, 0.1745329251994339192 ) ;
#266 = ORIENTED_EDGE ( 'NONE', *, *, #150, .T. ) ;
#267 = CARTESIAN_POINT ( 'NONE',  ( 0.0000000000000000000, 0.0000000000000000000, 3.985000000000000764 ) ) ;
#268 = ORIENTED_EDGE ( 'NONE', *, *, #223, .T. ) ;
#269 = CARTESIAN_POINT ( 'NONE',  ( 0.4994999999999999440, 6.117110761741028667E-17, 0.06000000000000001166 ) ) ;
#270 = ORIENTED_EDGE ( 'NONE', *, *, #169, .F. ) ;
#271 = MECHANICAL_DESIGN_GEOMETRIC_PRESENTATION_REPRESENTATION (  '', ( #242 ), #167 ) ;
#272 = DIRECTION ( 'NONE',  ( -1.000000000000000000, 0.0000000000000000000, 1.224646799147353207E-16 ) ) ;
#273 = FACE_OUTER_BOUND ( 'NONE', #69, .T. ) ;
#274 = CARTESIAN_POINT ( 'NONE',  ( -0.4994999999999996665, 6.117110761741027434E-17, 1.500000000000000222 ) ) ;
#275 = LINE ( 'NONE', #60, #141 ) ;
#276 = AXIS2_PLACEMENT_3D ( 'NONE', #330, #134, #188 ) ;
#277 = DIRECTION ( 'NONE',  ( 1.000000000000000000, 0.0000000000000000000, 0.0000000000000000000 ) ) ;
#278 = ADVANCED_FACE ( 'NONE', ( #310 ), #138, .T. ) ;
#279 = DIRECTION ( 'NONE',  ( -1.000000000000000000, 0.0000000000000000000, 0.0000000000000000000 ) ) ;
#280 = DIMENSIONAL_EXPONENTS ( 1.000000000000000000, 0.0000000000000000000, 0.0000000000000000000, 0.0000000000000000000, 0.0000000000000000000, 0.0000000000000000000, 0.0000000000000000000 ) ;
#281 = SURFACE_STYLE_FILL_AREA ( #35 ) ;
#282 = EDGE_CURVE ( 'NONE', #118, #23, #204, .T. ) ;
#283 = VECTOR ( 'NONE', #8, 39.37007874015748143 ) ;
#284 = DIRECTION ( 'NONE',  ( 0.0000000000000000000, 0.0000000000000000000, 1.000000000000000000 ) ) ;
#285 =( LENGTH_UNIT ( ) NAMED_UNIT ( * ) SI_UNIT ( $, .METRE. ) );
#286 = ADVANCED_FACE ( 'NONE', ( #252 ), #342, .T. ) ;
#287 = DIRECTION ( 'NONE',  ( 0.0000000000000000000, 0.0000000000000000000, 1.000000000000000000 ) ) ;
#288 = EDGE_LOOP ( 'NONE', ( #104, #212, #26, #216 ) ) ;
#289 = PRESENTATION_LAYER_ASSIGNMENT (  '', '', ( #86 ) ) ;
#290 =( NAMED_UNIT ( * ) PLANE_ANGLE_UNIT ( ) SI_UNIT ( $, .RADIAN. ) );
#291 = DIRECTION ( 'NONE',  ( 1.000000000000000000, 0.0000000000000000000, -0.0000000000000000000 ) ) ;
#292 = VERTEX_POINT ( 'NONE', #197 ) ;
#293 = VERTEX_POINT ( 'NONE', #82 ) ;
#294 = ORIENTED_EDGE ( 'NONE', *, *, #71, .T. ) ;
#295 = CYLINDRICAL_SURFACE ( 'NONE', #117, 0.4994999999999999440 ) ;
#296 = ORIENTED_EDGE ( 'NONE', *, *, #244, .F. ) ;
#297 = CARTESIAN_POINT ( 'NONE',  ( -0.4850000000000009859, 0.0000000000000000000, 4.000000000000000000 ) ) ;
#298 = ORIENTED_EDGE ( 'NONE', *, *, #84, .T. ) ;
#299 = ADVANCED_FACE ( 'NONE', ( #196 ), #306, .T. ) ;
#300 = CARTESIAN_POINT ( 'NONE',  ( -0.4395000000000000018, 5.749716721996822286E-17, 0.0000000000000000000 ) ) ;
#301 = DIRECTION ( 'NONE',  ( 0.0000000000000000000, 0.0000000000000000000, -1.000000000000000000 ) ) ;
#302 = AXIS2_PLACEMENT_3D ( 'NONE', #166, #13, #339 ) ;
#303 = AXIS2_PLACEMENT_3D ( 'NONE', #122, #66, #345 ) ;
#304 = DIRECTION ( 'NONE',  ( -1.224646799147353207E-16, -0.0000000000000000000, -1.000000000000000000 ) ) ;
#305 = LENGTH_MEASURE_WITH_UNIT ( LENGTH_MEASURE( 0.02539999999999999897 ), #12 );
#306 = CYLINDRICAL_SURFACE ( 'NONE', #112, 0.5000000000000000000 ) ;
#307 = CARTESIAN_POINT ( 'NONE',  ( 0.4994999999999999440, 6.117110761741028667E-17, -6.117110761741028667E-17 ) ) ;
#308 = CIRCLE ( 'NONE', #68, 0.05999999999999997696 ) ;
#309 = DIMENSIONAL_EXPONENTS ( 1.000000000000000000, 0.0000000000000000000, 0.0000000000000000000, 0.0000000000000000000, 0.0000000000000000000, 0.0000000000000000000, 0.0000000000000000000 ) ;
#310 = FACE_OUTER_BOUND ( 'NONE', #52, .T. ) ;
#311 = MANIFOLD_SOLID_BREP ( 'Fillet1', #331 ) ;
#312 = PRODUCT_DEFINITION_CONTEXT ( 'detailed design', #143, 'design' ) ;
#313 = CARTESIAN_POINT ( 'NONE',  ( 0.0000000000000000000, 0.0000000000000000000, 4.000000000000000000 ) ) ;
#314 = VECTOR ( 'NONE', #259, 39.37007874015748143 ) ;
#315 = CIRCLE ( 'NONE', #217, 0.5000000000000000000 ) ;
#316 = DIRECTION ( 'NONE',  ( 1.000000000000000000, 0.0000000000000000000, 0.0000000000000000000 ) ) ;
#317 = FILL_AREA_STYLE_COLOUR ( '', #7 ) ;
#318 = EDGE_CURVE ( 'NONE', #45, #293, #61, .T. ) ;
#319 = EDGE_LOOP ( 'NONE', ( #49, #238 ) ) ;
#320 = VECTOR ( 'NONE', #237, 39.37007874015748143 ) ;
#321 = ORIENTED_EDGE ( 'NONE', *, *, #223, .F. ) ;
#322 = EDGE_CURVE ( 'NONE', #23, #76, #175, .T. ) ;
#323 = EDGE_LOOP ( 'NONE', ( #329, #70 ) ) ;
#324 = DIRECTION ( 'NONE',  ( 1.224646799147353207E-16, 0.0000000000000000000, 1.000000000000000000 ) ) ;
#325 = ORIENTED_EDGE ( 'NONE', *, *, #318, .T. ) ;
#326 = COLOUR_RGB ( '',0.7921568627450980005, 0.8196078431372548767, 0.9333333333333333481 ) ;
#327 = EDGE_CURVE ( 'NONE', #16, #264, #315, .T. ) ;
#328 = CYLINDRICAL_SURFACE ( 'NONE', #241, 0.4994999999999999440 ) ;
#329 = ORIENTED_EDGE ( 'NONE', *, *, #254, .T. ) ;
#330 = CARTESIAN_POINT ( 'NONE',  ( 0.0000000000000000000, 0.0000000000000000000, 4.000000000000000000 ) ) ;
#331 = CLOSED_SHELL ( 'NONE', ( #286, #125, #157, #2, #278, #299, #24, #34, #67, #78, #29, #145 ) ) ;
#332 = DIRECTION ( 'NONE',  ( 0.0000000000000000000, 0.0000000000000000000, -1.000000000000000000 ) ) ;
#333 = CIRCLE ( 'NONE', #184, 0.4850000000000009859 ) ;
#334 = CIRCLE ( 'NONE', #80, 0.4850000000000009859 ) ;
#335 = AXIS2_PLACEMENT_3D ( 'NONE', #205, #287, #19 ) ;
#336 = CARTESIAN_POINT ( 'NONE',  ( 1.840442857284759413E-16, 0.0000000000000000000, 1.502835640909809589 ) ) ;
#337 = EDGE_CURVE ( 'NONE', #292, #76, #162, .T. ) ;
#338 = CARTESIAN_POINT ( 'NONE',  ( 7.347880794884118380E-18, 0.0000000000000000000, 0.0000000000000000000 ) ) ;
#339 = DIRECTION ( 'NONE',  ( 1.000000000000000000, 0.0000000000000000000, 0.0000000000000000000 ) ) ;
#340 = DIRECTION ( 'NONE',  ( 1.000000000000000000, 0.0000000000000000000, 0.0000000000000000000 ) ) ;
#341 = CIRCLE ( 'NONE', #210, 0.5000000000000000000 ) ;
#342 = TOROIDAL_SURFACE ( 'NONE', #50, 0.4395000000000000018, 0.05999999999999999778 ) ;
#343 =( CONVERSION_BASED_UNIT ( 'INCH', #179 ) LENGTH_UNIT ( ) NAMED_UNIT ( #309 ) );
#344 = PRODUCT ( 'Micro_GEC-001-2-090', 'Micro_GEC-001-2-090', '', ( #106 ) ) ;
#345 = DIRECTION ( 'NONE',  ( 0.0000000000000000000, 0.0000000000000000000, -1.000000000000000000 ) ) ;
#346 = ORIENTED_EDGE ( 'NONE', *, *, #337, .T. ) ;
#347 = DIRECTION ( 'NONE',  ( -1.000000000000000000, 0.0000000000000000000, 0.0000000000000000000 ) ) ;
#348 = EDGE_CURVE ( 'NONE', #118, #292, #308, .T. ) ;
#349 = ORIENTED_EDGE ( 'NONE', *, *, #150, .F. ) ;
#350 = CIRCLE ( 'NONE', #73, 0.4395000000000000018 ) ;
#351 = ORIENTED_EDGE ( 'NONE', *, *, #327, .T. ) ;
ENDSEC;
END-ISO-10303-21;
