ISO-10303-21;
HEADER;
FILE_DESCRIPTION (( 'STEP AP214' ),
    '1' );
FILE_NAME ('Micro_BMR-014-2.STEP',
    '2021-09-03T13:43:34',
    ( '' ),
    ( '' ),
    'SwSTEP 2.0',
    'SolidWorks 2020',
    '' );
FILE_SCHEMA (( 'AUTOMOTIVE_DESIGN' ));
ENDSEC;

DATA;
#1 = LENGTH_MEASURE_WITH_UNIT ( LENGTH_MEASURE( 0.02539999999999999897 ), #261 );
#2 = AXIS2_PLACEMENT_3D ( 'NONE', #168, #86, #70 ) ;
#3 = STYLED_ITEM ( 'NONE', ( #203 ), #135 ) ;
#4 = LINE ( 'NONE', #30, #287 ) ;
#5 = CARTESIAN_POINT ( 'NONE',  ( 8.563955066437441783E-19, 0.0000000000000000000, 0.006993000000000000084 ) ) ;
#6 = DIRECTION ( 'NONE',  ( 1.000000000000000000, 0.0000000000000000000, 0.0000000000000000000 ) ) ;
#7 = AXIS2_PLACEMENT_3D ( 'NONE', #269, #317, #94 ) ;
#8 = DIRECTION ( 'NONE',  ( -1.000000000000000000, 1.224646799147353207E-16, 0.0000000000000000000 ) ) ;
#9 = ADVANCED_FACE ( 'NONE', ( #205 ), #248, .T. ) ;
#10 = AXIS2_PLACEMENT_3D ( 'NONE', #119, #48, #224 ) ;
#11 = CARTESIAN_POINT ( 'NONE',  ( 0.0000000000000000000, 0.0000000000000000000, 0.0000000000000000000 ) ) ;
#12 = ORIENTED_EDGE ( 'NONE', *, *, #157, .T. ) ;
#13 = EDGE_CURVE ( 'NONE', #235, #178, #80, .T. ) ;
#14 = CARTESIAN_POINT ( 'NONE',  ( -0.006993000000000000084, 0.0000000000000000000, 0.006993000000000000951 ) ) ;
#15 = CARTESIAN_POINT ( 'NONE',  ( 0.0000000000000000000, 0.0000000000000000000, 0.0000000000000000000 ) ) ;
#16 = CIRCLE ( 'NONE', #184, 0.006993000000000001819 ) ;
#17 = DIRECTION ( 'NONE',  ( -1.224646799147353454E-16, -0.0000000000000000000, -1.000000000000000000 ) ) ;
#18 = SURFACE_STYLE_USAGE ( .BOTH. , #206 ) ;
#19 = CARTESIAN_POINT ( 'NONE',  ( 8.563955066437441783E-19, 0.0000000000000000000, 0.006993000000000000084 ) ) ;
#20 = EDGE_CURVE ( 'NONE', #167, #235, #21, .T. ) ;
#21 = LINE ( 'NONE', #251, #40 ) ;
#22 = CIRCLE ( 'NONE', #149, 0.04750000000000064587 ) ;
#23 = CARTESIAN_POINT ( 'NONE',  ( -0.006992999999999996615, 8.563955066437442745E-19, 0.04200000000000000955 ) ) ;
#24 = DIRECTION ( 'NONE',  ( -1.000000000000000000, 0.0000000000000000000, 0.0000000000000000000 ) ) ;
#25 = SURFACE_STYLE_FILL_AREA ( #52 ) ;
#26 = FACE_OUTER_BOUND ( 'NONE', #194, .T. ) ;
#27 = ADVANCED_FACE ( 'NONE', ( #255 ), #228, .T. ) ;
#28 = CYLINDRICAL_SURFACE ( 'NONE', #277, 0.06250000000000002776 ) ;
#29 = EDGE_CURVE ( 'NONE', #322, #178, #144, .T. ) ;
#30 = CARTESIAN_POINT ( 'NONE',  ( -0.06250000000000002776, 0.0000000000000000000, 1.500000000000000222 ) ) ;
#31 = ORIENTED_EDGE ( 'NONE', *, *, #226, .F. ) ;
#32 = PRODUCT_DEFINITION_CONTEXT ( 'detailed design', #65, 'design' ) ;
#33 = EDGE_CURVE ( 'NONE', #178, #235, #42, .T. ) ;
#34 = FACE_OUTER_BOUND ( 'NONE', #142, .T. ) ;
#35 = MECHANICAL_DESIGN_GEOMETRIC_PRESENTATION_REPRESENTATION (  '', ( #254 ), #260 ) ;
#36 = ORIENTED_EDGE ( 'NONE', *, *, #33, .T. ) ;
#37 = ADVANCED_FACE ( 'NONE', ( #117 ), #282, .T. ) ;
#38 = ORIENTED_EDGE ( 'NONE', *, *, #129, .T. ) ;
#39 = DIRECTION ( 'NONE',  ( -0.0000000000000000000, -0.0000000000000000000, -1.000000000000000000 ) ) ;
#40 = VECTOR ( 'NONE', #17, 39.37007874015748143 ) ;
#41 = ORIENTED_EDGE ( 'NONE', *, *, #88, .F. ) ;
#42 = CIRCLE ( 'NONE', #264, 0.006993000000000000951 ) ;
#43 = PRODUCT_DEFINITION_FORMATION_WITH_SPECIFIED_SOURCE ( 'ANY', '', #147, .NOT_KNOWN. ) ;
#44 = LENGTH_MEASURE_WITH_UNIT ( LENGTH_MEASURE( 0.02539999999999999897 ), #134 );
#45 = DIRECTION ( 'NONE',  ( -1.224646799147353454E-16, -0.0000000000000000000, -1.000000000000000000 ) ) ;
#46 = CARTESIAN_POINT ( 'NONE',  ( 0.0000000000000000000, 0.0000000000000000000, 0.0000000000000000000 ) ) ;
#47 = DIRECTION ( 'NONE',  ( 1.000000000000000000, 0.0000000000000000000, 0.0000000000000000000 ) ) ;
#48 = DIRECTION ( 'NONE',  ( 0.0000000000000000000, 0.0000000000000000000, 1.000000000000000000 ) ) ;
#49 = AXIS2_PLACEMENT_3D ( 'NONE', #132, #39, #89 ) ;
#50 = CARTESIAN_POINT ( 'NONE',  ( 5.143516556418885177E-18, 0.0000000000000000000, 0.04200000000000000955 ) ) ;
#51 = EDGE_CURVE ( 'NONE', #322, #64, #299, .T. ) ;
#52 = FILL_AREA_STYLE ('',( #123 ) ) ;
#53 = LINE ( 'NONE', #85, #154 ) ;
#54 = EDGE_CURVE ( 'NONE', #93, #63, #308, .T. ) ;
#55 = DIRECTION ( 'NONE',  ( -1.224646799147353454E-16, -0.0000000000000000000, -1.000000000000000000 ) ) ;
#56 = AXIS2_PLACEMENT_3D ( 'NONE', #73, #143, #214 ) ;
#57 = SPHERICAL_SURFACE ( 'NONE', #196, 0.006993000000000000084 ) ;
#58 = DIMENSIONAL_EXPONENTS ( 1.000000000000000000, 0.0000000000000000000, 0.0000000000000000000, 0.0000000000000000000, 0.0000000000000000000, 0.0000000000000000000, 0.0000000000000000000 ) ;
#59 = ORIENTED_EDGE ( 'NONE', *, *, #157, .F. ) ;
#60 = AXIS2_PLACEMENT_3D ( 'NONE', #297, #95, #171 ) ;
#61 = AXIS2_PLACEMENT_3D ( 'NONE', #177, #281, #47 ) ;
#62 = MECHANICAL_DESIGN_GEOMETRIC_PRESENTATION_REPRESENTATION (  '', ( #3 ), #185 ) ;
#63 = VERTEX_POINT ( 'NONE', #148 ) ;
#64 = VERTEX_POINT ( 'NONE', #324 ) ;
#65 = APPLICATION_CONTEXT ( 'automotive_design' ) ;
#66 = LINE ( 'NONE', #200, #166 ) ;
#67 = ADVANCED_FACE ( 'NONE', ( #98 ), #87, .T. ) ;
#68 = EDGE_LOOP ( 'NONE', ( #12, #325, #253, #279 ) ) ;
#69 = LINE ( 'NONE', #320, #130 ) ;
#70 = DIRECTION ( 'NONE',  ( 1.000000000000000000, 0.0000000000000000000, 0.0000000000000000000 ) ) ;
#71 = VERTEX_POINT ( 'NONE', #128 ) ;
#72 = ORIENTED_EDGE ( 'NONE', *, *, #13, .F. ) ;
#73 = CARTESIAN_POINT ( 'NONE',  ( 0.0000000000000000000, 0.0000000000000000000, 1.500000000000000222 ) ) ;
#74 = CARTESIAN_POINT ( 'NONE',  ( -0.006993000000000000951, 0.0000000000000000000, 8.563955066437444671E-19 ) ) ;
#75 = CONICAL_SURFACE ( 'NONE', #216, 0.04750000000000064587, 0.7853981633974466137 ) ;
#76 = DIRECTION ( 'NONE',  ( -1.000000000000000000, 0.0000000000000000000, 1.224646799147353454E-16 ) ) ;
#77 = ORIENTED_EDGE ( 'NONE', *, *, #33, .F. ) ;
#78 = ADVANCED_FACE ( 'NONE', ( #183 ), #305, .T. ) ;
#79 = CARTESIAN_POINT ( 'NONE',  ( 0.0000000000000000000, 0.0000000000000000000, 1.500000000000000222 ) ) ;
#80 = CIRCLE ( 'NONE', #60, 0.006993000000000000951 ) ;
#81 =( GEOMETRIC_REPRESENTATION_CONTEXT ( 3 ) GLOBAL_UNCERTAINTY_ASSIGNED_CONTEXT ( ( #240 ) ) GLOBAL_UNIT_ASSIGNED_CONTEXT ( ( #139, #219, #295 ) ) REPRESENTATION_CONTEXT ( 'NONE', 'WORKASPACE' ) );
#82 = DIRECTION ( 'NONE',  ( -1.000000000000000000, 0.0000000000000000000, 0.0000000000000000000 ) ) ;
#83 = DIRECTION ( 'NONE',  ( -0.0000000000000000000, -0.0000000000000000000, -1.000000000000000000 ) ) ;
#84 = DIRECTION ( 'NONE',  ( -1.000000000000000000, 0.0000000000000000000, 0.0000000000000000000 ) ) ;
#85 = CARTESIAN_POINT ( 'NONE',  ( 0.04750000000000064587, 5.817072295950006528E-18, 1.500000000000000222 ) ) ;
#86 = DIRECTION ( 'NONE',  ( -1.224646799147353454E-16, -0.0000000000000000000, -1.000000000000000000 ) ) ;
#87 = CONICAL_SURFACE ( 'NONE', #180, 0.006993000000000001819, 0.1745329251994338637 ) ;
#88 = EDGE_CURVE ( 'NONE', #167, #322, #16, .T. ) ;
#89 = DIRECTION ( 'NONE',  ( -1.000000000000000000, 0.0000000000000000000, 0.0000000000000000000 ) ) ;
#90 = ORIENTED_EDGE ( 'NONE', *, *, #129, .F. ) ;
#91 = AXIS2_PLACEMENT_3D ( 'NONE', #298, #292, #278 ) ;
#92 = CYLINDRICAL_SURFACE ( 'NONE', #49, 0.06250000000000002776 ) ;
#93 = VERTEX_POINT ( 'NONE', #309 ) ;
#94 = DIRECTION ( 'NONE',  ( 1.000000000000000000, 0.0000000000000000000, 0.0000000000000000000 ) ) ;
#95 = DIRECTION ( 'NONE',  ( 1.224646799147353454E-16, 0.0000000000000000000, 1.000000000000000000 ) ) ;
#96 = VERTEX_POINT ( 'NONE', #102 ) ;
#97 = AXIS2_PLACEMENT_3D ( 'NONE', #245, #249, #111 ) ;
#98 = FACE_OUTER_BOUND ( 'NONE', #218, .T. ) ;
#99 = PRODUCT_DEFINITION_SHAPE ( 'NONE', 'NONE',  #108 ) ;
#100 = DIRECTION ( 'NONE',  ( 0.7071067811865462405, 8.659560562354916834E-17, -0.7071067811865486830 ) ) ;
#101 = LENGTH_MEASURE_WITH_UNIT ( LENGTH_MEASURE( 0.02539999999999999897 ), #176 );
#102 = CARTESIAN_POINT ( 'NONE',  ( -0.06250000000000002776, 0.0000000000000000000, 1.485000000000000764 ) ) ;
#103 = CARTESIAN_POINT ( 'NONE',  ( 0.0000000000000000000, 0.0000000000000000000, 1.500000000000000222 ) ) ;
#104 = ADVANCED_FACE ( 'NONE', ( #263 ), #75, .T. ) ;
#105 = CARTESIAN_POINT ( 'NONE',  ( 0.06250000000000002776, 7.654042494670959086E-18, 1.485000000000000764 ) ) ;
#106 = PRESENTATION_LAYER_ASSIGNMENT (  '', '', ( #254 ) ) ;
#107 = DIRECTION ( 'NONE',  ( 0.0000000000000000000, 0.0000000000000000000, 1.000000000000000000 ) ) ;
#108 = PRODUCT_DEFINITION ( 'UNKNOWN', '', #43, #32 ) ;
#109 = EDGE_CURVE ( 'NONE', #93, #96, #179, .T. ) ;
#110 = CIRCLE ( 'NONE', #125, 0.006993000000000001819 ) ;
#111 = DIRECTION ( 'NONE',  ( 1.000000000000000000, 0.0000000000000000000, 0.0000000000000000000 ) ) ;
#112 = EDGE_CURVE ( 'NONE', #96, #64, #4, .T. ) ;
#113 = ORIENTED_EDGE ( 'NONE', *, *, #174, .T. ) ;
#114 = CARTESIAN_POINT ( 'NONE',  ( -0.006992999999999996615, 4.255219000657352499E-18, 0.04200000000000000955 ) ) ;
#115 = ORIENTED_EDGE ( 'NONE', *, *, #236, .F. ) ;
#116 = DIRECTION ( 'NONE',  ( 1.224646799147353207E-16, 1.000000000000000000, -0.0000000000000000000 ) ) ;
#117 = FACE_OUTER_BOUND ( 'NONE', #158, .T. ) ;
#118 = DIRECTION ( 'NONE',  ( -1.000000000000000000, 0.0000000000000000000, 1.525994741205638118E-16 ) ) ;
#119 = CARTESIAN_POINT ( 'NONE',  ( 0.0000000000000000000, 0.0000000000000000000, 1.500000000000000222 ) ) ;
#120 = AXIS2_PLACEMENT_3D ( 'NONE', #127, #231, #6 ) ;
#121 = ADVANCED_FACE ( 'NONE', ( #304 ), #28, .T. ) ;
#122 = DIRECTION ( 'NONE',  ( 1.224646799147353454E-16, 0.0000000000000000000, 1.000000000000000000 ) ) ;
#123 = FILL_AREA_STYLE_COLOUR ( '', #210 ) ;
#124 = PRESENTATION_STYLE_ASSIGNMENT (( #229 ) ) ;
#125 = AXIS2_PLACEMENT_3D ( 'NONE', #50, #55, #84 ) ;
#126 = DIRECTION ( 'NONE',  ( -1.224646799147353454E-16, -0.0000000000000000000, -1.000000000000000000 ) ) ;
#127 = CARTESIAN_POINT ( 'NONE',  ( 4.369488833579652901E-17, 0.0000000000000000000, 0.3567958399615186460 ) ) ;
#128 = CARTESIAN_POINT ( 'NONE',  ( 0.06250000000000006939, 7.654042494670963708E-18, 0.3567958399615186460 ) ) ;
#129 = EDGE_CURVE ( 'NONE', #63, #169, #53, .T. ) ;
#130 = VECTOR ( 'NONE', #273, 39.37007874015748143 ) ;
#131 = ORIENTED_EDGE ( 'NONE', *, *, #186, .T. ) ;
#132 = CARTESIAN_POINT ( 'NONE',  ( 0.0000000000000000000, 0.0000000000000000000, 1.500000000000000222 ) ) ;
#133 = CIRCLE ( 'NONE', #7, 0.06250000000000002776 ) ;
#134 =( LENGTH_UNIT ( ) NAMED_UNIT ( * ) SI_UNIT ( $, .METRE. ) );
#135 = ADVANCED_BREP_SHAPE_REPRESENTATION ( 'Micro_BMR-014-2', ( #136, #234 ), #81 ) ;
#136 = MANIFOLD_SOLID_BREP ( 'Fillet1', #140 ) ;
#137 = APPLICATION_CONTEXT ( 'automotive_design' ) ;
#138 = ORIENTED_EDGE ( 'NONE', *, *, #315, .F. ) ;
#139 =( CONVERSION_BASED_UNIT ( 'INCH', #44 ) LENGTH_UNIT ( ) NAMED_UNIT ( #241 ) );
#140 = CLOSED_SHELL ( 'NONE', ( #37, #303, #67, #78, #121, #283, #244, #104, #27, #9, #164 ) ) ;
#141 = AXIS2_PLACEMENT_3D ( 'NONE', #11, #217, #173 ) ;
#142 = EDGE_LOOP ( 'NONE', ( #31, #199, #197, #289 ) ) ;
#143 = DIRECTION ( 'NONE',  ( 0.0000000000000000000, 0.0000000000000000000, 1.000000000000000000 ) ) ;
#144 = LINE ( 'NONE', #74, #259 ) ;
#145 = DIRECTION ( 'NONE',  ( 0.0000000000000000000, 0.0000000000000000000, 1.000000000000000000 ) ) ;
#146 = DIRECTION ( 'NONE',  ( -0.1736481776669311639, 2.126576849575783008E-17, 0.9848077530122080203 ) ) ;
#147 = PRODUCT ( 'Micro_BMR-014-2', 'Micro_BMR-014-2', '', ( #252 ) ) ;
#148 = CARTESIAN_POINT ( 'NONE',  ( 0.04750000000000064587, 6.735557395310483192E-18, 1.500000000000000222 ) ) ;
#149 = AXIS2_PLACEMENT_3D ( 'NONE', #195, #107, #221 ) ;
#150 = APPLICATION_PROTOCOL_DEFINITION ( 'draft international standard', 'automotive_design', 1998, #65 ) ;
#151 = SURFACE_STYLE_FILL_AREA ( #227 ) ;
#152 = DIRECTION ( 'NONE',  ( 1.000000000000000000, 0.0000000000000000000, 0.0000000000000000000 ) ) ;
#153 =( NAMED_UNIT ( * ) PLANE_ANGLE_UNIT ( ) SI_UNIT ( $, .RADIAN. ) );
#154 = VECTOR ( 'NONE', #100, 39.37007874015748854 ) ;
#155 = DIRECTION ( 'NONE',  ( 0.0000000000000000000, 1.000000000000000000, 0.0000000000000000000 ) ) ;
#156 = DIRECTION ( 'NONE',  ( -1.000000000000000000, 0.0000000000000000000, 0.0000000000000000000 ) ) ;
#157 = EDGE_CURVE ( 'NONE', #322, #167, #110, .T. ) ;
#158 = EDGE_LOOP ( 'NONE', ( #138, #131, #72 ) ) ;
#159 = AXIS2_PLACEMENT_3D ( 'NONE', #15, #45, #76 ) ;
#160 = AXIS2_PLACEMENT_3D ( 'NONE', #103, #212, #156 ) ;
#161 = ORIENTED_EDGE ( 'NONE', *, *, #51, .T. ) ;
#162 = PLANE ( 'NONE',  #56 ) ;
#163 = ORIENTED_EDGE ( 'NONE', *, *, #109, .F. ) ;
#164 = ADVANCED_FACE ( 'NONE', ( #26 ), #57, .T. ) ;
#165 = CARTESIAN_POINT ( 'NONE',  ( 0.006993000000000001819, 8.563955066437441783E-19, 0.006992999999999998349 ) ) ;
#166 = VECTOR ( 'NONE', #187, 39.37007874015748143 ) ;
#167 = VERTEX_POINT ( 'NONE', #230 ) ;
#168 = CARTESIAN_POINT ( 'NONE',  ( 4.369488833579652901E-17, 0.0000000000000000000, 0.3567958399615186460 ) ) ;
#169 = VERTEX_POINT ( 'NONE', #105 ) ;
#170 = APPLICATION_PROTOCOL_DEFINITION ( 'draft international standard', 'automotive_design', 1998, #137 ) ;
#171 = DIRECTION ( 'NONE',  ( -1.000000000000000000, 0.0000000000000000000, 1.525994741205638118E-16 ) ) ;
#172 = UNCERTAINTY_MEASURE_WITH_UNIT (LENGTH_MEASURE( 1.000000000000000082E-05 ), #285, 'distance_accuracy_value', 'NONE');
#173 = DIRECTION ( 'NONE',  ( -1.000000000000000000, 0.0000000000000000000, 1.224646799147353454E-16 ) ) ;
#174 = EDGE_CURVE ( 'NONE', #71, #64, #312, .T. ) ;
#175 = DIRECTION ( 'NONE',  ( 1.224646799147353454E-16, 0.0000000000000000000, 1.000000000000000000 ) ) ;
#176 =( LENGTH_UNIT ( ) NAMED_UNIT ( * ) SI_UNIT ( $, .METRE. ) );
#177 = CARTESIAN_POINT ( 'NONE',  ( 8.563955066437441783E-19, 0.0000000000000000000, 0.006993000000000000084 ) ) ;
#178 = VERTEX_POINT ( 'NONE', #14 ) ;
#179 = LINE ( 'NONE', #232, #271 ) ;
#180 = AXIS2_PLACEMENT_3D ( 'NONE', #207, #122, #225 ) ;
#181 =( NAMED_UNIT ( * ) SI_UNIT ( $, .STERADIAN. ) SOLID_ANGLE_UNIT ( ) );
#182 =( CONVERSION_BASED_UNIT ( 'INCH', #1 ) LENGTH_UNIT ( ) NAMED_UNIT ( #314 ) );
#183 = FACE_OUTER_BOUND ( 'NONE', #316, .T. ) ;
#184 = AXIS2_PLACEMENT_3D ( 'NONE', #208, #126, #24 ) ;
#185 =( GEOMETRIC_REPRESENTATION_CONTEXT ( 3 ) GLOBAL_UNCERTAINTY_ASSIGNED_CONTEXT ( ( #172 ) ) GLOBAL_UNIT_ASSIGNED_CONTEXT ( ( #285, #256, #280 ) ) REPRESENTATION_CONTEXT ( 'NONE', 'WORKASPACE' ) );
#186 = EDGE_CURVE ( 'NONE', #293, #178, #204, .T. ) ;
#187 = DIRECTION ( 'NONE',  ( -0.0000000000000000000, -0.0000000000000000000, -1.000000000000000000 ) ) ;
#188 = ORIENTED_EDGE ( 'NONE', *, *, #112, .F. ) ;
#189 = PRESENTATION_LAYER_ASSIGNMENT (  '', '', ( #3 ) ) ;
#190 = VECTOR ( 'NONE', #146, 39.37007874015747433 ) ;
#191 = ORIENTED_EDGE ( 'NONE', *, *, #315, .T. ) ;
#192 = ORIENTED_EDGE ( 'NONE', *, *, #186, .F. ) ;
#193 = CARTESIAN_POINT ( 'NONE',  ( 8.563955066437441783E-19, 0.0000000000000000000, 0.006993000000000000084 ) ) ;
#194 = EDGE_LOOP ( 'NONE', ( #192, #191, #77 ) ) ;
#195 = CARTESIAN_POINT ( 'NONE',  ( 0.0000000000000000000, 0.0000000000000000000, 1.500000000000000222 ) ) ;
#196 = AXIS2_PLACEMENT_3D ( 'NONE', #5, #155, #262 ) ;
#197 = ORIENTED_EDGE ( 'NONE', *, *, #112, .T. ) ;
#198 = CYLINDRICAL_SURFACE ( 'NONE', #141, 0.006993000000000000951 ) ;
#199 = ORIENTED_EDGE ( 'NONE', *, *, #265, .T. ) ;
#200 = CARTESIAN_POINT ( 'NONE',  ( 0.06250000000000002776, 7.654042494670959086E-18, 1.500000000000000222 ) ) ;
#201 = ORIENTED_EDGE ( 'NONE', *, *, #202, .F. ) ;
#202 = EDGE_CURVE ( 'NONE', #64, #71, #294, .T. ) ;
#203 = PRESENTATION_STYLE_ASSIGNMENT (( #18 ) ) ;
#204 = CIRCLE ( 'NONE', #300, 0.006993000000000000084 ) ;
#205 = FACE_OUTER_BOUND ( 'NONE', #313, .T. ) ;
#206 = SURFACE_SIDE_STYLE ('',( #25 ) ) ;
#207 = CARTESIAN_POINT ( 'NONE',  ( 5.143516556418885177E-18, 0.0000000000000000000, 0.04200000000000000955 ) ) ;
#208 = CARTESIAN_POINT ( 'NONE',  ( 5.143516556418885177E-18, 0.0000000000000000000, 0.04200000000000000955 ) ) ;
#209 = DIRECTION ( 'NONE',  ( -0.0000000000000000000, -0.0000000000000000000, -1.000000000000000000 ) ) ;
#210 = COLOUR_RGB ( '',0.7921568627450980005, 0.8196078431372548767, 0.9333333333333333481 ) ;
#211 = CARTESIAN_POINT ( 'NONE',  ( 0.0000000000000000000, 0.0000000000000000000, 1.500000000000000222 ) ) ;
#212 = DIRECTION ( 'NONE',  ( 0.0000000000000000000, 0.0000000000000000000, -1.000000000000000000 ) ) ;
#213 = DIRECTION ( 'NONE',  ( -1.000000000000000000, 0.0000000000000000000, 0.0000000000000000000 ) ) ;
#214 = DIRECTION ( 'NONE',  ( 1.000000000000000000, 0.0000000000000000000, -0.0000000000000000000 ) ) ;
#215 = ORIENTED_EDGE ( 'NONE', *, *, #226, .T. ) ;
#216 = AXIS2_PLACEMENT_3D ( 'NONE', #79, #284, #213 ) ;
#217 = DIRECTION ( 'NONE',  ( -1.224646799147353454E-16, -0.0000000000000000000, -1.000000000000000000 ) ) ;
#218 = EDGE_LOOP ( 'NONE', ( #59, #161, #220, #311 ) ) ;
#219 =( NAMED_UNIT ( * ) PLANE_ANGLE_UNIT ( ) SI_UNIT ( $, .RADIAN. ) );
#220 = ORIENTED_EDGE ( 'NONE', *, *, #202, .T. ) ;
#221 = DIRECTION ( 'NONE',  ( 1.000000000000000000, 0.0000000000000000000, 0.0000000000000000000 ) ) ;
#222 = EDGE_LOOP ( 'NONE', ( #318, #215, #201, #188 ) ) ;
#223 = COLOUR_RGB ( '',0.7921568627450980005, 0.8196078431372548767, 0.9333333333333333481 ) ;
#224 = DIRECTION ( 'NONE',  ( 1.000000000000000000, 0.0000000000000000000, 0.0000000000000000000 ) ) ;
#225 = DIRECTION ( 'NONE',  ( 1.000000000000000000, 0.0000000000000000000, 0.0000000000000000000 ) ) ;
#226 = EDGE_CURVE ( 'NONE', #169, #71, #66, .T. ) ;
#227 = FILL_AREA_STYLE ('',( #307 ) ) ;
#228 = CONICAL_SURFACE ( 'NONE', #323, 0.006993000000000001819, 0.1745329251994338637 ) ;
#229 = SURFACE_STYLE_USAGE ( .BOTH. , #257 ) ;
#230 = CARTESIAN_POINT ( 'NONE',  ( 0.006993000000000007023, 0.0000000000000000000, 0.04200000000000000955 ) ) ;
#231 = DIRECTION ( 'NONE',  ( -1.224646799147353454E-16, -0.0000000000000000000, -1.000000000000000000 ) ) ;
#232 = CARTESIAN_POINT ( 'NONE',  ( -0.04750000000000064587, 0.0000000000000000000, 1.500000000000000222 ) ) ;
#233 = CIRCLE ( 'NONE', #91, 0.006993000000000000084 ) ;
#234 = AXIS2_PLACEMENT_3D ( 'NONE', #46, #145, #152 ) ;
#235 = VERTEX_POINT ( 'NONE', #165 ) ;
#236 = EDGE_CURVE ( 'NONE', #63, #93, #22, .T. ) ;
#237 = ORIENTED_EDGE ( 'NONE', *, *, #54, .F. ) ;
#238 = ORIENTED_EDGE ( 'NONE', *, *, #29, .T. ) ;
#239 = CIRCLE ( 'NONE', #97, 0.06250000000000002776 ) ;
#240 = UNCERTAINTY_MEASURE_WITH_UNIT (LENGTH_MEASURE( 1.000000000000000082E-05 ), #139, 'distance_accuracy_value', 'NONE');
#241 = DIMENSIONAL_EXPONENTS ( 1.000000000000000000, 0.0000000000000000000, 0.0000000000000000000, 0.0000000000000000000, 0.0000000000000000000, 0.0000000000000000000, 0.0000000000000000000 ) ;
#242 = FACE_OUTER_BOUND ( 'NONE', #68, .T. ) ;
#243 = ORIENTED_EDGE ( 'NONE', *, *, #54, .T. ) ;
#244 = ADVANCED_FACE ( 'NONE', ( #290 ), #162, .T. ) ;
#245 = CARTESIAN_POINT ( 'NONE',  ( 0.0000000000000000000, 0.0000000000000000000, 1.485000000000000764 ) ) ;
#246 = EDGE_CURVE ( 'NONE', #167, #71, #69, .T. ) ;
#247 = ORIENTED_EDGE ( 'NONE', *, *, #109, .T. ) ;
#248 = CYLINDRICAL_SURFACE ( 'NONE', #159, 0.006993000000000000951 ) ;
#249 = DIRECTION ( 'NONE',  ( 0.0000000000000000000, 0.0000000000000000000, -1.000000000000000000 ) ) ;
#250 = DIRECTION ( 'NONE',  ( -1.224646799147353454E-16, -0.0000000000000000000, -1.000000000000000000 ) ) ;
#251 = CARTESIAN_POINT ( 'NONE',  ( 0.006993000000000000951, 8.563955066437441783E-19, -8.563955066437444671E-19 ) ) ;
#252 = PRODUCT_CONTEXT ( 'NONE', #137, 'mechanical' ) ;
#253 = ORIENTED_EDGE ( 'NONE', *, *, #13, .T. ) ;
#254 = STYLED_ITEM ( 'NONE', ( #124 ), #136 ) ;
#255 = FACE_OUTER_BOUND ( 'NONE', #272, .T. ) ;
#256 =( NAMED_UNIT ( * ) PLANE_ANGLE_UNIT ( ) SI_UNIT ( $, .RADIAN. ) );
#257 = SURFACE_SIDE_STYLE ('',( #151 ) ) ;
#258 = SHAPE_DEFINITION_REPRESENTATION ( #99, #135 ) ;
#259 = VECTOR ( 'NONE', #250, 39.37007874015748143 ) ;
#260 =( GEOMETRIC_REPRESENTATION_CONTEXT ( 3 ) GLOBAL_UNCERTAINTY_ASSIGNED_CONTEXT ( ( #267 ) ) GLOBAL_UNIT_ASSIGNED_CONTEXT ( ( #182, #153, #181 ) ) REPRESENTATION_CONTEXT ( 'NONE', 'WORKASPACE' ) );
#261 =( LENGTH_UNIT ( ) NAMED_UNIT ( * ) SI_UNIT ( $, .METRE. ) );
#262 = DIRECTION ( 'NONE',  ( 1.000000000000000000, 0.0000000000000000000, 0.0000000000000000000 ) ) ;
#263 = FACE_OUTER_BOUND ( 'NONE', #296, .T. ) ;
#264 = AXIS2_PLACEMENT_3D ( 'NONE', #19, #175, #118 ) ;
#265 = EDGE_CURVE ( 'NONE', #169, #96, #239, .T. ) ;
#266 = ORIENTED_EDGE ( 'NONE', *, *, #20, .F. ) ;
#267 = UNCERTAINTY_MEASURE_WITH_UNIT (LENGTH_MEASURE( 1.000000000000000082E-05 ), #182, 'distance_accuracy_value', 'NONE');
#268 = ORIENTED_EDGE ( 'NONE', *, *, #265, .F. ) ;
#269 = CARTESIAN_POINT ( 'NONE',  ( 0.0000000000000000000, 0.0000000000000000000, 1.485000000000000764 ) ) ;
#270 = ORIENTED_EDGE ( 'NONE', *, *, #276, .F. ) ;
#271 = VECTOR ( 'NONE', #286, 39.37007874015748854 ) ;
#272 = EDGE_LOOP ( 'NONE', ( #274, #41, #291, #113 ) ) ;
#273 = DIRECTION ( 'NONE',  ( 0.1736481776669313581, 0.0000000000000000000, 0.9848077530122077983 ) ) ;
#274 = ORIENTED_EDGE ( 'NONE', *, *, #51, .F. ) ;
#275 = CARTESIAN_POINT ( 'NONE',  ( 5.143516556418885177E-18, 0.0000000000000000000, 0.04200000000000000955 ) ) ;
#276 = EDGE_CURVE ( 'NONE', #96, #169, #133, .T. ) ;
#277 = AXIS2_PLACEMENT_3D ( 'NONE', #211, #83, #82 ) ;
#278 = DIRECTION ( 'NONE',  ( 0.0000000000000000000, 0.0000000000000000000, -1.000000000000000000 ) ) ;
#279 = ORIENTED_EDGE ( 'NONE', *, *, #29, .F. ) ;
#280 =( NAMED_UNIT ( * ) SI_UNIT ( $, .STERADIAN. ) SOLID_ANGLE_UNIT ( ) );
#281 = DIRECTION ( 'NONE',  ( 0.0000000000000000000, 1.000000000000000000, 0.0000000000000000000 ) ) ;
#282 = SPHERICAL_SURFACE ( 'NONE', #61, 0.006993000000000000084 ) ;
#283 = ADVANCED_FACE ( 'NONE', ( #34 ), #92, .T. ) ;
#284 = DIRECTION ( 'NONE',  ( 0.0000000000000000000, 0.0000000000000000000, -1.000000000000000000 ) ) ;
#285 =( CONVERSION_BASED_UNIT ( 'INCH', #101 ) LENGTH_UNIT ( ) NAMED_UNIT ( #58 ) );
#286 = DIRECTION ( 'NONE',  ( -0.7071067811865462405, 0.0000000000000000000, -0.7071067811865486830 ) ) ;
#287 = VECTOR ( 'NONE', #209, 39.37007874015748143 ) ;
#288 = ORIENTED_EDGE ( 'NONE', *, *, #88, .T. ) ;
#289 = ORIENTED_EDGE ( 'NONE', *, *, #174, .F. ) ;
#290 = FACE_OUTER_BOUND ( 'NONE', #301, .T. ) ;
#291 = ORIENTED_EDGE ( 'NONE', *, *, #246, .T. ) ;
#292 = DIRECTION ( 'NONE',  ( 0.0000000000000000000, -1.000000000000000000, 0.0000000000000000000 ) ) ;
#293 = VERTEX_POINT ( 'NONE', #310 ) ;
#294 = CIRCLE ( 'NONE', #2, 0.06250000000000002776 ) ;
#295 =( NAMED_UNIT ( * ) SI_UNIT ( $, .STERADIAN. ) SOLID_ANGLE_UNIT ( ) );
#296 = EDGE_LOOP ( 'NONE', ( #90, #237, #247, #268 ) ) ;
#297 = CARTESIAN_POINT ( 'NONE',  ( 8.563955066437441783E-19, 0.0000000000000000000, 0.006993000000000000084 ) ) ;
#298 = CARTESIAN_POINT ( 'NONE',  ( 8.563955066437441783E-19, 0.0000000000000000000, 0.006993000000000000084 ) ) ;
#299 = LINE ( 'NONE', #23, #190 ) ;
#300 = AXIS2_PLACEMENT_3D ( 'NONE', #193, #116, #8 ) ;
#301 = EDGE_LOOP ( 'NONE', ( #243, #319 ) ) ;
#302 = DIRECTION ( 'NONE',  ( 1.224646799147353454E-16, 0.0000000000000000000, 1.000000000000000000 ) ) ;
#303 = ADVANCED_FACE ( 'NONE', ( #242 ), #198, .T. ) ;
#304 = FACE_OUTER_BOUND ( 'NONE', #222, .T. ) ;
#305 = CONICAL_SURFACE ( 'NONE', #160, 0.04750000000000064587, 0.7853981633974466137 ) ;
#306 = PRODUCT_RELATED_PRODUCT_CATEGORY ( 'part', '', ( #147 ) ) ;
#307 = FILL_AREA_STYLE_COLOUR ( '', #223 ) ;
#308 = CIRCLE ( 'NONE', #10, 0.04750000000000064587 ) ;
#309 = CARTESIAN_POINT ( 'NONE',  ( -0.04750000000000064587, 0.0000000000000000000, 1.500000000000000222 ) ) ;
#310 = CARTESIAN_POINT ( 'NONE',  ( 1.284593259965616171E-18, 0.0000000000000000000, 0.0000000000000000000 ) ) ;
#311 = ORIENTED_EDGE ( 'NONE', *, *, #246, .F. ) ;
#312 = CIRCLE ( 'NONE', #120, 0.06250000000000002776 ) ;
#313 = EDGE_LOOP ( 'NONE', ( #266, #288, #238, #36 ) ) ;
#314 = DIMENSIONAL_EXPONENTS ( 1.000000000000000000, 0.0000000000000000000, 0.0000000000000000000, 0.0000000000000000000, 0.0000000000000000000, 0.0000000000000000000, 0.0000000000000000000 ) ;
#315 = EDGE_CURVE ( 'NONE', #293, #235, #233, .T. ) ;
#316 = EDGE_LOOP ( 'NONE', ( #115, #38, #270, #163 ) ) ;
#317 = DIRECTION ( 'NONE',  ( 0.0000000000000000000, 0.0000000000000000000, -1.000000000000000000 ) ) ;
#318 = ORIENTED_EDGE ( 'NONE', *, *, #276, .T. ) ;
#319 = ORIENTED_EDGE ( 'NONE', *, *, #236, .T. ) ;
#320 = CARTESIAN_POINT ( 'NONE',  ( 0.006993000000000007023, 0.0000000000000000000, 0.04200000000000000955 ) ) ;
#321 = DIRECTION ( 'NONE',  ( 1.000000000000000000, 0.0000000000000000000, 0.0000000000000000000 ) ) ;
#322 = VERTEX_POINT ( 'NONE', #114 ) ;
#323 = AXIS2_PLACEMENT_3D ( 'NONE', #275, #302, #321 ) ;
#324 = CARTESIAN_POINT ( 'NONE',  ( -0.06249999999999997918, 0.0000000000000000000, 0.3567958399615186460 ) ) ;
#325 = ORIENTED_EDGE ( 'NONE', *, *, #20, .T. ) ;
ENDSEC;
END-ISO-10303-21;
