ISO-10303-21;
HEADER;
FILE_DESCRIPTION (( 'STEP AP214' ),
    '1' );
FILE_NAME ('Micro_GEM-156-4.STEP',
    '2021-09-01T19:52:17',
    ( '' ),
    ( '' ),
    'SwSTEP 2.0',
    'SolidWorks 2020',
    '' );
FILE_SCHEMA (( 'AUTOMOTIVE_DESIGN' ));
ENDSEC;

DATA;
#1 = CARTESIAN_POINT ( 'NONE',  ( 6.894761479199598081E-17, 0.0000000000000000000, 0.5629999999999999449 ) ) ;
#2 = AXIS2_PLACEMENT_3D ( 'NONE', #66, #256, #148 ) ;
#3 = AXIS2_PLACEMENT_3D ( 'NONE', #244, #139, #141 ) ;
#4 = DIRECTION ( 'NONE',  ( 0.0000000000000000000, 0.0000000000000000000, -1.000000000000000000 ) ) ;
#5 = LINE ( 'NONE', #153, #254 ) ;
#6 = ADVANCED_FACE ( 'NONE', ( #49 ), #126, .T. ) ;
#7 = PRESENTATION_LAYER_ASSIGNMENT (  '', '', ( #143 ) ) ;
#8 =( CONVERSION_BASED_UNIT ( 'INCH', #261 ) LENGTH_UNIT ( ) NAMED_UNIT ( #55 ) );
#9 = VERTEX_POINT ( 'NONE', #231 ) ;
#10 = DIRECTION ( 'NONE',  ( -0.7071067811865463515, 0.0000000000000000000, -0.7071067811865486830 ) ) ;
#11 = ORIENTED_EDGE ( 'NONE', *, *, #101, .T. ) ;
#12 = PRESENTATION_STYLE_ASSIGNMENT (( #206 ) ) ;
#13 = EDGE_LOOP ( 'NONE', ( #96, #34, #87, #73 ) ) ;
#14 = APPLICATION_PROTOCOL_DEFINITION ( 'draft international standard', 'automotive_design', 1998, #174 ) ;
#15 = SURFACE_STYLE_FILL_AREA ( #232 ) ;
#16 =( CONVERSION_BASED_UNIT ( 'INCH', #182 ) LENGTH_UNIT ( ) NAMED_UNIT ( #217 ) );
#17 = AXIS2_PLACEMENT_3D ( 'NONE', #94, #102, #43 ) ;
#18 = CARTESIAN_POINT ( 'NONE',  ( 0.0000000000000000000, 0.0000000000000000000, 0.0000000000000000000 ) ) ;
#19 = ADVANCED_FACE ( 'NONE', ( #45 ), #276, .T. ) ;
#20 = SHAPE_DEFINITION_REPRESENTATION ( #218, #251 ) ;
#21 = CARTESIAN_POINT ( 'NONE',  ( 0.0000000000000000000, 0.0000000000000000000, 2.000000000000000000 ) ) ;
#22 = APPLICATION_PROTOCOL_DEFINITION ( 'draft international standard', 'automotive_design', 1998, #189 ) ;
#23 = AXIS2_PLACEMENT_3D ( 'NONE', #18, #120, #194 ) ;
#24 = PRESENTATION_LAYER_ASSIGNMENT (  '', '', ( #277 ) ) ;
#25 = EDGE_LOOP ( 'NONE', ( #92, #11, #32, #234 ) ) ;
#26 = EDGE_CURVE ( 'NONE', #187, #278, #146, .T. ) ;
#27 = DIRECTION ( 'NONE',  ( 1.224646799147353207E-16, 0.0000000000000000000, 1.000000000000000000 ) ) ;
#28 = DIMENSIONAL_EXPONENTS ( 1.000000000000000000, 0.0000000000000000000, 0.0000000000000000000, 0.0000000000000000000, 0.0000000000000000000, 0.0000000000000000000, 0.0000000000000000000 ) ;
#29 = AXIS2_PLACEMENT_3D ( 'NONE', #35, #173, #263 ) ;
#30 = DIRECTION ( 'NONE',  ( -1.000000000000000000, 0.0000000000000000000, 0.0000000000000000000 ) ) ;
#31 = ADVANCED_FACE ( 'NONE', ( #269 ), #211, .T. ) ;
#32 = ORIENTED_EDGE ( 'NONE', *, *, #42, .F. ) ;
#33 = CARTESIAN_POINT ( 'NONE',  ( -0.07802189999999993575, 1.051799537592296220E-17, 0.5629999999999999449 ) ) ;
#34 = ORIENTED_EDGE ( 'NONE', *, *, #200, .T. ) ;
#35 = CARTESIAN_POINT ( 'NONE',  ( 7.987127902323220081E-17, 0.0000000000000000000, 0.6521984875871288390 ) ) ;
#36 = PRODUCT ( 'Micro_GEM-156-4', 'Micro_GEM-156-4', '', ( #99 ) ) ;
#37 = EDGE_CURVE ( 'NONE', #268, #112, #258, .T. ) ;
#38 = CARTESIAN_POINT ( 'NONE',  ( -0.07802190000000000514, 0.0000000000000000000, 1.910985401967897770E-17 ) ) ;
#39 = PRODUCT_DEFINITION_FORMATION_WITH_SPECIFIED_SOURCE ( 'ANY', '', #36, .NOT_KNOWN. ) ;
#40 = EDGE_LOOP ( 'NONE', ( #290, #185 ) ) ;
#41 = CARTESIAN_POINT ( 'NONE',  ( 0.0000000000000000000, 0.0000000000000000000, 2.000000000000000000 ) ) ;
#42 = EDGE_CURVE ( 'NONE', #180, #183, #176, .T. ) ;
#43 = DIRECTION ( 'NONE',  ( 1.000000000000000000, 0.0000000000000000000, 0.0000000000000000000 ) ) ;
#44 = DIRECTION ( 'NONE',  ( 1.000000000000000000, 0.0000000000000000000, 0.0000000000000000000 ) ) ;
#45 = FACE_OUTER_BOUND ( 'NONE', #262, .T. ) ;
#46 = DIRECTION ( 'NONE',  ( 0.0000000000000000000, 0.0000000000000000000, 1.000000000000000000 ) ) ;
#47 = EDGE_LOOP ( 'NONE', ( #89, #193, #118, #132 ) ) ;
#48 = ADVANCED_FACE ( 'NONE', ( #227 ), #169, .T. ) ;
#49 = FACE_OUTER_BOUND ( 'NONE', #47, .T. ) ;
#50 = CARTESIAN_POINT ( 'NONE',  ( 0.0000000000000000000, 0.0000000000000000000, 0.0000000000000000000 ) ) ;
#51 = MANIFOLD_SOLID_BREP ( 'Cut-Revolve1', #202 ) ;
#52 = ORIENTED_EDGE ( 'NONE', *, *, #253, .F. ) ;
#53 = PRODUCT_DEFINITION ( 'UNKNOWN', '', #39, #299 ) ;
#54 = UNCERTAINTY_MEASURE_WITH_UNIT (LENGTH_MEASURE( 1.000000000000000082E-05 ), #117, 'distance_accuracy_value', 'NONE');
#55 = DIMENSIONAL_EXPONENTS ( 1.000000000000000000, 0.0000000000000000000, 0.0000000000000000000, 0.0000000000000000000, 0.0000000000000000000, 0.0000000000000000000, 0.0000000000000000000 ) ;
#56 = CARTESIAN_POINT ( 'NONE',  ( -0.07874999999999980627, 0.0000000000000000000, 2.000000000000000000 ) ) ;
#57 = AXIS2_PLACEMENT_3D ( 'NONE', #61, #74, #30 ) ;
#58 = MECHANICAL_DESIGN_GEOMETRIC_PRESENTATION_REPRESENTATION (  '', ( #277 ), #255 ) ;
#59 = DIRECTION ( 'NONE',  ( 0.0000000000000000000, 0.0000000000000000000, 1.000000000000000000 ) ) ;
#60 = CARTESIAN_POINT ( 'NONE',  ( -0.07874999999999980627, 0.0000000000000000000, 2.000000000000000000 ) ) ;
#61 = CARTESIAN_POINT ( 'NONE',  ( 0.0000000000000000000, 0.0000000000000000000, 2.000000000000000000 ) ) ;
#62 = AXIS2_PLACEMENT_3D ( 'NONE', #131, #175, #104 ) ;
#63 = LINE ( 'NONE', #270, #245 ) ;
#64 = ORIENTED_EDGE ( 'NONE', *, *, #235, .T. ) ;
#65 = ORIENTED_EDGE ( 'NONE', *, *, #26, .F. ) ;
#66 = CARTESIAN_POINT ( 'NONE',  ( 6.894761479199598081E-17, 0.0000000000000000000, 0.5629999999999999449 ) ) ;
#67 = LINE ( 'NONE', #288, #281 ) ;
#68 = SURFACE_SIDE_STYLE ('',( #15 ) ) ;
#69 = DIRECTION ( 'NONE',  ( 0.0000000000000000000, 0.0000000000000000000, 1.000000000000000000 ) ) ;
#70 = DIRECTION ( 'NONE',  ( 1.000000000000000000, 0.0000000000000000000, 0.0000000000000000000 ) ) ;
#71 = AXIS2_PLACEMENT_3D ( 'NONE', #1, #27, #271 ) ;
#72 = EDGE_CURVE ( 'NONE', #187, #110, #221, .T. ) ;
#73 = ORIENTED_EDGE ( 'NONE', *, *, #208, .F. ) ;
#74 = DIRECTION ( 'NONE',  ( -0.0000000000000000000, -0.0000000000000000000, -1.000000000000000000 ) ) ;
#75 = DIRECTION ( 'NONE',  ( 1.000000000000000000, 0.0000000000000000000, -0.0000000000000000000 ) ) ;
#76 = ADVANCED_FACE ( 'NONE', ( #282 ), #239, .F. ) ;
#77 = CIRCLE ( 'NONE', #195, 0.09375000000000001388 ) ;
#78 = FACE_OUTER_BOUND ( 'NONE', #13, .T. ) ;
#79 = ORIENTED_EDGE ( 'NONE', *, *, #152, .T. ) ;
#80 = DIRECTION ( 'NONE',  ( -0.0000000000000000000, -0.0000000000000000000, -1.000000000000000000 ) ) ;
#81 = ORIENTED_EDGE ( 'NONE', *, *, #198, .T. ) ;
#82 = DIRECTION ( 'NONE',  ( 1.000000000000000000, 0.0000000000000000000, 0.0000000000000000000 ) ) ;
#83 = ORIENTED_EDGE ( 'NONE', *, *, #95, .T. ) ;
#84 = LINE ( 'NONE', #90, #233 ) ;
#85 = EDGE_LOOP ( 'NONE', ( #144, #212, #113, #142 ) ) ;
#86 = LINE ( 'NONE', #156, #293 ) ;
#87 = ORIENTED_EDGE ( 'NONE', *, *, #37, .F. ) ;
#88 = DIRECTION ( 'NONE',  ( -1.000000000000000000, 0.0000000000000000000, 1.224646799147353207E-16 ) ) ;
#89 = ORIENTED_EDGE ( 'NONE', *, *, #235, .F. ) ;
#90 = CARTESIAN_POINT ( 'NONE',  ( -0.07802189999999993575, 9.554927009839488851E-18, 0.5629999999999999449 ) ) ;
#91 = CIRCLE ( 'NONE', #29, 0.09375000000000001388 ) ;
#92 = ORIENTED_EDGE ( 'NONE', *, *, #243, .F. ) ;
#93 = DIRECTION ( 'NONE',  ( 0.1736481776669313304, 0.0000000000000000000, 0.9848077530122077983 ) ) ;
#94 = CARTESIAN_POINT ( 'NONE',  ( 0.0000000000000000000, 0.0000000000000000000, 1.984999999999999654 ) ) ;
#95 = EDGE_CURVE ( 'NONE', #183, #180, #77, .T. ) ;
#96 = ORIENTED_EDGE ( 'NONE', *, *, #42, .T. ) ;
#97 = AXIS2_PLACEMENT_3D ( 'NONE', #210, #190, #70 ) ;
#98 = EDGE_CURVE ( 'NONE', #278, #296, #114, .T. ) ;
#99 = PRODUCT_CONTEXT ( 'NONE', #174, 'mechanical' ) ;
#100 = ADVANCED_FACE ( 'NONE', ( #106 ), #197, .T. ) ;
#101 = EDGE_CURVE ( 'NONE', #9, #183, #284, .T. ) ;
#102 = DIRECTION ( 'NONE',  ( 0.0000000000000000000, 0.0000000000000000000, -1.000000000000000000 ) ) ;
#103 = AXIS2_PLACEMENT_3D ( 'NONE', #199, #280, #109 ) ;
#104 = DIRECTION ( 'NONE',  ( -1.000000000000000000, 0.0000000000000000000, 1.224646799147353207E-16 ) ) ;
#105 = EDGE_CURVE ( 'NONE', #161, #9, #230, .T. ) ;
#106 = FACE_OUTER_BOUND ( 'NONE', #40, .T. ) ;
#107 =( NAMED_UNIT ( * ) SI_UNIT ( $, .STERADIAN. ) SOLID_ANGLE_UNIT ( ) );
#108 = CONICAL_SURFACE ( 'NONE', #224, 0.07874999999999980627, 0.7853981633974466137 ) ;
#109 = DIRECTION ( 'NONE',  ( 1.000000000000000000, 0.0000000000000000000, 0.0000000000000000000 ) ) ;
#110 = VERTEX_POINT ( 'NONE', #179 ) ;
#111 = DIRECTION ( 'NONE',  ( -1.224646799147353207E-16, -0.0000000000000000000, -1.000000000000000000 ) ) ;
#112 = VERTEX_POINT ( 'NONE', #204 ) ;
#113 = ORIENTED_EDGE ( 'NONE', *, *, #26, .T. ) ;
#114 = CIRCLE ( 'NONE', #62, 0.07802190000000000514 ) ;
#115 = FACE_OUTER_BOUND ( 'NONE', #25, .T. ) ;
#116 = ORIENTED_EDGE ( 'NONE', *, *, #98, .F. ) ;
#117 =( CONVERSION_BASED_UNIT ( 'INCH', #160 ) LENGTH_UNIT ( ) NAMED_UNIT ( #28 ) );
#118 = ORIENTED_EDGE ( 'NONE', *, *, #253, .T. ) ;
#119 = CIRCLE ( 'NONE', #241, 0.07874999999999980627 ) ;
#120 = DIRECTION ( 'NONE',  ( -1.224646799147353207E-16, -0.0000000000000000000, -1.000000000000000000 ) ) ;
#121 = AXIS2_PLACEMENT_3D ( 'NONE', #129, #220, #75 ) ;
#122 = UNCERTAINTY_MEASURE_WITH_UNIT (LENGTH_MEASURE( 1.000000000000000082E-05 ), #8, 'distance_accuracy_value', 'NONE');
#123 = ORIENTED_EDGE ( 'NONE', *, *, #200, .F. ) ;
#124 = DIRECTION ( 'NONE',  ( -1.224646799147353207E-16, -0.0000000000000000000, -1.000000000000000000 ) ) ;
#125 = MECHANICAL_DESIGN_GEOMETRIC_PRESENTATION_REPRESENTATION (  '', ( #143 ), #286 ) ;
#126 = CONICAL_SURFACE ( 'NONE', #2, 0.07802190000000000514, 0.1745329251994338360 ) ;
#127 =( GEOMETRIC_REPRESENTATION_CONTEXT ( 3 ) GLOBAL_UNCERTAINTY_ASSIGNED_CONTEXT ( ( #172 ) ) GLOBAL_UNIT_ASSIGNED_CONTEXT ( ( #16, #136, #226 ) ) REPRESENTATION_CONTEXT ( 'NONE', 'WORKASPACE' ) );
#128 = EDGE_CURVE ( 'NONE', #112, #268, #91, .T. ) ;
#129 = CARTESIAN_POINT ( 'NONE',  ( 0.0000000000000000000, 0.0000000000000000000, 0.0000000000000000000 ) ) ;
#130 = DIRECTION ( 'NONE',  ( -1.000000000000000000, 0.0000000000000000000, 0.0000000000000000000 ) ) ;
#131 = CARTESIAN_POINT ( 'NONE',  ( 1.170141077868652023E-33, 0.0000000000000000000, 9.554927009839488851E-18 ) ) ;
#132 = ORIENTED_EDGE ( 'NONE', *, *, #128, .T. ) ;
#133 = ORIENTED_EDGE ( 'NONE', *, *, #208, .T. ) ;
#134 =( LENGTH_UNIT ( ) NAMED_UNIT ( * ) SI_UNIT ( $, .METRE. ) );
#135 = ADVANCED_FACE ( 'NONE', ( #78 ), #213, .T. ) ;
#136 =( NAMED_UNIT ( * ) PLANE_ANGLE_UNIT ( ) SI_UNIT ( $, .RADIAN. ) );
#137 = CIRCLE ( 'NONE', #264, 0.07802190000000000514 ) ;
#138 = COLOUR_RGB ( '',0.7921568627450980005, 0.8196078431372548767, 0.9333333333333333481 ) ;
#139 = DIRECTION ( 'NONE',  ( -1.224646799147353207E-16, -0.0000000000000000000, -1.000000000000000000 ) ) ;
#140 = ORIENTED_EDGE ( 'NONE', *, *, #105, .F. ) ;
#141 = DIRECTION ( 'NONE',  ( -1.000000000000000000, 0.0000000000000000000, 0.0000000000000000000 ) ) ;
#142 = ORIENTED_EDGE ( 'NONE', *, *, #147, .F. ) ;
#143 = STYLED_ITEM ( 'NONE', ( #249 ), #51 ) ;
#144 = ORIENTED_EDGE ( 'NONE', *, *, #152, .F. ) ;
#145 = ADVANCED_FACE ( 'NONE', ( #283 ), #177, .T. ) ;
#146 = LINE ( 'NONE', #229, #203 ) ;
#147 = EDGE_CURVE ( 'NONE', #296, #278, #137, .T. ) ;
#148 = DIRECTION ( 'NONE',  ( 1.000000000000000000, 0.0000000000000000000, 0.0000000000000000000 ) ) ;
#149 = CARTESIAN_POINT ( 'NONE',  ( -0.09375000000000001388, 0.0000000000000000000, 1.984999999999999654 ) ) ;
#150 = CARTESIAN_POINT ( 'NONE',  ( 0.07874999999999980627, 9.644093543285380530E-18, 2.000000000000000000 ) ) ;
#151 =( NAMED_UNIT ( * ) PLANE_ANGLE_UNIT ( ) SI_UNIT ( $, .RADIAN. ) );
#152 = EDGE_CURVE ( 'NONE', #110, #296, #5, .T. ) ;
#153 = CARTESIAN_POINT ( 'NONE',  ( 0.07802190000000000514, 9.554927009839488851E-18, -9.554927009839488851E-18 ) ) ;
#154 = ORIENTED_EDGE ( 'NONE', *, *, #37, .T. ) ;
#155 = AXIS2_PLACEMENT_3D ( 'NONE', #252, #201, #130 ) ;
#156 = CARTESIAN_POINT ( 'NONE',  ( 0.07802190000000007453, 0.0000000000000000000, 0.5629999999999999449 ) ) ;
#157 = ORIENTED_EDGE ( 'NONE', *, *, #101, .F. ) ;
#158 = CARTESIAN_POINT ( 'NONE',  ( -0.09374999999999991673, 0.0000000000000000000, 0.6521984875871288390 ) ) ;
#159 = AXIS2_PLACEMENT_3D ( 'NONE', #279, #80, #238 ) ;
#160 = LENGTH_MEASURE_WITH_UNIT ( LENGTH_MEASURE( 0.02539999999999999897 ), #285 );
#161 = VERTEX_POINT ( 'NONE', #56 ) ;
#162 = DIRECTION ( 'NONE',  ( 0.0000000000000000000, 0.0000000000000000000, -1.000000000000000000 ) ) ;
#163 = SURFACE_STYLE_USAGE ( .BOTH. , #68 ) ;
#164 = DIRECTION ( 'NONE',  ( -0.0000000000000000000, -0.0000000000000000000, -1.000000000000000000 ) ) ;
#165 = PRODUCT_RELATED_PRODUCT_CATEGORY ( 'part', '', ( #36 ) ) ;
#166 = FILL_AREA_STYLE_COLOUR ( '', #214 ) ;
#167 = AXIS2_PLACEMENT_3D ( 'NONE', #259, #59, #260 ) ;
#168 = AXIS2_PLACEMENT_3D ( 'NONE', #228, #242, #88 ) ;
#169 = CYLINDRICAL_SURFACE ( 'NONE', #23, 0.07802190000000000514 ) ;
#170 =( NAMED_UNIT ( * ) PLANE_ANGLE_UNIT ( ) SI_UNIT ( $, .RADIAN. ) );
#171 = EDGE_LOOP ( 'NONE', ( #157, #140, #81, #205 ) ) ;
#172 = UNCERTAINTY_MEASURE_WITH_UNIT (LENGTH_MEASURE( 1.000000000000000082E-05 ), #16, 'distance_accuracy_value', 'NONE');
#173 = DIRECTION ( 'NONE',  ( -1.224646799147353207E-16, -0.0000000000000000000, -1.000000000000000000 ) ) ;
#174 = APPLICATION_CONTEXT ( 'automotive_design' ) ;
#175 = DIRECTION ( 'NONE',  ( -1.224646799147353207E-16, -0.0000000000000000000, -1.000000000000000000 ) ) ;
#176 = CIRCLE ( 'NONE', #17, 0.09375000000000001388 ) ;
#177 = CYLINDRICAL_SURFACE ( 'NONE', #57, 0.09375000000000001388 ) ;
#178 = DIRECTION ( 'NONE',  ( 0.7071067811865463515, 8.659560562354916834E-17, -0.7071067811865486830 ) ) ;
#179 = CARTESIAN_POINT ( 'NONE',  ( 0.07802190000000007453, 0.0000000000000000000, 0.5629999999999999449 ) ) ;
#180 = VERTEX_POINT ( 'NONE', #149 ) ;
#181 = VECTOR ( 'NONE', #178, 39.37007874015748143 ) ;
#182 = LENGTH_MEASURE_WITH_UNIT ( LENGTH_MEASURE( 0.02539999999999999897 ), #134 );
#183 = VERTEX_POINT ( 'NONE', #237 ) ;
#184 = CARTESIAN_POINT ( 'NONE',  ( 0.07802190000000000514, 9.554927009839488851E-18, 0.0000000000000000000 ) ) ;
#185 = ORIENTED_EDGE ( 'NONE', *, *, #243, .T. ) ;
#186 = FILL_AREA_STYLE_COLOUR ( '', #138 ) ;
#187 = VERTEX_POINT ( 'NONE', #33 ) ;
#188 = CARTESIAN_POINT ( 'NONE',  ( 0.0000000000000000000, 0.0000000000000000000, 2.000000000000000000 ) ) ;
#189 = APPLICATION_CONTEXT ( 'automotive_design' ) ;
#190 = DIRECTION ( 'NONE',  ( -1.224646799147353207E-16, -0.0000000000000000000, -1.000000000000000000 ) ) ;
#191 = ORIENTED_EDGE ( 'NONE', *, *, #128, .F. ) ;
#192 =( NAMED_UNIT ( * ) SI_UNIT ( $, .STERADIAN. ) SOLID_ANGLE_UNIT ( ) );
#193 = ORIENTED_EDGE ( 'NONE', *, *, #287, .F. ) ;
#194 = DIRECTION ( 'NONE',  ( -1.000000000000000000, 0.0000000000000000000, 1.224646799147353207E-16 ) ) ;
#195 = AXIS2_PLACEMENT_3D ( 'NONE', #216, #4, #82 ) ;
#196 = CIRCLE ( 'NONE', #3, 0.07802190000000000514 ) ;
#197 = PLANE ( 'NONE',  #167 ) ;
#198 = EDGE_CURVE ( 'NONE', #161, #180, #222, .T. ) ;
#199 = CARTESIAN_POINT ( 'NONE',  ( 0.0000000000000000000, 0.0000000000000000000, 2.000000000000000000 ) ) ;
#200 = EDGE_CURVE ( 'NONE', #183, #112, #63, .T. ) ;
#201 = DIRECTION ( 'NONE',  ( -1.224646799147353207E-16, -0.0000000000000000000, -1.000000000000000000 ) ) ;
#202 = CLOSED_SHELL ( 'NONE', ( #48, #19, #225, #135, #145, #100, #31, #6, #297, #76 ) ) ;
#203 = VECTOR ( 'NONE', #124, 39.37007874015748143 ) ;
#204 = CARTESIAN_POINT ( 'NONE',  ( 0.09375000000000009714, 1.148106374200644787E-17, 0.6521984875871288390 ) ) ;
#205 = ORIENTED_EDGE ( 'NONE', *, *, #95, .F. ) ;
#206 = SURFACE_STYLE_USAGE ( .BOTH. , #289 ) ;
#207 = ORIENTED_EDGE ( 'NONE', *, *, #72, .T. ) ;
#208 = EDGE_CURVE ( 'NONE', #180, #268, #67, .T. ) ;
#209 = EDGE_LOOP ( 'NONE', ( #273, #247 ) ) ;
#210 = CARTESIAN_POINT ( 'NONE',  ( 7.987127902323220081E-17, 0.0000000000000000000, 0.6521984875871288390 ) ) ;
#211 = CONICAL_SURFACE ( 'NONE', #236, 0.07874999999999980627, 0.7853981633974466137 ) ;
#212 = ORIENTED_EDGE ( 'NONE', *, *, #287, .T. ) ;
#213 = CYLINDRICAL_SURFACE ( 'NONE', #159, 0.09375000000000001388 ) ;
#214 = COLOUR_RGB ( '',0.7921568627450980005, 0.8196078431372548767, 0.9333333333333333481 ) ;
#215 = AXIS2_PLACEMENT_3D ( 'NONE', #50, #46, #275 ) ;
#216 = CARTESIAN_POINT ( 'NONE',  ( 0.0000000000000000000, 0.0000000000000000000, 1.984999999999999654 ) ) ;
#217 = DIMENSIONAL_EXPONENTS ( 1.000000000000000000, 0.0000000000000000000, 0.0000000000000000000, 0.0000000000000000000, 0.0000000000000000000, 0.0000000000000000000, 0.0000000000000000000 ) ;
#218 = PRODUCT_DEFINITION_SHAPE ( 'NONE', 'NONE',  #53 ) ;
#219 = CARTESIAN_POINT ( 'NONE',  ( 1.170141077868652023E-33, 0.0000000000000000000, 9.554927009839488851E-18 ) ) ;
#220 = DIRECTION ( 'NONE',  ( 0.0000000000000000000, 0.0000000000000000000, 1.000000000000000000 ) ) ;
#221 = CIRCLE ( 'NONE', #155, 0.07802190000000000514 ) ;
#222 = LINE ( 'NONE', #60, #298 ) ;
#223 = ORIENTED_EDGE ( 'NONE', *, *, #72, .F. ) ;
#224 = AXIS2_PLACEMENT_3D ( 'NONE', #41, #162, #248 ) ;
#225 = ADVANCED_FACE ( 'NONE', ( #115 ), #108, .T. ) ;
#226 =( NAMED_UNIT ( * ) SI_UNIT ( $, .STERADIAN. ) SOLID_ANGLE_UNIT ( ) );
#227 = FACE_OUTER_BOUND ( 'NONE', #265, .T. ) ;
#228 = CARTESIAN_POINT ( 'NONE',  ( 0.0000000000000000000, 0.0000000000000000000, 0.0000000000000000000 ) ) ;
#229 = CARTESIAN_POINT ( 'NONE',  ( -0.07802190000000000514, 0.0000000000000000000, 9.554927009839488851E-18 ) ) ;
#230 = CIRCLE ( 'NONE', #103, 0.07874999999999980627 ) ;
#231 = CARTESIAN_POINT ( 'NONE',  ( 0.07874999999999980627, 1.056257864264590573E-17, 2.000000000000000000 ) ) ;
#232 = FILL_AREA_STYLE ('',( #166 ) ) ;
#233 = VECTOR ( 'NONE', #246, 39.37007874015747433 ) ;
#234 = ORIENTED_EDGE ( 'NONE', *, *, #198, .F. ) ;
#235 = EDGE_CURVE ( 'NONE', #187, #268, #84, .T. ) ;
#236 = AXIS2_PLACEMENT_3D ( 'NONE', #21, #292, #274 ) ;
#237 = CARTESIAN_POINT ( 'NONE',  ( 0.09375000000000001388, 1.148106374200643863E-17, 1.984999999999999654 ) ) ;
#238 = DIRECTION ( 'NONE',  ( -1.000000000000000000, 0.0000000000000000000, 0.0000000000000000000 ) ) ;
#239 = PLANE ( 'NONE',  #121 ) ;
#240 = DIRECTION ( 'NONE',  ( -1.224646799147353207E-16, -0.0000000000000000000, -1.000000000000000000 ) ) ;
#241 = AXIS2_PLACEMENT_3D ( 'NONE', #188, #69, #44 ) ;
#242 = DIRECTION ( 'NONE',  ( -1.224646799147353207E-16, -0.0000000000000000000, -1.000000000000000000 ) ) ;
#243 = EDGE_CURVE ( 'NONE', #9, #161, #119, .T. ) ;
#244 = CARTESIAN_POINT ( 'NONE',  ( 6.894761479199598081E-17, 0.0000000000000000000, 0.5629999999999999449 ) ) ;
#245 = VECTOR ( 'NONE', #291, 39.37007874015748143 ) ;
#246 = DIRECTION ( 'NONE',  ( -0.1736481776669311639, 2.126576849575782392E-17, 0.9848077530122080203 ) ) ;
#247 = ORIENTED_EDGE ( 'NONE', *, *, #147, .T. ) ;
#248 = DIRECTION ( 'NONE',  ( -1.000000000000000000, 0.0000000000000000000, 0.0000000000000000000 ) ) ;
#249 = PRESENTATION_STYLE_ASSIGNMENT (( #163 ) ) ;
#250 = FACE_OUTER_BOUND ( 'NONE', #85, .T. ) ;
#251 = ADVANCED_BREP_SHAPE_REPRESENTATION ( 'Micro_GEM-156-4', ( #51, #215 ), #127 ) ;
#252 = CARTESIAN_POINT ( 'NONE',  ( 6.894761479199598081E-17, 0.0000000000000000000, 0.5629999999999999449 ) ) ;
#253 = EDGE_CURVE ( 'NONE', #110, #112, #86, .T. ) ;
#254 = VECTOR ( 'NONE', #240, 39.37007874015748143 ) ;
#255 =( GEOMETRIC_REPRESENTATION_CONTEXT ( 3 ) GLOBAL_UNCERTAINTY_ASSIGNED_CONTEXT ( ( #54 ) ) GLOBAL_UNIT_ASSIGNED_CONTEXT ( ( #117, #170, #192 ) ) REPRESENTATION_CONTEXT ( 'NONE', 'WORKASPACE' ) );
#256 = DIRECTION ( 'NONE',  ( 1.224646799147353207E-16, 0.0000000000000000000, 1.000000000000000000 ) ) ;
#257 = DIRECTION ( 'NONE',  ( -1.000000000000000000, 0.0000000000000000000, 1.224646799147353207E-16 ) ) ;
#258 = CIRCLE ( 'NONE', #97, 0.09375000000000001388 ) ;
#259 = CARTESIAN_POINT ( 'NONE',  ( 0.0000000000000000000, 0.0000000000000000000, 2.000000000000000000 ) ) ;
#260 = DIRECTION ( 'NONE',  ( 1.000000000000000000, 0.0000000000000000000, -0.0000000000000000000 ) ) ;
#261 = LENGTH_MEASURE_WITH_UNIT ( LENGTH_MEASURE( 0.02539999999999999897 ), #295 );
#262 = EDGE_LOOP ( 'NONE', ( #223, #64, #154, #52 ) ) ;
#263 = DIRECTION ( 'NONE',  ( 1.000000000000000000, 0.0000000000000000000, 0.0000000000000000000 ) ) ;
#264 = AXIS2_PLACEMENT_3D ( 'NONE', #219, #111, #257 ) ;
#265 = EDGE_LOOP ( 'NONE', ( #207, #79, #116, #65 ) ) ;
#266 = EDGE_LOOP ( 'NONE', ( #123, #83, #133, #191 ) ) ;
#267 = CYLINDRICAL_SURFACE ( 'NONE', #168, 0.07802190000000000514 ) ;
#268 = VERTEX_POINT ( 'NONE', #158 ) ;
#269 = FACE_OUTER_BOUND ( 'NONE', #171, .T. ) ;
#270 = CARTESIAN_POINT ( 'NONE',  ( 0.09375000000000001388, 1.148106374200643863E-17, 2.000000000000000000 ) ) ;
#271 = DIRECTION ( 'NONE',  ( 1.000000000000000000, 0.0000000000000000000, 0.0000000000000000000 ) ) ;
#272 = SURFACE_STYLE_FILL_AREA ( #294 ) ;
#273 = ORIENTED_EDGE ( 'NONE', *, *, #98, .T. ) ;
#274 = DIRECTION ( 'NONE',  ( -1.000000000000000000, 0.0000000000000000000, 0.0000000000000000000 ) ) ;
#275 = DIRECTION ( 'NONE',  ( 1.000000000000000000, 0.0000000000000000000, 0.0000000000000000000 ) ) ;
#276 = CONICAL_SURFACE ( 'NONE', #71, 0.07802190000000000514, 0.1745329251994338360 ) ;
#277 = STYLED_ITEM ( 'NONE', ( #12 ), #251 ) ;
#278 = VERTEX_POINT ( 'NONE', #38 ) ;
#279 = CARTESIAN_POINT ( 'NONE',  ( 0.0000000000000000000, 0.0000000000000000000, 2.000000000000000000 ) ) ;
#280 = DIRECTION ( 'NONE',  ( 0.0000000000000000000, 0.0000000000000000000, 1.000000000000000000 ) ) ;
#281 = VECTOR ( 'NONE', #164, 39.37007874015748143 ) ;
#282 = FACE_OUTER_BOUND ( 'NONE', #209, .T. ) ;
#283 = FACE_OUTER_BOUND ( 'NONE', #266, .T. ) ;
#284 = LINE ( 'NONE', #150, #181 ) ;
#285 =( LENGTH_UNIT ( ) NAMED_UNIT ( * ) SI_UNIT ( $, .METRE. ) );
#286 =( GEOMETRIC_REPRESENTATION_CONTEXT ( 3 ) GLOBAL_UNCERTAINTY_ASSIGNED_CONTEXT ( ( #122 ) ) GLOBAL_UNIT_ASSIGNED_CONTEXT ( ( #8, #151, #107 ) ) REPRESENTATION_CONTEXT ( 'NONE', 'WORKASPACE' ) );
#287 = EDGE_CURVE ( 'NONE', #110, #187, #196, .T. ) ;
#288 = CARTESIAN_POINT ( 'NONE',  ( -0.09375000000000001388, 0.0000000000000000000, 2.000000000000000000 ) ) ;
#289 = SURFACE_SIDE_STYLE ('',( #272 ) ) ;
#290 = ORIENTED_EDGE ( 'NONE', *, *, #105, .T. ) ;
#291 = DIRECTION ( 'NONE',  ( -0.0000000000000000000, -0.0000000000000000000, -1.000000000000000000 ) ) ;
#292 = DIRECTION ( 'NONE',  ( 0.0000000000000000000, 0.0000000000000000000, -1.000000000000000000 ) ) ;
#293 = VECTOR ( 'NONE', #93, 39.37007874015748143 ) ;
#294 = FILL_AREA_STYLE ('',( #186 ) ) ;
#295 =( LENGTH_UNIT ( ) NAMED_UNIT ( * ) SI_UNIT ( $, .METRE. ) );
#296 = VERTEX_POINT ( 'NONE', #184 ) ;
#297 = ADVANCED_FACE ( 'NONE', ( #250 ), #267, .T. ) ;
#298 = VECTOR ( 'NONE', #10, 39.37007874015748143 ) ;
#299 = PRODUCT_DEFINITION_CONTEXT ( 'detailed design', #189, 'design' ) ;
ENDSEC;
END-ISO-10303-21;
