ISO-10303-21;
HEADER;
FILE_DESCRIPTION (( 'STEP AP214' ),
    '1' );
FILE_NAME ('03062.STEP',
    '2023-06-22T14:54:02',
    ( '' ),
    ( '' ),
    'SwSTEP 2.0',
    'SolidWorks 2023',
    '' );
FILE_SCHEMA (( 'AUTOMOTIVE_DESIGN' ));
ENDSEC;

DATA;
#1 = ORIENTED_EDGE ( 'NONE', *, *, #48, .F. ) ;
#2 = ADVANCED_FACE ( 'NONE', ( #25 ), #217, .T. ) ;
#3 = CIRCLE ( 'NONE', #18, 0.06250000000000000000 ) ;
#4 = VERTEX_POINT ( 'NONE', #133 ) ;
#5 = MANIFOLD_SOLID_BREP ( 'Revolve - Cutting Edge', #148 ) ;
#6 = PRODUCT_DEFINITION_CONTEXT ( 'detailed design', #91, 'design' ) ;
#7 = SURFACE_SIDE_STYLE ('',( #180 ) ) ;
#8 = ORIENTED_EDGE ( 'NONE', *, *, #164, .T. ) ;
#9 = VECTOR ( 'NONE', #251, 39.37007874015748143 ) ;
#10 = AXIS2_PLACEMENT_3D ( 'NONE', #131, #292, #271 ) ;
#11 = LENGTH_MEASURE_WITH_UNIT ( LENGTH_MEASURE( 0.02539999999999999897 ), #308 );
#12 = PRESENTATION_LAYER_ASSIGNMENT (  '', '', ( #278 ) ) ;
#13 = SURFACE_STYLE_FILL_AREA ( #229 ) ;
#14 =( CONVERSION_BASED_UNIT ( 'INCH', #233 ) LENGTH_UNIT ( ) NAMED_UNIT ( #215 ) );
#15 = SURFACE_SIDE_STYLE ('',( #13 ) ) ;
#16 = CYLINDRICAL_SURFACE ( 'NONE', #51, 0.06250000000000001388 ) ;
#17 = PLANE ( 'NONE',  #232 ) ;
#18 = AXIS2_PLACEMENT_3D ( 'NONE', #231, #160, #299 ) ;
#19 =( GEOMETRIC_REPRESENTATION_CONTEXT ( 3 ) GLOBAL_UNCERTAINTY_ASSIGNED_CONTEXT ( ( #166 ) ) GLOBAL_UNIT_ASSIGNED_CONTEXT ( ( #186, #140, #52 ) ) REPRESENTATION_CONTEXT ( 'NONE', 'WORKASPACE' ) );
#20 = EDGE_CURVE ( 'NONE', #150, #71, #222, .T. ) ;
#21 = ORIENTED_EDGE ( 'NONE', *, *, #211, .T. ) ;
#22 = AXIS2_PLACEMENT_3D ( 'NONE', #36, #31, #77 ) ;
#23 = DIRECTION ( 'NONE',  ( -3.498990854706722745E-17, 1.000000000000000000, -0.000000000000000000 ) ) ;
#24 = ORIENTED_EDGE ( 'NONE', *, *, #171, .F. ) ;
#25 = FACE_OUTER_BOUND ( 'NONE', #242, .T. ) ;
#26 = COLOUR_RGB ( '',1.000000000000000000, 0.000000000000000000, 0.000000000000000000 ) ;
#27 = AXIS2_PLACEMENT_3D ( 'NONE', #183, #155, #83 ) ;
#28 = DIRECTION ( 'NONE',  ( -0.000000000000000000, -1.000000000000000000, -0.000000000000000000 ) ) ;
#29 = ORIENTED_EDGE ( 'NONE', *, *, #125, .F. ) ;
#30 = ORIENTED_EDGE ( 'NONE', *, *, #159, .T. ) ;
#31 = DIRECTION ( 'NONE',  ( -0.000000000000000000, -1.000000000000000000, -0.000000000000000000 ) ) ;
#32 = STYLED_ITEM ( 'NONE', ( #49 ), #196 ) ;
#33 = COLOUR_RGB ( '',1.000000000000000000, 0.000000000000000000, 0.000000000000000000 ) ;
#34 = FACE_OUTER_BOUND ( 'NONE', #198, .T. ) ;
#35 = CARTESIAN_POINT ( 'NONE',  ( 0.000000000000000000, 0.000000000000000000, -0.06250000000000001388 ) ) ;
#36 = CARTESIAN_POINT ( 'NONE',  ( 0.000000000000000000, 0.000000000000000000, 0.000000000000000000 ) ) ;
#37 = STYLED_ITEM ( 'NONE', ( #254 ), #218 ) ;
#38 = FACE_OUTER_BOUND ( 'NONE', #41, .T. ) ;
#39 = CARTESIAN_POINT ( 'NONE',  ( 0.000000000000000000, 0.7500000000000001110, 0.000000000000000000 ) ) ;
#40 = VECTOR ( 'NONE', #191, 39.37007874015748143 ) ;
#41 = EDGE_LOOP ( 'NONE', ( #45, #21 ) ) ;
#42 = DIRECTION ( 'NONE',  ( 1.000000000000000000, 0.000000000000000000, 0.000000000000000000 ) ) ;
#43 =( NAMED_UNIT ( * ) PLANE_ANGLE_UNIT ( ) SI_UNIT ( $, .RADIAN. ) );
#44 = ORIENTED_EDGE ( 'NONE', *, *, #125, .T. ) ;
#45 = ORIENTED_EDGE ( 'NONE', *, *, #48, .T. ) ;
#46 =( GEOMETRIC_REPRESENTATION_CONTEXT ( 3 ) GLOBAL_UNCERTAINTY_ASSIGNED_CONTEXT ( ( #99 ) ) GLOBAL_UNIT_ASSIGNED_CONTEXT ( ( #184, #255, #158 ) ) REPRESENTATION_CONTEXT ( 'NONE', 'WORKASPACE' ) );
#47 = DIRECTION ( 'NONE',  ( -1.000000000000000000, 0.000000000000000000, 0.000000000000000000 ) ) ;
#48 = EDGE_CURVE ( 'NONE', #147, #4, #116, .T. ) ;
#49 = PRESENTATION_STYLE_ASSIGNMENT (( #274 ) ) ;
#50 = CARTESIAN_POINT ( 'NONE',  ( 7.654042494670959086E-18, 0.000000000000000000, 0.06250000000000001388 ) ) ;
#51 = AXIS2_PLACEMENT_3D ( 'NONE', #208, #88, #190 ) ;
#52 =( NAMED_UNIT ( * ) SI_UNIT ( $, .STERADIAN. ) SOLID_ANGLE_UNIT ( ) );
#53 = LINE ( 'NONE', #156, #264 ) ;
#54 = SURFACE_STYLE_USAGE ( .BOTH. , #136 ) ;
#55 = PLANE ( 'NONE',  #199 ) ;
#56 = DIMENSIONAL_EXPONENTS ( 1.000000000000000000, 0.000000000000000000, 0.000000000000000000, 0.000000000000000000, 0.000000000000000000, 0.000000000000000000, 0.000000000000000000 ) ;
#57 = CARTESIAN_POINT ( 'NONE',  ( 3.825917812912900435E-35, 0.7500000000000001110, 0.000000000000000000 ) ) ;
#58 =( LENGTH_UNIT ( ) NAMED_UNIT ( * ) SI_UNIT ( $, .METRE. ) );
#59 = FILL_AREA_STYLE ('',( #141 ) ) ;
#60 = CARTESIAN_POINT ( 'NONE',  ( 0.000000000000000000, 0.000000000000000000, -0.06250000000000001388 ) ) ;
#61 = VERTEX_POINT ( 'NONE', #76 ) ;
#62 = PRODUCT_DEFINITION_SHAPE ( 'NONE', 'NONE',  #86 ) ;
#63 = LENGTH_MEASURE_WITH_UNIT ( LENGTH_MEASURE( 0.02539999999999999897 ), #58 );
#64 = MECHANICAL_DESIGN_GEOMETRIC_PRESENTATION_REPRESENTATION (  '', ( #37 ), #112 ) ;
#65 = AXIS2_PLACEMENT_3D ( 'NONE', #108, #234, #192 ) ;
#66 =( CONVERSION_BASED_UNIT ( 'INCH', #63 ) LENGTH_UNIT ( ) NAMED_UNIT ( #56 ) );
#67 = APPLICATION_PROTOCOL_DEFINITION ( 'draft international standard', 'automotive_design', 1998, #74 ) ;
#68 = ORIENTED_EDGE ( 'NONE', *, *, #288, .T. ) ;
#69 = CARTESIAN_POINT ( 'NONE',  ( -7.582401355855259480E-33, 0.7499999999999998890, 0.000000000000000000 ) ) ;
#70 = PRESENTATION_LAYER_ASSIGNMENT (  '', '', ( #32 ) ) ;
#71 = VERTEX_POINT ( 'NONE', #154 ) ;
#72 = EDGE_CURVE ( 'NONE', #263, #61, #106, .T. ) ;
#73 = ORIENTED_EDGE ( 'NONE', *, *, #72, .T. ) ;
#74 = APPLICATION_CONTEXT ( 'automotive_design' ) ;
#75 = AXIS2_PLACEMENT_3D ( 'NONE', #69, #97, #250 ) ;
#76 = CARTESIAN_POINT ( 'NONE',  ( 7.654042494670960626E-18, 0.000000000000000000, 0.06250000000000002776 ) ) ;
#77 = DIRECTION ( 'NONE',  ( 0.000000000000000000, 0.000000000000000000, -1.000000000000000000 ) ) ;
#78 = LENGTH_MEASURE_WITH_UNIT ( LENGTH_MEASURE( 0.02539999999999999897 ), #104 );
#79 =( LENGTH_UNIT ( ) NAMED_UNIT ( * ) SI_UNIT ( $, .METRE. ) );
#80 = STYLED_ITEM ( 'NONE', ( #256 ), #221 ) ;
#81 = DIRECTION ( 'NONE',  ( -3.498990854706722745E-17, 1.000000000000000000, -0.000000000000000000 ) ) ;
#82 = SURFACE_STYLE_FILL_AREA ( #59 ) ;
#83 = DIRECTION ( 'NONE',  ( 0.000000000000000000, 0.000000000000000000, -1.000000000000000000 ) ) ;
#84 =( LENGTH_UNIT ( ) NAMED_UNIT ( * ) SI_UNIT ( $, .METRE. ) );
#85 = SURFACE_STYLE_FILL_AREA ( #305 ) ;
#86 = PRODUCT_DEFINITION ( 'UNKNOWN', '', #145, #6 ) ;
#87 = DIRECTION ( 'NONE',  ( -3.498990854706722745E-17, 1.000000000000000000, -0.000000000000000000 ) ) ;
#88 = DIRECTION ( 'NONE',  ( -0.000000000000000000, -1.000000000000000000, -0.000000000000000000 ) ) ;
#89 = UNCERTAINTY_MEASURE_WITH_UNIT (LENGTH_MEASURE( 1.000000000000000082E-05 ), #14, 'distance_accuracy_value', 'NONE');
#90 = PRESENTATION_LAYER_ASSIGNMENT (  '', '', ( #161 ) ) ;
#91 = APPLICATION_CONTEXT ( 'automotive_design' ) ;
#92 = CARTESIAN_POINT ( 'NONE',  ( 0.000000000000000000, 0.000000000000000000, 0.000000000000000000 ) ) ;
#93 =( CONVERSION_BASED_UNIT ( 'INCH', #270 ) LENGTH_UNIT ( ) NAMED_UNIT ( #142 ) );
#94 = PRODUCT_CONTEXT ( 'NONE', #74, 'mechanical' ) ;
#95 = ORIENTED_EDGE ( 'NONE', *, *, #72, .F. ) ;
#96 = COLOUR_RGB ( '',1.000000000000000000, 0.000000000000000000, 0.000000000000000000 ) ;
#97 = DIRECTION ( 'NONE',  ( -3.498990854706722745E-17, 1.000000000000000000, -0.000000000000000000 ) ) ;
#98 = DIRECTION ( 'NONE',  ( -3.498990854706722745E-17, 1.000000000000000000, -0.000000000000000000 ) ) ;
#99 = UNCERTAINTY_MEASURE_WITH_UNIT (LENGTH_MEASURE( 1.000000000000000082E-05 ), #184, 'distance_accuracy_value', 'NONE');
#100 = ORIENTED_EDGE ( 'NONE', *, *, #171, .T. ) ;
#101 = CIRCLE ( 'NONE', #174, 0.06250000000000001388 ) ;
#102 = CARTESIAN_POINT ( 'NONE',  ( -0.06250000000000012490, 2.500000000000000000, 0.000000000000000000 ) ) ;
#103 =( NAMED_UNIT ( * ) PLANE_ANGLE_UNIT ( ) SI_UNIT ( $, .RADIAN. ) );
#104 =( LENGTH_UNIT ( ) NAMED_UNIT ( * ) SI_UNIT ( $, .METRE. ) );
#105 = FACE_OUTER_BOUND ( 'NONE', #240, .T. ) ;
#106 = CIRCLE ( 'NONE', #22, 0.06250000000000001388 ) ;
#107 =( NAMED_UNIT ( * ) PLANE_ANGLE_UNIT ( ) SI_UNIT ( $, .RADIAN. ) );
#108 = CARTESIAN_POINT ( 'NONE',  ( 0.000000000000000000, 0.000000000000000000, 0.000000000000000000 ) ) ;
#109 = DIRECTION ( 'NONE',  ( -1.000000000000000000, 0.000000000000000000, 0.000000000000000000 ) ) ;
#110 = DIRECTION ( 'NONE',  ( -1.000000000000000000, 0.000000000000000000, 0.000000000000000000 ) ) ;
#111 = LINE ( 'NONE', #35, #40 ) ;
#112 =( GEOMETRIC_REPRESENTATION_CONTEXT ( 3 ) GLOBAL_UNCERTAINTY_ASSIGNED_CONTEXT ( ( #213 ) ) GLOBAL_UNIT_ASSIGNED_CONTEXT ( ( #219, #103, #193 ) ) REPRESENTATION_CONTEXT ( 'NONE', 'WORKASPACE' ) );
#113 = PRODUCT ( '03062', '03062', '', ( #94 ) ) ;
#114 = FILL_AREA_STYLE_COLOUR ( '', #33 ) ;
#115 = UNCERTAINTY_MEASURE_WITH_UNIT (LENGTH_MEASURE( 1.000000000000000082E-05 ), #66, 'distance_accuracy_value', 'NONE');
#116 = CIRCLE ( 'NONE', #277, 0.06250000000000005551 ) ;
#117 = FACE_OUTER_BOUND ( 'NONE', #197, .T. ) ;
#118 = AXIS2_PLACEMENT_3D ( 'NONE', #126, #28, #249 ) ;
#119 = ORIENTED_EDGE ( 'NONE', *, *, #138, .F. ) ;
#120 = DIMENSIONAL_EXPONENTS ( 1.000000000000000000, 0.000000000000000000, 0.000000000000000000, 0.000000000000000000, 0.000000000000000000, 0.000000000000000000, 0.000000000000000000 ) ;
#121 = DIRECTION ( 'NONE',  ( 0.000000000000000000, 0.000000000000000000, 1.000000000000000000 ) ) ;
#122 = ADVANCED_FACE ( 'NONE', ( #38 ), #55, .F. ) ;
#123 =( LENGTH_UNIT ( ) NAMED_UNIT ( * ) SI_UNIT ( $, .METRE. ) );
#124 = SURFACE_STYLE_USAGE ( .BOTH. , #7 ) ;
#125 = EDGE_CURVE ( 'NONE', #178, #214, #3, .T. ) ;
#126 = CARTESIAN_POINT ( 'NONE',  ( 0.000000000000000000, 0.000000000000000000, 0.000000000000000000 ) ) ;
#127 = FILL_AREA_STYLE ('',( #226 ) ) ;
#128 = MECHANICAL_DESIGN_GEOMETRIC_PRESENTATION_REPRESENTATION (  '', ( #161 ), #248 ) ;
#129 = MECHANICAL_DESIGN_GEOMETRIC_PRESENTATION_REPRESENTATION (  '', ( #80 ), #260 ) ;
#130 = ADVANCED_FACE ( 'NONE', ( #204 ), #134, .T. ) ;
#131 = CARTESIAN_POINT ( 'NONE',  ( -6.123233995736766036E-17, 2.500000000000000000, 0.000000000000000000 ) ) ;
#132 = CARTESIAN_POINT ( 'NONE',  ( -6.123233995736766036E-17, 2.500000000000000000, 0.000000000000000000 ) ) ;
#133 = CARTESIAN_POINT ( 'NONE',  ( 0.06250000000000000000, 2.500000000000000000, 7.654042494670963708E-18 ) ) ;
#134 = CYLINDRICAL_SURFACE ( 'NONE', #227, 0.06250000000000002776 ) ;
#135 = FILL_AREA_STYLE_COLOUR ( '', #26 ) ;
#136 = SURFACE_SIDE_STYLE ('',( #82 ) ) ;
#137 = PLANE ( 'NONE',  #65 ) ;
#138 = EDGE_CURVE ( 'NONE', #71, #147, #280, .T. ) ;
#139 = LINE ( 'NONE', #50, #303 ) ;
#140 =( NAMED_UNIT ( * ) PLANE_ANGLE_UNIT ( ) SI_UNIT ( $, .RADIAN. ) );
#141 = FILL_AREA_STYLE_COLOUR ( '', #96 ) ;
#142 = DIMENSIONAL_EXPONENTS ( 1.000000000000000000, 0.000000000000000000, 0.000000000000000000, 0.000000000000000000, 0.000000000000000000, 0.000000000000000000, 0.000000000000000000 ) ;
#143 =( NAMED_UNIT ( * ) PLANE_ANGLE_UNIT ( ) SI_UNIT ( $, .RADIAN. ) );
#144 = UNCERTAINTY_MEASURE_WITH_UNIT (LENGTH_MEASURE( 1.000000000000000082E-05 ), #173, 'distance_accuracy_value', 'NONE');
#145 = PRODUCT_DEFINITION_FORMATION_WITH_SPECIFIED_SOURCE ( 'ANY', '', #113, .NOT_KNOWN. ) ;
#146 = FACE_OUTER_BOUND ( 'NONE', #151, .T. ) ;
#147 = VERTEX_POINT ( 'NONE', #102 ) ;
#148 = CLOSED_SHELL ( 'NONE', ( #200, #221, #257, #196 ) ) ;
#149 = SURFACE_STYLE_FILL_AREA ( #267 ) ;
#150 = VERTEX_POINT ( 'NONE', #259 ) ;
#151 = EDGE_LOOP ( 'NONE', ( #44, #30, #95, #295 ) ) ;
#152 = MECHANICAL_DESIGN_GEOMETRIC_PRESENTATION_REPRESENTATION (  '', ( #278 ), #19 ) ;
#153 = EDGE_LOOP ( 'NONE', ( #294, #177, #172, #220 ) ) ;
#154 = CARTESIAN_POINT ( 'NONE',  ( -0.06250000000000000000, 0.7499999999999998890, 0.000000000000000000 ) ) ;
#155 = DIRECTION ( 'NONE',  ( -0.000000000000000000, -1.000000000000000000, -0.000000000000000000 ) ) ;
#156 = CARTESIAN_POINT ( 'NONE',  ( 0.06249999999999997224, 2.500000000000000000, 7.654042494670960626E-18 ) ) ;
#157 = SURFACE_STYLE_USAGE ( .BOTH. , #212 ) ;
#158 =( NAMED_UNIT ( * ) SI_UNIT ( $, .STERADIAN. ) SOLID_ANGLE_UNIT ( ) );
#159 = EDGE_CURVE ( 'NONE', #214, #61, #139, .T. ) ;
#160 = DIRECTION ( 'NONE',  ( -0.000000000000000000, -1.000000000000000000, -0.000000000000000000 ) ) ;
#161 = STYLED_ITEM ( 'NONE', ( #176 ), #5 ) ;
#162 = AXIS2_PLACEMENT_3D ( 'NONE', #237, #87, #110 ) ;
#163 = DIRECTION ( 'NONE',  ( 0.000000000000000000, 1.000000000000000000, 0.000000000000000000 ) ) ;
#164 = EDGE_CURVE ( 'NONE', #214, #178, #243, .T. ) ;
#165 = DIRECTION ( 'NONE',  ( -1.000000000000000000, -3.498990854706722745E-17, 0.000000000000000000 ) ) ;
#166 = UNCERTAINTY_MEASURE_WITH_UNIT (LENGTH_MEASURE( 1.000000000000000082E-05 ), #186, 'distance_accuracy_value', 'NONE');
#167 = ORIENTED_EDGE ( 'NONE', *, *, #244, .T. ) ;
#168 = CLOSED_SHELL ( 'NONE', ( #2, #282, #130, #122 ) ) ;
#169 = DIMENSIONAL_EXPONENTS ( 1.000000000000000000, 0.000000000000000000, 0.000000000000000000, 0.000000000000000000, 0.000000000000000000, 0.000000000000000000, 0.000000000000000000 ) ;
#170 = PRESENTATION_STYLE_ASSIGNMENT (( #210 ) ) ;
#171 = EDGE_CURVE ( 'NONE', #61, #263, #101, .T. ) ;
#172 = ORIENTED_EDGE ( 'NONE', *, *, #138, .T. ) ;
#173 =( CONVERSION_BASED_UNIT ( 'INCH', #194 ) LENGTH_UNIT ( ) NAMED_UNIT ( #169 ) );
#174 = AXIS2_PLACEMENT_3D ( 'NONE', #296, #187, #253 ) ;
#175 =( GEOMETRIC_REPRESENTATION_CONTEXT ( 3 ) GLOBAL_UNCERTAINTY_ASSIGNED_CONTEXT ( ( #115 ) ) GLOBAL_UNIT_ASSIGNED_CONTEXT ( ( #66, #143, #286 ) ) REPRESENTATION_CONTEXT ( 'NONE', 'WORKASPACE' ) );
#176 = PRESENTATION_STYLE_ASSIGNMENT (( #124 ) ) ;
#177 = ORIENTED_EDGE ( 'NONE', *, *, #20, .T. ) ;
#178 = VERTEX_POINT ( 'NONE', #202 ) ;
#179 = AXIS2_PLACEMENT_3D ( 'NONE', #272, #23, #47 ) ;
#180 = SURFACE_STYLE_FILL_AREA ( #127 ) ;
#181 = CIRCLE ( 'NONE', #10, 0.06250000000000005551 ) ;
#182 = DIRECTION ( 'NONE',  ( -3.498990854706722745E-17, 1.000000000000000000, -0.000000000000000000 ) ) ;
#183 = CARTESIAN_POINT ( 'NONE',  ( 0.000000000000000000, 0.7500000000000001110, 0.000000000000000000 ) ) ;
#184 =( CONVERSION_BASED_UNIT ( 'INCH', #78 ) LENGTH_UNIT ( ) NAMED_UNIT ( #281 ) );
#185 = DIRECTION ( 'NONE',  ( 3.498990854706722745E-17, -1.000000000000000000, 0.000000000000000000 ) ) ;
#186 =( CONVERSION_BASED_UNIT ( 'INCH', #302 ) LENGTH_UNIT ( ) NAMED_UNIT ( #258 ) );
#187 = DIRECTION ( 'NONE',  ( -0.000000000000000000, -1.000000000000000000, -0.000000000000000000 ) ) ;
#188 = FACE_OUTER_BOUND ( 'NONE', #287, .T. ) ;
#189 = EDGE_CURVE ( 'NONE', #150, #4, #53, .T. ) ;
#190 = DIRECTION ( 'NONE',  ( 0.000000000000000000, 0.000000000000000000, -1.000000000000000000 ) ) ;
#191 = DIRECTION ( 'NONE',  ( -0.000000000000000000, -1.000000000000000000, -0.000000000000000000 ) ) ;
#192 = DIRECTION ( 'NONE',  ( 0.000000000000000000, 0.000000000000000000, -1.000000000000000000 ) ) ;
#193 =( NAMED_UNIT ( * ) SI_UNIT ( $, .STERADIAN. ) SOLID_ANGLE_UNIT ( ) );
#194 = LENGTH_MEASURE_WITH_UNIT ( LENGTH_MEASURE( 0.02539999999999999897 ), #289 );
#195 =( GEOMETRIC_REPRESENTATION_CONTEXT ( 3 ) GLOBAL_UNCERTAINTY_ASSIGNED_CONTEXT ( ( #144 ) ) GLOBAL_UNIT_ASSIGNED_CONTEXT ( ( #173, #241, #239 ) ) REPRESENTATION_CONTEXT ( 'NONE', 'WORKASPACE' ) );
#196 = ADVANCED_FACE ( 'NONE', ( #34 ), #137, .T. ) ;
#197 = EDGE_LOOP ( 'NONE', ( #29, #225 ) ) ;
#198 = EDGE_LOOP ( 'NONE', ( #73, #100 ) ) ;
#199 = AXIS2_PLACEMENT_3D ( 'NONE', #230, #185, #207 ) ;
#200 = ADVANCED_FACE ( 'NONE', ( #146 ), #209, .T. ) ;
#201 = CIRCLE ( 'NONE', #162, 0.06250000000000000000 ) ;
#202 = CARTESIAN_POINT ( 'NONE',  ( 0.000000000000000000, 0.7500000000000001110, -0.06250000000000000000 ) ) ;
#203 = SURFACE_STYLE_FILL_AREA ( #235 ) ;
#204 = FACE_OUTER_BOUND ( 'NONE', #153, .T. ) ;
#205 = MECHANICAL_DESIGN_GEOMETRIC_PRESENTATION_REPRESENTATION (  '', ( #307 ), #175 ) ;
#206 = PRESENTATION_LAYER_ASSIGNMENT (  '', '', ( #307 ) ) ;
#207 = DIRECTION ( 'NONE',  ( 1.000000000000000000, 3.498990854706722745E-17, 0.000000000000000000 ) ) ;
#208 = CARTESIAN_POINT ( 'NONE',  ( 0.000000000000000000, 0.000000000000000000, 0.000000000000000000 ) ) ;
#209 = CYLINDRICAL_SURFACE ( 'NONE', #118, 0.06250000000000001388 ) ;
#210 = SURFACE_STYLE_USAGE ( .BOTH. , #236 ) ;
#211 = EDGE_CURVE ( 'NONE', #4, #147, #181, .T. ) ;
#212 = SURFACE_SIDE_STYLE ('',( #203 ) ) ;
#213 = UNCERTAINTY_MEASURE_WITH_UNIT (LENGTH_MEASURE( 1.000000000000000082E-05 ), #219, 'distance_accuracy_value', 'NONE');
#214 = VERTEX_POINT ( 'NONE', #223 ) ;
#215 = DIMENSIONAL_EXPONENTS ( 1.000000000000000000, 0.000000000000000000, 0.000000000000000000, 0.000000000000000000, 0.000000000000000000, 0.000000000000000000, 0.000000000000000000 ) ;
#216 = SURFACE_STYLE_USAGE ( .BOTH. , #276 ) ;
#217 = CYLINDRICAL_SURFACE ( 'NONE', #179, 0.06250000000000002776 ) ;
#218 = MANIFOLD_SOLID_BREP ( 'Revolve - Tool Body (Straight Shanked)', #168 ) ;
#219 =( CONVERSION_BASED_UNIT ( 'INCH', #11 ) LENGTH_UNIT ( ) NAMED_UNIT ( #120 ) );
#220 = ORIENTED_EDGE ( 'NONE', *, *, #211, .F. ) ;
#221 = ADVANCED_FACE ( 'NONE', ( #117 ), #246, .T. ) ;
#222 = CIRCLE ( 'NONE', #75, 0.06250000000000000000 ) ;
#223 = CARTESIAN_POINT ( 'NONE',  ( 7.654042494670959086E-18, 0.7500000000000001110, 0.06250000000000000000 ) ) ;
#224 = PRESENTATION_LAYER_ASSIGNMENT (  '', '', ( #37 ) ) ;
#225 = ORIENTED_EDGE ( 'NONE', *, *, #164, .F. ) ;
#226 = FILL_AREA_STYLE_COLOUR ( '', #306 ) ;
#227 = AXIS2_PLACEMENT_3D ( 'NONE', #279, #81, #297 ) ;
#228 = FILL_AREA_STYLE_COLOUR ( '', #238 ) ;
#229 = FILL_AREA_STYLE ('',( #135 ) ) ;
#230 = CARTESIAN_POINT ( 'NONE',  ( 0.06250000000000000000, 2.500000000000000000, 0.000000000000000000 ) ) ;
#231 = CARTESIAN_POINT ( 'NONE',  ( 0.000000000000000000, 0.7500000000000001110, 0.000000000000000000 ) ) ;
#232 = AXIS2_PLACEMENT_3D ( 'NONE', #57, #304, #165 ) ;
#233 = LENGTH_MEASURE_WITH_UNIT ( LENGTH_MEASURE( 0.02539999999999999897 ), #84 );
#234 = DIRECTION ( 'NONE',  ( 0.000000000000000000, -1.000000000000000000, -0.000000000000000000 ) ) ;
#235 = FILL_AREA_STYLE ('',( #285 ) ) ;
#236 = SURFACE_SIDE_STYLE ('',( #85 ) ) ;
#237 = CARTESIAN_POINT ( 'NONE',  ( -7.582401355855259480E-33, 0.7499999999999998890, 0.000000000000000000 ) ) ;
#238 = COLOUR_RGB ( '',0.7921568627450980005, 0.8196078431372548767, 0.9333333333333333481 ) ;
#239 =( NAMED_UNIT ( * ) SI_UNIT ( $, .STERADIAN. ) SOLID_ANGLE_UNIT ( ) );
#240 = EDGE_LOOP ( 'NONE', ( #290, #8, #68, #24 ) ) ;
#241 =( NAMED_UNIT ( * ) PLANE_ANGLE_UNIT ( ) SI_UNIT ( $, .RADIAN. ) );
#242 = EDGE_LOOP ( 'NONE', ( #167, #273, #1, #119 ) ) ;
#243 = CIRCLE ( 'NONE', #27, 0.06250000000000000000 ) ;
#244 = EDGE_CURVE ( 'NONE', #71, #150, #201, .T. ) ;
#245 = ORIENTED_EDGE ( 'NONE', *, *, #244, .F. ) ;
#246 = PLANE ( 'NONE',  #300 ) ;
#247 = UNCERTAINTY_MEASURE_WITH_UNIT (LENGTH_MEASURE( 1.000000000000000082E-05 ), #93, 'distance_accuracy_value', 'NONE');
#248 =( GEOMETRIC_REPRESENTATION_CONTEXT ( 3 ) GLOBAL_UNCERTAINTY_ASSIGNED_CONTEXT ( ( #247 ) ) GLOBAL_UNIT_ASSIGNED_CONTEXT ( ( #93, #43, #293 ) ) REPRESENTATION_CONTEXT ( 'NONE', 'WORKASPACE' ) );
#249 = DIRECTION ( 'NONE',  ( 0.000000000000000000, 0.000000000000000000, -1.000000000000000000 ) ) ;
#250 = DIRECTION ( 'NONE',  ( -1.000000000000000000, 0.000000000000000000, 0.000000000000000000 ) ) ;
#251 = DIRECTION ( 'NONE',  ( -3.498990854706722745E-17, 1.000000000000000000, -0.000000000000000000 ) ) ;
#252 = MECHANICAL_DESIGN_GEOMETRIC_PRESENTATION_REPRESENTATION (  '', ( #32 ), #46 ) ;
#253 = DIRECTION ( 'NONE',  ( 0.000000000000000000, 0.000000000000000000, -1.000000000000000000 ) ) ;
#254 = PRESENTATION_STYLE_ASSIGNMENT (( #216 ) ) ;
#255 =( NAMED_UNIT ( * ) PLANE_ANGLE_UNIT ( ) SI_UNIT ( $, .RADIAN. ) );
#256 = PRESENTATION_STYLE_ASSIGNMENT (( #157 ) ) ;
#257 = ADVANCED_FACE ( 'NONE', ( #105 ), #16, .T. ) ;
#258 = DIMENSIONAL_EXPONENTS ( 1.000000000000000000, 0.000000000000000000, 0.000000000000000000, 0.000000000000000000, 0.000000000000000000, 0.000000000000000000, 0.000000000000000000 ) ;
#259 = CARTESIAN_POINT ( 'NONE',  ( 0.06250000000000000000, 0.7499999999999998890, 7.654042494670963708E-18 ) ) ;
#260 =( GEOMETRIC_REPRESENTATION_CONTEXT ( 3 ) GLOBAL_UNCERTAINTY_ASSIGNED_CONTEXT ( ( #89 ) ) GLOBAL_UNIT_ASSIGNED_CONTEXT ( ( #14, #107, #261 ) ) REPRESENTATION_CONTEXT ( 'NONE', 'WORKASPACE' ) );
#261 =( NAMED_UNIT ( * ) SI_UNIT ( $, .STERADIAN. ) SOLID_ANGLE_UNIT ( ) );
#262 = PRODUCT_RELATED_PRODUCT_CATEGORY ( 'part', '', ( #113 ) ) ;
#263 = VERTEX_POINT ( 'NONE', #60 ) ;
#264 = VECTOR ( 'NONE', #182, 39.37007874015748143 ) ;
#265 = PRESENTATION_LAYER_ASSIGNMENT (  '', '', ( #80 ) ) ;
#266 = SHAPE_DEFINITION_REPRESENTATION ( #62, #309 ) ;
#267 = FILL_AREA_STYLE ('',( #228 ) ) ;
#268 = ORIENTED_EDGE ( 'NONE', *, *, #20, .F. ) ;
#269 = APPLICATION_PROTOCOL_DEFINITION ( 'draft international standard', 'automotive_design', 1998, #91 ) ;
#270 = LENGTH_MEASURE_WITH_UNIT ( LENGTH_MEASURE( 0.02539999999999999897 ), #123 );
#271 = DIRECTION ( 'NONE',  ( -1.000000000000000000, 0.000000000000000000, 0.000000000000000000 ) ) ;
#272 = CARTESIAN_POINT ( 'NONE',  ( -6.123233995736766036E-17, 2.500000000000000000, 0.000000000000000000 ) ) ;
#273 = ORIENTED_EDGE ( 'NONE', *, *, #189, .T. ) ;
#274 = SURFACE_STYLE_USAGE ( .BOTH. , #15 ) ;
#275 = CARTESIAN_POINT ( 'NONE',  ( -0.06250000000000009714, 2.500000000000000000, 0.000000000000000000 ) ) ;
#276 = SURFACE_SIDE_STYLE ('',( #149 ) ) ;
#277 = AXIS2_PLACEMENT_3D ( 'NONE', #132, #98, #109 ) ;
#278 = STYLED_ITEM ( 'NONE', ( #298 ), #257 ) ;
#279 = CARTESIAN_POINT ( 'NONE',  ( -6.123233995736766036E-17, 2.500000000000000000, 0.000000000000000000 ) ) ;
#280 = LINE ( 'NONE', #275, #9 ) ;
#281 = DIMENSIONAL_EXPONENTS ( 1.000000000000000000, 0.000000000000000000, 0.000000000000000000, 0.000000000000000000, 0.000000000000000000, 0.000000000000000000, 0.000000000000000000 ) ;
#282 = ADVANCED_FACE ( 'NONE', ( #188 ), #17, .F. ) ;
#283 = AXIS2_PLACEMENT_3D ( 'NONE', #92, #121, #42 ) ;
#284 = DIRECTION ( 'NONE',  ( 0.000000000000000000, -0.000000000000000000, 1.000000000000000000 ) ) ;
#285 = FILL_AREA_STYLE_COLOUR ( '', #291 ) ;
#286 =( NAMED_UNIT ( * ) SI_UNIT ( $, .STERADIAN. ) SOLID_ANGLE_UNIT ( ) );
#287 = EDGE_LOOP ( 'NONE', ( #245, #268 ) ) ;
#288 = EDGE_CURVE ( 'NONE', #178, #263, #111, .T. ) ;
#289 =( LENGTH_UNIT ( ) NAMED_UNIT ( * ) SI_UNIT ( $, .METRE. ) );
#290 = ORIENTED_EDGE ( 'NONE', *, *, #159, .F. ) ;
#291 = COLOUR_RGB ( '',1.000000000000000000, 0.000000000000000000, 0.000000000000000000 ) ;
#292 = DIRECTION ( 'NONE',  ( -3.498990854706722745E-17, 1.000000000000000000, -0.000000000000000000 ) ) ;
#293 =( NAMED_UNIT ( * ) SI_UNIT ( $, .STERADIAN. ) SOLID_ANGLE_UNIT ( ) );
#294 = ORIENTED_EDGE ( 'NONE', *, *, #189, .F. ) ;
#295 = ORIENTED_EDGE ( 'NONE', *, *, #288, .F. ) ;
#296 = CARTESIAN_POINT ( 'NONE',  ( 0.000000000000000000, 0.000000000000000000, 0.000000000000000000 ) ) ;
#297 = DIRECTION ( 'NONE',  ( -1.000000000000000000, 0.000000000000000000, 0.000000000000000000 ) ) ;
#298 = PRESENTATION_STYLE_ASSIGNMENT (( #54 ) ) ;
#299 = DIRECTION ( 'NONE',  ( 0.000000000000000000, 0.000000000000000000, -1.000000000000000000 ) ) ;
#300 = AXIS2_PLACEMENT_3D ( 'NONE', #39, #163, #284 ) ;
#301 = DIRECTION ( 'NONE',  ( -0.000000000000000000, -1.000000000000000000, -0.000000000000000000 ) ) ;
#302 = LENGTH_MEASURE_WITH_UNIT ( LENGTH_MEASURE( 0.02539999999999999897 ), #79 );
#303 = VECTOR ( 'NONE', #301, 39.37007874015748143 ) ;
#304 = DIRECTION ( 'NONE',  ( -3.498990854706722745E-17, 1.000000000000000000, 0.000000000000000000 ) ) ;
#305 = FILL_AREA_STYLE ('',( #114 ) ) ;
#306 = COLOUR_RGB ( '',0.7921568627450980005, 0.8196078431372548767, 0.9333333333333333481 ) ;
#307 = STYLED_ITEM ( 'NONE', ( #170 ), #200 ) ;
#308 =( LENGTH_UNIT ( ) NAMED_UNIT ( * ) SI_UNIT ( $, .METRE. ) );
#309 = ADVANCED_BREP_SHAPE_REPRESENTATION ( '03062', ( #5, #218, #283 ), #195 ) ;
ENDSEC;
END-ISO-10303-21;
