ISO-10303-21;
HEADER;
FILE_DESCRIPTION (( 'STEP AP214' ),
    '1' );
FILE_NAME ('59636.STEP',
    '2023-07-24T15:17:51',
    ( '' ),
    ( '' ),
    'SwSTEP 2.0',
    'SolidWorks 2023',
    '' );
FILE_SCHEMA (( 'AUTOMOTIVE_DESIGN' ));
ENDSEC;

DATA;
#1 =( NAMED_UNIT ( * ) PLANE_ANGLE_UNIT ( ) SI_UNIT ( $, .RADIAN. ) );
#2 = ADVANCED_FACE ( 'NONE', ( #29 ), #335, .T. ) ;
#3 = PRESENTATION_STYLE_ASSIGNMENT (( #53 ) ) ;
#4 = AXIS2_PLACEMENT_3D ( 'NONE', #65, #327, #22 ) ;
#5 = CARTESIAN_POINT ( 'NONE',  ( -3.999999999999996447, 63.00000000000000000, 0.000000000000000000 ) ) ;
#6 = DIRECTION ( 'NONE',  ( 0.000000000000000000, 0.000000000000000000, 1.000000000000000000 ) ) ;
#7 = CARTESIAN_POINT ( 'NONE',  ( 0.000000000000000000, 0.000000000000000000, 0.000000000000000000 ) ) ;
#8 = VERTEX_POINT ( 'NONE', #282 ) ;
#9 =( GEOMETRIC_REPRESENTATION_CONTEXT ( 3 ) GLOBAL_UNCERTAINTY_ASSIGNED_CONTEXT ( ( #197 ) ) GLOBAL_UNIT_ASSIGNED_CONTEXT ( ( #189, #138, #361 ) ) REPRESENTATION_CONTEXT ( 'NONE', 'WORKASPACE' ) );
#10 = STYLED_ITEM ( 'NONE', ( #145 ), #292 ) ;
#11 = ORIENTED_EDGE ( 'NONE', *, *, #146, .T. ) ;
#12 = ADVANCED_FACE ( 'NONE', ( #87 ), #125, .T. ) ;
#13 = FILL_AREA_STYLE_COLOUR ( '', #151 ) ;
#14 = ORIENTED_EDGE ( 'NONE', *, *, #242, .T. ) ;
#15 = APPLICATION_PROTOCOL_DEFINITION ( 'draft international standard', 'automotive_design', 1998, #285 ) ;
#16 = AXIS2_PLACEMENT_3D ( 'NONE', #277, #126, #223 ) ;
#17 = DIRECTION ( 'NONE',  ( -0.000000000000000000, -1.000000000000000000, -0.000000000000000000 ) ) ;
#18 = APPLICATION_PROTOCOL_DEFINITION ( 'draft international standard', 'automotive_design', 1998, #315 ) ;
#19 = DIRECTION ( 'NONE',  ( 0.000000000000000000, 0.000000000000000000, -1.000000000000000000 ) ) ;
#20 = EDGE_CURVE ( 'NONE', #355, #23, #262, .T. ) ;
#21 = ORIENTED_EDGE ( 'NONE', *, *, #268, .F. ) ;
#22 = DIRECTION ( 'NONE',  ( -1.000000000000000000, 0.000000000000000000, 0.000000000000000000 ) ) ;
#23 = VERTEX_POINT ( 'NONE', #128 ) ;
#24 = MECHANICAL_DESIGN_GEOMETRIC_PRESENTATION_REPRESENTATION (  '', ( #98 ), #66 ) ;
#25 = DIRECTION ( 'NONE',  ( -9.448620473410002383E-17, 1.000000000000000000, -0.000000000000000000 ) ) ;
#26 = CIRCLE ( 'NONE', #199, 4.000000000000000000 ) ;
#27 = VERTEX_POINT ( 'NONE', #338 ) ;
#28 = PRODUCT_RELATED_PRODUCT_CATEGORY ( 'part', '', ( #130 ) ) ;
#29 = FACE_OUTER_BOUND ( 'NONE', #43, .T. ) ;
#30 = PRODUCT_DEFINITION_CONTEXT ( 'detailed design', #285, 'design' ) ;
#31 = CARTESIAN_POINT ( 'NONE',  ( 0.000000000000000000, 12.00000000000000000, 0.000000000000000000 ) ) ;
#32 = COLOUR_RGB ( '',1.000000000000000000, 0.000000000000000000, 0.000000000000000000 ) ;
#33 =( LENGTH_UNIT ( ) NAMED_UNIT ( * ) SI_UNIT ( .MILLI., .METRE. ) );
#34 = CARTESIAN_POINT ( 'NONE',  ( 0.000000000000000000, 0.5000000000000000000, -3.500000000000000000 ) ) ;
#35 = AXIS2_PLACEMENT_3D ( 'NONE', #364, #359, #19 ) ;
#36 = PRODUCT_DEFINITION_FORMATION_WITH_SPECIFIED_SOURCE ( 'ANY', '', #130, .NOT_KNOWN. ) ;
#37 = SURFACE_STYLE_USAGE ( .BOTH. , #323 ) ;
#38 = DIRECTION ( 'NONE',  ( 1.000000000000000000, 9.448620473410002383E-17, 0.000000000000000000 ) ) ;
#39 = CIRCLE ( 'NONE', #337, 4.000000000000000000 ) ;
#40 = PRESENTATION_LAYER_ASSIGNMENT (  '', '', ( #10 ) ) ;
#41 = PRESENTATION_STYLE_ASSIGNMENT (( #288 ) ) ;
#42 = DIRECTION ( 'NONE',  ( -0.000000000000000000, -1.000000000000000000, -0.000000000000000000 ) ) ;
#43 = EDGE_LOOP ( 'NONE', ( #333, #322, #11, #185 ) ) ;
#44 = FACE_OUTER_BOUND ( 'NONE', #194, .T. ) ;
#45 =( NAMED_UNIT ( * ) PLANE_ANGLE_UNIT ( ) SI_UNIT ( $, .RADIAN. ) );
#46 = DIRECTION ( 'NONE',  ( -0.000000000000000000, -1.000000000000000000, -0.000000000000000000 ) ) ;
#47 = ORIENTED_EDGE ( 'NONE', *, *, #242, .F. ) ;
#48 = ORIENTED_EDGE ( 'NONE', *, *, #72, .T. ) ;
#49 = DIRECTION ( 'NONE',  ( 1.000000000000000000, 0.000000000000000000, 0.000000000000000000 ) ) ;
#50 = LINE ( 'NONE', #296, #297 ) ;
#51 = FILL_AREA_STYLE_COLOUR ( '', #196 ) ;
#52 = ORIENTED_EDGE ( 'NONE', *, *, #267, .T. ) ;
#53 = SURFACE_STYLE_USAGE ( .BOTH. , #219 ) ;
#54 = FACE_OUTER_BOUND ( 'NONE', #101, .T. ) ;
#55 = COLOUR_RGB ( '',1.000000000000000000, 0.000000000000000000, 0.000000000000000000 ) ;
#56 = MECHANICAL_DESIGN_GEOMETRIC_PRESENTATION_REPRESENTATION (  '', ( #324 ), #165 ) ;
#57 = FILL_AREA_STYLE ('',( #221 ) ) ;
#58 = CARTESIAN_POINT ( 'NONE',  ( 6.288372600415924928E-15, 11.99999999999999645, 0.000000000000000000 ) ) ;
#59 = DIRECTION ( 'NONE',  ( -0.000000000000000000, -1.000000000000000000, -0.000000000000000000 ) ) ;
#60 = AXIS2_PLACEMENT_3D ( 'NONE', #201, #284, #180 ) ;
#61 =( GEOMETRIC_REPRESENTATION_CONTEXT ( 3 ) GLOBAL_UNCERTAINTY_ASSIGNED_CONTEXT ( ( #91 ) ) GLOBAL_UNIT_ASSIGNED_CONTEXT ( ( #253, #258, #230 ) ) REPRESENTATION_CONTEXT ( 'NONE', 'WORKASPACE' ) );
#62 = FILL_AREA_STYLE_COLOUR ( '', #311 ) ;
#63 =( LENGTH_UNIT ( ) NAMED_UNIT ( * ) SI_UNIT ( .MILLI., .METRE. ) );
#64 = SURFACE_STYLE_FILL_AREA ( #102 ) ;
#65 = CARTESIAN_POINT ( 'NONE',  ( 1.469576158976823750E-15, 63.00000000000000000, 0.000000000000000000 ) ) ;
#66 =( GEOMETRIC_REPRESENTATION_CONTEXT ( 3 ) GLOBAL_UNCERTAINTY_ASSIGNED_CONTEXT ( ( #154 ) ) GLOBAL_UNIT_ASSIGNED_CONTEXT ( ( #122, #1, #344 ) ) REPRESENTATION_CONTEXT ( 'NONE', 'WORKASPACE' ) );
#67 = AXIS2_PLACEMENT_3D ( 'NONE', #237, #76, #299 ) ;
#68 =( NAMED_UNIT ( * ) PLANE_ANGLE_UNIT ( ) SI_UNIT ( $, .RADIAN. ) );
#69 = EDGE_LOOP ( 'NONE', ( #136, #328 ) ) ;
#70 = ORIENTED_EDGE ( 'NONE', *, *, #330, .T. ) ;
#71 = ORIENTED_EDGE ( 'NONE', *, *, #302, .T. ) ;
#72 = EDGE_CURVE ( 'NONE', #157, #254, #274, .T. ) ;
#73 = CLOSED_SHELL ( 'NONE', ( #177, #367, #280, #129 ) ) ;
#74 = PRESENTATION_LAYER_ASSIGNMENT (  '', '', ( #225 ) ) ;
#75 =( NAMED_UNIT ( * ) SI_UNIT ( $, .STERADIAN. ) SOLID_ANGLE_UNIT ( ) );
#76 = DIRECTION ( 'NONE',  ( 0.000000000000000000, -1.000000000000000000, -0.000000000000000000 ) ) ;
#77 = ORIENTED_EDGE ( 'NONE', *, *, #79, .T. ) ;
#78 = DIRECTION ( 'NONE',  ( -9.448620473410002383E-17, 1.000000000000000000, -0.000000000000000000 ) ) ;
#79 = EDGE_CURVE ( 'NONE', #27, #8, #215, .T. ) ;
#80 = LINE ( 'NONE', #332, #107 ) ;
#81 = EDGE_CURVE ( 'NONE', #117, #235, #314, .T. ) ;
#82 = FACE_OUTER_BOUND ( 'NONE', #85, .T. ) ;
#83 = AXIS2_PLACEMENT_3D ( 'NONE', #58, #279, #92 ) ;
#84 = AXIS2_PLACEMENT_3D ( 'NONE', #142, #236, #360 ) ;
#85 = EDGE_LOOP ( 'NONE', ( #140, #298, #77, #132 ) ) ;
#86 = CARTESIAN_POINT ( 'NONE',  ( 1.469576158976823750E-15, 63.00000000000000000, 0.000000000000000000 ) ) ;
#87 = FACE_OUTER_BOUND ( 'NONE', #232, .T. ) ;
#88 = ADVANCED_FACE ( 'NONE', ( #195 ), #103, .T. ) ;
#89 =( NAMED_UNIT ( * ) PLANE_ANGLE_UNIT ( ) SI_UNIT ( $, .RADIAN. ) );
#90 = CARTESIAN_POINT ( 'NONE',  ( 4.286263797015736595E-16, 0.5000000000000000000, 3.500000000000000000 ) ) ;
#91 = UNCERTAINTY_MEASURE_WITH_UNIT (LENGTH_MEASURE( 1.000000000000000082E-05 ), #253, 'distance_accuracy_value', 'NONE');
#92 = DIRECTION ( 'NONE',  ( -1.000000000000000000, 0.000000000000000000, 0.000000000000000000 ) ) ;
#93 = STYLED_ITEM ( 'NONE', ( #304 ), #251 ) ;
#94 = DIRECTION ( 'NONE',  ( 0.000000000000000000, 0.000000000000000000, -1.000000000000000000 ) ) ;
#95 = DIRECTION ( 'NONE',  ( 0.000000000000000000, 0.000000000000000000, -1.000000000000000000 ) ) ;
#96 = DIRECTION ( 'NONE',  ( -0.000000000000000000, -1.000000000000000000, -0.000000000000000000 ) ) ;
#97 = DIRECTION ( 'NONE',  ( 0.000000000000000000, 0.000000000000000000, -1.000000000000000000 ) ) ;
#98 = STYLED_ITEM ( 'NONE', ( #3 ), #12 ) ;
#99 =( GEOMETRIC_REPRESENTATION_CONTEXT ( 3 ) GLOBAL_UNCERTAINTY_ASSIGNED_CONTEXT ( ( #124 ) ) GLOBAL_UNIT_ASSIGNED_CONTEXT ( ( #300, #45, #75 ) ) REPRESENTATION_CONTEXT ( 'NONE', 'WORKASPACE' ) );
#100 = DIRECTION ( 'NONE',  ( -9.448620473410002383E-17, 1.000000000000000000, -0.000000000000000000 ) ) ;
#101 = EDGE_LOOP ( 'NONE', ( #287, #244, #52, #204 ) ) ;
#102 = FILL_AREA_STYLE ('',( #320 ) ) ;
#103 = CYLINDRICAL_SURFACE ( 'NONE', #60, 4.000000000000000000 ) ;
#104 = ORIENTED_EDGE ( 'NONE', *, *, #147, .F. ) ;
#105 = DIRECTION ( 'NONE',  ( 0.000000000000000000, 0.000000000000000000, -1.000000000000000000 ) ) ;
#106 = ORIENTED_EDGE ( 'NONE', *, *, #188, .T. ) ;
#107 = VECTOR ( 'NONE', #78, 1000.000000000000000 ) ;
#108 = CYLINDRICAL_SURFACE ( 'NONE', #4, 3.999999999999996447 ) ;
#109 = VERTEX_POINT ( 'NONE', #325 ) ;
#110 = SHAPE_DEFINITION_REPRESENTATION ( #224, #229 ) ;
#111 = PRESENTATION_LAYER_ASSIGNMENT (  '', '', ( #169 ) ) ;
#112 = PRESENTATION_STYLE_ASSIGNMENT (( #139 ) ) ;
#113 = CARTESIAN_POINT ( 'NONE',  ( 0.000000000000000000, 0.000000000000000000, 0.000000000000000000 ) ) ;
#114 = DIRECTION ( 'NONE',  ( -9.448620473410002383E-17, 1.000000000000000000, -0.000000000000000000 ) ) ;
#115 = ORIENTED_EDGE ( 'NONE', *, *, #267, .F. ) ;
#116 = FACE_OUTER_BOUND ( 'NONE', #349, .T. ) ;
#117 = VERTEX_POINT ( 'NONE', #354 ) ;
#118 = AXIS2_PLACEMENT_3D ( 'NONE', #31, #312, #94 ) ;
#119 = COLOUR_RGB ( '',1.000000000000000000, 0.000000000000000000, 0.000000000000000000 ) ;
#120 = AXIS2_PLACEMENT_3D ( 'NONE', #86, #100, #227 ) ;
#121 = EDGE_CURVE ( 'NONE', #117, #27, #39, .T. ) ;
#122 =( LENGTH_UNIT ( ) NAMED_UNIT ( * ) SI_UNIT ( .MILLI., .METRE. ) );
#123 = CARTESIAN_POINT ( 'NONE',  ( 1.469576158976823750E-15, 63.00000000000000000, 0.000000000000000000 ) ) ;
#124 = UNCERTAINTY_MEASURE_WITH_UNIT (LENGTH_MEASURE( 1.000000000000000082E-05 ), #300, 'distance_accuracy_value', 'NONE');
#125 = TOROIDAL_SURFACE ( 'NONE', #16, 3.500000000000000000, 0.5000000000000000000 ) ;
#126 = DIRECTION ( 'NONE',  ( -0.000000000000000000, -1.000000000000000000, -0.000000000000000000 ) ) ;
#127 = AXIS2_PLACEMENT_3D ( 'NONE', #131, #17, #97 ) ;
#128 = CARTESIAN_POINT ( 'NONE',  ( 0.000000000000000000, 12.00000000000000000, -4.000000000000000000 ) ) ;
#129 = ADVANCED_FACE ( 'NONE', ( #345 ), #156, .F. ) ;
#130 = PRODUCT ( '59636', '59636', '', ( #209 ) ) ;
#131 = CARTESIAN_POINT ( 'NONE',  ( 0.000000000000000000, 0.000000000000000000, 0.000000000000000000 ) ) ;
#132 = ORIENTED_EDGE ( 'NONE', *, *, #330, .F. ) ;
#133 = CARTESIAN_POINT ( 'NONE',  ( 4.898587196589412829E-16, 12.00000000000000000, 4.000000000000000000 ) ) ;
#134 = FILL_AREA_STYLE ('',( #62 ) ) ;
#135 = LINE ( 'NONE', #350, #370 ) ;
#136 = ORIENTED_EDGE ( 'NONE', *, *, #167, .F. ) ;
#137 = SURFACE_SIDE_STYLE ('',( #164 ) ) ;
#138 =( NAMED_UNIT ( * ) PLANE_ANGLE_UNIT ( ) SI_UNIT ( $, .RADIAN. ) );
#139 = SURFACE_STYLE_USAGE ( .BOTH. , #238 ) ;
#140 = ORIENTED_EDGE ( 'NONE', *, *, #81, .F. ) ;
#141 = PRESENTATION_LAYER_ASSIGNMENT (  '', '', ( #93 ) ) ;
#142 = CARTESIAN_POINT ( 'NONE',  ( 6.288372600415925717E-15, 12.00000000000000000, 0.000000000000000000 ) ) ;
#143 =( NAMED_UNIT ( * ) PLANE_ANGLE_UNIT ( ) SI_UNIT ( $, .RADIAN. ) );
#144 = AXIS2_PLACEMENT_3D ( 'NONE', #34, #250, #6 ) ;
#145 = PRESENTATION_STYLE_ASSIGNMENT (( #343 ) ) ;
#146 = EDGE_CURVE ( 'NONE', #23, #27, #150, .T. ) ;
#147 = EDGE_CURVE ( 'NONE', #8, #235, #369, .T. ) ;
#148 = CIRCLE ( 'NONE', #357, 3.999999999999993339 ) ;
#149 =( NAMED_UNIT ( * ) SI_UNIT ( $, .STERADIAN. ) SOLID_ANGLE_UNIT ( ) );
#150 = LINE ( 'NONE', #179, #175 ) ;
#151 = COLOUR_RGB ( '',0.7921568627450980005, 0.8196078431372548767, 0.9333333333333333481 ) ;
#152 = ORIENTED_EDGE ( 'NONE', *, *, #72, .F. ) ;
#153 = AXIS2_PLACEMENT_3D ( 'NONE', #123, #272, #222 ) ;
#154 = UNCERTAINTY_MEASURE_WITH_UNIT (LENGTH_MEASURE( 1.000000000000000082E-05 ), #122, 'distance_accuracy_value', 'NONE');
#155 = ORIENTED_EDGE ( 'NONE', *, *, #295, .T. ) ;
#156 = PLANE ( 'NONE',  #289 ) ;
#157 = VERTEX_POINT ( 'NONE', #228 ) ;
#158 = PRESENTATION_STYLE_ASSIGNMENT (( #261 ) ) ;
#159 = AXIS2_PLACEMENT_3D ( 'NONE', #90, #310, #273 ) ;
#160 = COLOUR_RGB ( '',0.7921568627450980005, 0.8196078431372548767, 0.9333333333333333481 ) ;
#161 =( LENGTH_UNIT ( ) NAMED_UNIT ( * ) SI_UNIT ( .MILLI., .METRE. ) );
#162 = CARTESIAN_POINT ( 'NONE',  ( 4.592425496802573972E-16, 0.000000000000000000, 3.500000000000000000 ) ) ;
#163 = ORIENTED_EDGE ( 'NONE', *, *, #203, .T. ) ;
#164 = SURFACE_STYLE_FILL_AREA ( #192 ) ;
#165 =( GEOMETRIC_REPRESENTATION_CONTEXT ( 3 ) GLOBAL_UNCERTAINTY_ASSIGNED_CONTEXT ( ( #217 ) ) GLOBAL_UNIT_ASSIGNED_CONTEXT ( ( #63, #256, #149 ) ) REPRESENTATION_CONTEXT ( 'NONE', 'WORKASPACE' ) );
#166 = CARTESIAN_POINT ( 'NONE',  ( 0.000000000000000000, 0.5000000000000000000, 0.000000000000000000 ) ) ;
#167 = EDGE_CURVE ( 'NONE', #23, #355, #26, .T. ) ;
#168 =( NAMED_UNIT ( * ) SI_UNIT ( $, .STERADIAN. ) SOLID_ANGLE_UNIT ( ) );
#169 = STYLED_ITEM ( 'NONE', ( #112 ), #2 ) ;
#170 = MECHANICAL_DESIGN_GEOMETRIC_PRESENTATION_REPRESENTATION (  '', ( #316 ), #239 ) ;
#171 =( NAMED_UNIT ( * ) SI_UNIT ( $, .STERADIAN. ) SOLID_ANGLE_UNIT ( ) );
#172 = SURFACE_STYLE_FILL_AREA ( #57 ) ;
#173 = SURFACE_STYLE_FILL_AREA ( #218 ) ;
#174 = MANIFOLD_SOLID_BREP ( 'Revolve - Cutting Edge', #306 ) ;
#175 = VECTOR ( 'NONE', #348, 1000.000000000000000 ) ;
#176 = AXIS2_PLACEMENT_3D ( 'NONE', #208, #265, #240 ) ;
#177 = ADVANCED_FACE ( 'NONE', ( #358 ), #108, .T. ) ;
#178 = DIRECTION ( 'NONE',  ( 0.000000000000000000, 0.000000000000000000, -1.000000000000000000 ) ) ;
#179 = CARTESIAN_POINT ( 'NONE',  ( 0.000000000000000000, 0.000000000000000000, -4.000000000000000000 ) ) ;
#180 = DIRECTION ( 'NONE',  ( 0.000000000000000000, 0.000000000000000000, -1.000000000000000000 ) ) ;
#181 = EDGE_LOOP ( 'NONE', ( #48, #106, #352, #115 ) ) ;
#182 = SURFACE_SIDE_STYLE ('',( #64 ) ) ;
#183 = PRESENTATION_LAYER_ASSIGNMENT (  '', '', ( #98 ) ) ;
#184 = CARTESIAN_POINT ( 'NONE',  ( 4.000000000000000000, 63.00000000000000000, 0.000000000000000000 ) ) ;
#185 = ORIENTED_EDGE ( 'NONE', *, *, #121, .F. ) ;
#186 = CARTESIAN_POINT ( 'NONE',  ( 1.469576158976823750E-15, 63.00000000000000000, 0.000000000000000000 ) ) ;
#187 = AXIS2_PLACEMENT_3D ( 'NONE', #186, #114, #190 ) ;
#188 = EDGE_CURVE ( 'NONE', #254, #109, #50, .T. ) ;
#189 =( LENGTH_UNIT ( ) NAMED_UNIT ( * ) SI_UNIT ( .MILLI., .METRE. ) );
#190 = DIRECTION ( 'NONE',  ( -1.000000000000000000, 0.000000000000000000, 0.000000000000000000 ) ) ;
#191 =( NAMED_UNIT ( * ) PLANE_ANGLE_UNIT ( ) SI_UNIT ( $, .RADIAN. ) );
#192 = FILL_AREA_STYLE ('',( #214 ) ) ;
#193 = SURFACE_STYLE_FILL_AREA ( #336 ) ;
#194 = EDGE_LOOP ( 'NONE', ( #152, #21 ) ) ;
#195 = FACE_OUTER_BOUND ( 'NONE', #305, .T. ) ;
#196 = COLOUR_RGB ( '',1.000000000000000000, 0.000000000000000000, 0.000000000000000000 ) ;
#197 = UNCERTAINTY_MEASURE_WITH_UNIT (LENGTH_MEASURE( 1.000000000000000082E-05 ), #189, 'distance_accuracy_value', 'NONE');
#198 = UNCERTAINTY_MEASURE_WITH_UNIT (LENGTH_MEASURE( 1.000000000000000082E-05 ), #33, 'distance_accuracy_value', 'NONE');
#199 = AXIS2_PLACEMENT_3D ( 'NONE', #259, #200, #319 ) ;
#200 = DIRECTION ( 'NONE',  ( -0.000000000000000000, -1.000000000000000000, -0.000000000000000000 ) ) ;
#201 = CARTESIAN_POINT ( 'NONE',  ( 0.000000000000000000, 0.000000000000000000, 0.000000000000000000 ) ) ;
#202 = SURFACE_STYLE_FILL_AREA ( #351 ) ;
#203 = EDGE_CURVE ( 'NONE', #109, #291, #347, .T. ) ;
#204 = ORIENTED_EDGE ( 'NONE', *, *, #203, .F. ) ;
#205 = PRESENTATION_STYLE_ASSIGNMENT (( #37 ) ) ;
#206 = PLANE ( 'NONE',  #176 ) ;
#207 = SURFACE_STYLE_FILL_AREA ( #134 ) ;
#208 = CARTESIAN_POINT ( 'NONE',  ( 0.000000000000000000, 12.00000000000000000, 0.000000000000000000 ) ) ;
#209 = PRODUCT_CONTEXT ( 'NONE', #315, 'mechanical' ) ;
#210 = MECHANICAL_DESIGN_GEOMETRIC_PRESENTATION_REPRESENTATION (  '', ( #169 ), #281 ) ;
#211 = TOROIDAL_SURFACE ( 'NONE', #35, 3.500000000000000000, 0.5000000000000000000 ) ;
#212 = PLANE ( 'NONE',  #67 ) ;
#213 =( LENGTH_UNIT ( ) NAMED_UNIT ( * ) SI_UNIT ( .MILLI., .METRE. ) );
#214 = FILL_AREA_STYLE_COLOUR ( '', #32 ) ;
#215 = CIRCLE ( 'NONE', #144, 0.5000000000000000000 ) ;
#216 = AXIS2_PLACEMENT_3D ( 'NONE', #7, #96, #178 ) ;
#217 = UNCERTAINTY_MEASURE_WITH_UNIT (LENGTH_MEASURE( 1.000000000000000082E-05 ), #63, 'distance_accuracy_value', 'NONE');
#218 = FILL_AREA_STYLE ('',( #341 ) ) ;
#219 = SURFACE_SIDE_STYLE ('',( #172 ) ) ;
#220 = UNCERTAINTY_MEASURE_WITH_UNIT (LENGTH_MEASURE( 1.000000000000000082E-05 ), #213, 'distance_accuracy_value', 'NONE');
#221 = FILL_AREA_STYLE_COLOUR ( '', #339 ) ;
#222 = DIRECTION ( 'NONE',  ( -1.000000000000000000, 0.000000000000000000, 0.000000000000000000 ) ) ;
#223 = DIRECTION ( 'NONE',  ( 0.000000000000000000, 0.000000000000000000, -1.000000000000000000 ) ) ;
#224 = PRODUCT_DEFINITION_SHAPE ( 'NONE', 'NONE',  #346 ) ;
#225 = STYLED_ITEM ( 'NONE', ( #270 ), #246 ) ;
#226 = SURFACE_SIDE_STYLE ('',( #207 ) ) ;
#227 = DIRECTION ( 'NONE',  ( -1.000000000000000000, 0.000000000000000000, 0.000000000000000000 ) ) ;
#228 = CARTESIAN_POINT ( 'NONE',  ( -3.999999999999987121, 11.99999999999999645, 0.000000000000000000 ) ) ;
#229 = ADVANCED_BREP_SHAPE_REPRESENTATION ( '59636', ( #174, #292, #276 ), #99 ) ;
#230 =( NAMED_UNIT ( * ) SI_UNIT ( $, .STERADIAN. ) SOLID_ANGLE_UNIT ( ) );
#231 = MECHANICAL_DESIGN_GEOMETRIC_PRESENTATION_REPRESENTATION (  '', ( #93 ), #249 ) ;
#232 = EDGE_LOOP ( 'NONE', ( #14, #257, #104, #303 ) ) ;
#233 =( GEOMETRIC_REPRESENTATION_CONTEXT ( 3 ) GLOBAL_UNCERTAINTY_ASSIGNED_CONTEXT ( ( #198 ) ) GLOBAL_UNIT_ASSIGNED_CONTEXT ( ( #33, #89, #168 ) ) REPRESENTATION_CONTEXT ( 'NONE', 'WORKASPACE' ) );
#234 = SURFACE_STYLE_FILL_AREA ( #329 ) ;
#235 = VERTEX_POINT ( 'NONE', #162 ) ;
#236 = DIRECTION ( 'NONE',  ( -9.448620473410002383E-17, 1.000000000000000000, 0.000000000000000000 ) ) ;
#237 = CARTESIAN_POINT ( 'NONE',  ( 0.000000000000000000, 0.000000000000000000, 0.000000000000000000 ) ) ;
#238 = SURFACE_SIDE_STYLE ('',( #193 ) ) ;
#239 =( GEOMETRIC_REPRESENTATION_CONTEXT ( 3 ) GLOBAL_UNCERTAINTY_ASSIGNED_CONTEXT ( ( #342 ) ) GLOBAL_UNIT_ASSIGNED_CONTEXT ( ( #353, #68, #252 ) ) REPRESENTATION_CONTEXT ( 'NONE', 'WORKASPACE' ) );
#240 = DIRECTION ( 'NONE',  ( 0.000000000000000000, -0.000000000000000000, 1.000000000000000000 ) ) ;
#241 = CARTESIAN_POINT ( 'NONE',  ( 3.999999999999999112, 11.99999999999999645, 4.898587196589409870E-16 ) ) ;
#242 = EDGE_CURVE ( 'NONE', #27, #117, #255, .T. ) ;
#243 = DIRECTION ( 'NONE',  ( 0.000000000000000000, 0.000000000000000000, -1.000000000000000000 ) ) ;
#244 = ORIENTED_EDGE ( 'NONE', *, *, #268, .T. ) ;
#245 = MECHANICAL_DESIGN_GEOMETRIC_PRESENTATION_REPRESENTATION (  '', ( #269 ), #61 ) ;
#246 = ADVANCED_FACE ( 'NONE', ( #82 ), #211, .T. ) ;
#247 = CARTESIAN_POINT ( 'NONE',  ( 0.000000000000000000, 0.000000000000000000, 0.000000000000000000 ) ) ;
#248 = CYLINDRICAL_SURFACE ( 'NONE', #153, 3.999999999999996447 ) ;
#249 =( GEOMETRIC_REPRESENTATION_CONTEXT ( 3 ) GLOBAL_UNCERTAINTY_ASSIGNED_CONTEXT ( ( #321 ) ) GLOBAL_UNIT_ASSIGNED_CONTEXT ( ( #161, #143, #266 ) ) REPRESENTATION_CONTEXT ( 'NONE', 'WORKASPACE' ) );
#250 = DIRECTION ( 'NONE',  ( -1.000000000000000000, 0.000000000000000000, 0.000000000000000000 ) ) ;
#251 = ADVANCED_FACE ( 'NONE', ( #116 ), #212, .T. ) ;
#252 =( NAMED_UNIT ( * ) SI_UNIT ( $, .STERADIAN. ) SOLID_ANGLE_UNIT ( ) );
#253 =( LENGTH_UNIT ( ) NAMED_UNIT ( * ) SI_UNIT ( .MILLI., .METRE. ) );
#254 = VERTEX_POINT ( 'NONE', #241 ) ;
#255 = CIRCLE ( 'NONE', #263, 4.000000000000000000 ) ;
#256 =( NAMED_UNIT ( * ) PLANE_ANGLE_UNIT ( ) SI_UNIT ( $, .RADIAN. ) );
#257 = ORIENTED_EDGE ( 'NONE', *, *, #81, .T. ) ;
#258 =( NAMED_UNIT ( * ) PLANE_ANGLE_UNIT ( ) SI_UNIT ( $, .RADIAN. ) );
#259 = CARTESIAN_POINT ( 'NONE',  ( 0.000000000000000000, 12.00000000000000000, 0.000000000000000000 ) ) ;
#260 = ORIENTED_EDGE ( 'NONE', *, *, #167, .T. ) ;
#261 = SURFACE_STYLE_USAGE ( .BOTH. , #226 ) ;
#262 = CIRCLE ( 'NONE', #118, 4.000000000000000000 ) ;
#263 = AXIS2_PLACEMENT_3D ( 'NONE', #166, #46, #243 ) ;
#264 = EDGE_LOOP ( 'NONE', ( #155, #163 ) ) ;
#265 = DIRECTION ( 'NONE',  ( 0.000000000000000000, 1.000000000000000000, 0.000000000000000000 ) ) ;
#266 =( NAMED_UNIT ( * ) SI_UNIT ( $, .STERADIAN. ) SOLID_ANGLE_UNIT ( ) );
#267 = EDGE_CURVE ( 'NONE', #157, #291, #80, .T. ) ;
#268 = EDGE_CURVE ( 'NONE', #254, #157, #148, .T. ) ;
#269 = STYLED_ITEM ( 'NONE', ( #205 ), #174 ) ;
#270 = PRESENTATION_STYLE_ASSIGNMENT (( #362 ) ) ;
#271 = FILL_AREA_STYLE_COLOUR ( '', #55 ) ;
#272 = DIRECTION ( 'NONE',  ( -9.448620473410002383E-17, 1.000000000000000000, -0.000000000000000000 ) ) ;
#273 = DIRECTION ( 'NONE',  ( -1.224646799147353454E-16, 0.000000000000000000, -1.000000000000000000 ) ) ;
#274 = CIRCLE ( 'NONE', #83, 3.999999999999993339 ) ;
#275 = PRESENTATION_LAYER_ASSIGNMENT (  '', '', ( #316 ) ) ;
#276 = AXIS2_PLACEMENT_3D ( 'NONE', #113, #331, #49 ) ;
#277 = CARTESIAN_POINT ( 'NONE',  ( 0.000000000000000000, 0.5000000000000000000, 0.000000000000000000 ) ) ;
#278 = SURFACE_SIDE_STYLE ('',( #173 ) ) ;
#279 = DIRECTION ( 'NONE',  ( -9.448620473410002383E-17, 1.000000000000000000, -0.000000000000000000 ) ) ;
#280 = ADVANCED_FACE ( 'NONE', ( #54 ), #248, .T. ) ;
#281 =( GEOMETRIC_REPRESENTATION_CONTEXT ( 3 ) GLOBAL_UNCERTAINTY_ASSIGNED_CONTEXT ( ( #220 ) ) GLOBAL_UNIT_ASSIGNED_CONTEXT ( ( #213, #191, #171 ) ) REPRESENTATION_CONTEXT ( 'NONE', 'WORKASPACE' ) );
#282 = CARTESIAN_POINT ( 'NONE',  ( 0.000000000000000000, 0.000000000000000000, -3.500000000000000000 ) ) ;
#283 = FACE_OUTER_BOUND ( 'NONE', #69, .T. ) ;
#284 = DIRECTION ( 'NONE',  ( -0.000000000000000000, -1.000000000000000000, -0.000000000000000000 ) ) ;
#285 = APPLICATION_CONTEXT ( 'automotive_design' ) ;
#286 = DIRECTION ( 'NONE',  ( 9.448620473410002383E-17, -1.000000000000000000, 0.000000000000000000 ) ) ;
#287 = ORIENTED_EDGE ( 'NONE', *, *, #188, .F. ) ;
#288 = SURFACE_STYLE_USAGE ( .BOTH. , #182 ) ;
#289 = AXIS2_PLACEMENT_3D ( 'NONE', #184, #286, #38 ) ;
#290 = MECHANICAL_DESIGN_GEOMETRIC_PRESENTATION_REPRESENTATION (  '', ( #10 ), #233 ) ;
#291 = VERTEX_POINT ( 'NONE', #5 ) ;
#292 = MANIFOLD_SOLID_BREP ( 'Revolve - Tool Body (Straight Shanked)', #73 ) ;
#293 = CARTESIAN_POINT ( 'NONE',  ( 0.000000000000000000, 0.5000000000000000000, 0.000000000000000000 ) ) ;
#294 = PLANE ( 'NONE',  #84 ) ;
#295 = EDGE_CURVE ( 'NONE', #291, #109, #326, .T. ) ;
#296 = CARTESIAN_POINT ( 'NONE',  ( 3.999999999999998224, 63.00000000000000000, 4.898587196589408884E-16 ) ) ;
#297 = VECTOR ( 'NONE', #308, 1000.000000000000000 ) ;
#298 = ORIENTED_EDGE ( 'NONE', *, *, #121, .T. ) ;
#299 = DIRECTION ( 'NONE',  ( 0.000000000000000000, 0.000000000000000000, -1.000000000000000000 ) ) ;
#300 =( LENGTH_UNIT ( ) NAMED_UNIT ( * ) SI_UNIT ( .MILLI., .METRE. ) );
#301 = CARTESIAN_POINT ( 'NONE',  ( 6.288372600415924928E-15, 11.99999999999999645, 0.000000000000000000 ) ) ;
#302 = EDGE_CURVE ( 'NONE', #355, #117, #135, .T. ) ;
#303 = ORIENTED_EDGE ( 'NONE', *, *, #79, .F. ) ;
#304 = PRESENTATION_STYLE_ASSIGNMENT (( #334 ) ) ;
#305 = EDGE_LOOP ( 'NONE', ( #260, #71, #47, #309 ) ) ;
#306 = CLOSED_SHELL ( 'NONE', ( #88, #12, #251, #246, #2, #356 ) ) ;
#307 = PRESENTATION_LAYER_ASSIGNMENT (  '', '', ( #324 ) ) ;
#308 = DIRECTION ( 'NONE',  ( -9.448620473410002383E-17, 1.000000000000000000, -0.000000000000000000 ) ) ;
#309 = ORIENTED_EDGE ( 'NONE', *, *, #146, .F. ) ;
#310 = DIRECTION ( 'NONE',  ( 1.000000000000000000, 0.000000000000000000, -1.224646799147353207E-16 ) ) ;
#311 = COLOUR_RGB ( '',1.000000000000000000, 0.000000000000000000, 0.000000000000000000 ) ;
#312 = DIRECTION ( 'NONE',  ( -0.000000000000000000, -1.000000000000000000, -0.000000000000000000 ) ) ;
#313 = AXIS2_PLACEMENT_3D ( 'NONE', #247, #59, #95 ) ;
#314 = CIRCLE ( 'NONE', #159, 0.5000000000000000000 ) ;
#315 = APPLICATION_CONTEXT ( 'automotive_design' ) ;
#316 = STYLED_ITEM ( 'NONE', ( #41 ), #356 ) ;
#317 = DIRECTION ( 'NONE',  ( -0.000000000000000000, -1.000000000000000000, -0.000000000000000000 ) ) ;
#318 = CIRCLE ( 'NONE', #216, 3.500000000000000000 ) ;
#319 = DIRECTION ( 'NONE',  ( 0.000000000000000000, 0.000000000000000000, -1.000000000000000000 ) ) ;
#320 = FILL_AREA_STYLE_COLOUR ( '', #119 ) ;
#321 = UNCERTAINTY_MEASURE_WITH_UNIT (LENGTH_MEASURE( 1.000000000000000082E-05 ), #161, 'distance_accuracy_value', 'NONE');
#322 = ORIENTED_EDGE ( 'NONE', *, *, #20, .T. ) ;
#323 = SURFACE_SIDE_STYLE ('',( #202 ) ) ;
#324 = STYLED_ITEM ( 'NONE', ( #158 ), #88 ) ;
#325 = CARTESIAN_POINT ( 'NONE',  ( 4.000000000000000000, 63.00000000000000000, 4.898587196589409870E-16 ) ) ;
#326 = CIRCLE ( 'NONE', #120, 3.999999999999998224 ) ;
#327 = DIRECTION ( 'NONE',  ( -9.448620473410002383E-17, 1.000000000000000000, -0.000000000000000000 ) ) ;
#328 = ORIENTED_EDGE ( 'NONE', *, *, #20, .F. ) ;
#329 = FILL_AREA_STYLE ('',( #51 ) ) ;
#330 = EDGE_CURVE ( 'NONE', #235, #8, #318, .T. ) ;
#331 = DIRECTION ( 'NONE',  ( 0.000000000000000000, 0.000000000000000000, 1.000000000000000000 ) ) ;
#332 = CARTESIAN_POINT ( 'NONE',  ( -3.999999999999994671, 63.00000000000000000, 0.000000000000000000 ) ) ;
#333 = ORIENTED_EDGE ( 'NONE', *, *, #302, .F. ) ;
#334 = SURFACE_STYLE_USAGE ( .BOTH. , #365 ) ;
#335 = CYLINDRICAL_SURFACE ( 'NONE', #313, 4.000000000000000000 ) ;
#336 = FILL_AREA_STYLE ('',( #271 ) ) ;
#337 = AXIS2_PLACEMENT_3D ( 'NONE', #293, #42, #105 ) ;
#338 = CARTESIAN_POINT ( 'NONE',  ( 0.000000000000000000, 0.5000000000000000000, -4.000000000000000000 ) ) ;
#339 = COLOUR_RGB ( '',1.000000000000000000, 0.000000000000000000, 0.000000000000000000 ) ;
#340 = PRESENTATION_LAYER_ASSIGNMENT (  '', '', ( #269 ) ) ;
#341 = FILL_AREA_STYLE_COLOUR ( '', #160 ) ;
#342 = UNCERTAINTY_MEASURE_WITH_UNIT (LENGTH_MEASURE( 1.000000000000000082E-05 ), #353, 'distance_accuracy_value', 'NONE');
#343 = SURFACE_STYLE_USAGE ( .BOTH. , #278 ) ;
#344 =( NAMED_UNIT ( * ) SI_UNIT ( $, .STERADIAN. ) SOLID_ANGLE_UNIT ( ) );
#345 = FACE_OUTER_BOUND ( 'NONE', #264, .T. ) ;
#346 = PRODUCT_DEFINITION ( 'UNKNOWN', '', #36, #30 ) ;
#347 = CIRCLE ( 'NONE', #187, 3.999999999999998224 ) ;
#348 = DIRECTION ( 'NONE',  ( -0.000000000000000000, -1.000000000000000000, -0.000000000000000000 ) ) ;
#349 = EDGE_LOOP ( 'NONE', ( #368, #70 ) ) ;
#350 = CARTESIAN_POINT ( 'NONE',  ( 4.898587196589412829E-16, 0.000000000000000000, 4.000000000000000000 ) ) ;
#351 = FILL_AREA_STYLE ('',( #13 ) ) ;
#352 = ORIENTED_EDGE ( 'NONE', *, *, #295, .F. ) ;
#353 =( LENGTH_UNIT ( ) NAMED_UNIT ( * ) SI_UNIT ( .MILLI., .METRE. ) );
#354 = CARTESIAN_POINT ( 'NONE',  ( 4.898587196589412829E-16, 0.5000000000000000000, 4.000000000000000000 ) ) ;
#355 = VERTEX_POINT ( 'NONE', #133 ) ;
#356 = ADVANCED_FACE ( 'NONE', ( #283 ), #206, .T. ) ;
#357 = AXIS2_PLACEMENT_3D ( 'NONE', #301, #25, #366 ) ;
#358 = FACE_OUTER_BOUND ( 'NONE', #181, .T. ) ;
#359 = DIRECTION ( 'NONE',  ( -0.000000000000000000, -1.000000000000000000, -0.000000000000000000 ) ) ;
#360 = DIRECTION ( 'NONE',  ( -1.000000000000000000, -9.448620473410002383E-17, 0.000000000000000000 ) ) ;
#361 =( NAMED_UNIT ( * ) SI_UNIT ( $, .STERADIAN. ) SOLID_ANGLE_UNIT ( ) );
#362 = SURFACE_STYLE_USAGE ( .BOTH. , #137 ) ;
#363 = MECHANICAL_DESIGN_GEOMETRIC_PRESENTATION_REPRESENTATION (  '', ( #225 ), #9 ) ;
#364 = CARTESIAN_POINT ( 'NONE',  ( 0.000000000000000000, 0.5000000000000000000, 0.000000000000000000 ) ) ;
#365 = SURFACE_SIDE_STYLE ('',( #234 ) ) ;
#366 = DIRECTION ( 'NONE',  ( -1.000000000000000000, 0.000000000000000000, 0.000000000000000000 ) ) ;
#367 = ADVANCED_FACE ( 'NONE', ( #44 ), #294, .F. ) ;
#368 = ORIENTED_EDGE ( 'NONE', *, *, #147, .T. ) ;
#369 = CIRCLE ( 'NONE', #127, 3.500000000000000000 ) ;
#370 = VECTOR ( 'NONE', #317, 1000.000000000000000 ) ;
ENDSEC;
END-ISO-10303-21;
