ISO-10303-21;
HEADER;
FILE_DESCRIPTION (( 'STEP AP214' ),
    '1' );
FILE_NAME ('59757.STEP',
    '2023-07-24T15:56:25',
    ( '' ),
    ( '' ),
    'SwSTEP 2.0',
    'SolidWorks 2023',
    '' );
FILE_SCHEMA (( 'AUTOMOTIVE_DESIGN' ));
ENDSEC;

DATA;
#1 = VERTEX_POINT ( 'NONE', #71 ) ;
#2 = PRODUCT_RELATED_PRODUCT_CATEGORY ( 'part', '', ( #171 ) ) ;
#3 = DIRECTION ( 'NONE',  ( -2.245185798436817151E-17, 1.000000000000000000, -0.000000000000000000 ) ) ;
#4 = AXIS2_PLACEMENT_3D ( 'NONE', #96, #49, #65 ) ;
#5 =( GEOMETRIC_REPRESENTATION_CONTEXT ( 3 ) GLOBAL_UNCERTAINTY_ASSIGNED_CONTEXT ( ( #130 ) ) GLOBAL_UNIT_ASSIGNED_CONTEXT ( ( #67, #138, #221 ) ) REPRESENTATION_CONTEXT ( 'NONE', 'WORKASPACE' ) );
#6 = DIRECTION ( 'NONE',  ( 0.000000000000000000, 0.000000000000000000, -1.000000000000000000 ) ) ;
#7 = EDGE_LOOP ( 'NONE', ( #90, #140, #269, #270 ) ) ;
#8 = COLOUR_RGB ( '',0.7921568627450980005, 0.8196078431372548767, 0.9333333333333333481 ) ;
#9 =( NAMED_UNIT ( * ) SI_UNIT ( $, .STERADIAN. ) SOLID_ANGLE_UNIT ( ) );
#10 = SURFACE_STYLE_FILL_AREA ( #204 ) ;
#11 = CARTESIAN_POINT ( 'NONE',  ( 1.224646799147353256E-15, 0.000000000000000000, 10.00000000000000000 ) ) ;
#12 = MECHANICAL_DESIGN_GEOMETRIC_PRESENTATION_REPRESENTATION (  '', ( #121 ), #224 ) ;
#13 = DIRECTION ( 'NONE',  ( 1.000000000000000000, 2.245185798436817151E-17, 0.000000000000000000 ) ) ;
#14 = PRODUCT_DEFINITION_SHAPE ( 'NONE', 'NONE',  #271 ) ;
#15 = DIRECTION ( 'NONE',  ( -2.245185798436817151E-17, 1.000000000000000000, -0.000000000000000000 ) ) ;
#16 = CIRCLE ( 'NONE', #129, 10.00000000000000000 ) ;
#17 = CARTESIAN_POINT ( 'NONE',  ( 0.000000000000000000, 0.000000000000000000, 0.000000000000000000 ) ) ;
#18 = ORIENTED_EDGE ( 'NONE', *, *, #34, .T. ) ;
#19 =( NAMED_UNIT ( * ) SI_UNIT ( $, .STERADIAN. ) SOLID_ANGLE_UNIT ( ) );
#20 =( GEOMETRIC_REPRESENTATION_CONTEXT ( 3 ) GLOBAL_UNCERTAINTY_ASSIGNED_CONTEXT ( ( #59 ) ) GLOBAL_UNIT_ASSIGNED_CONTEXT ( ( #280, #100, #186 ) ) REPRESENTATION_CONTEXT ( 'NONE', 'WORKASPACE' ) );
#21 = CARTESIAN_POINT ( 'NONE',  ( -10.00000000000000355, 100.0000000000000000, 0.000000000000000000 ) ) ;
#22 = ADVANCED_FACE ( 'NONE', ( #163 ), #267, .T. ) ;
#23 = CIRCLE ( 'NONE', #107, 10.00000000000000000 ) ;
#24 = MECHANICAL_DESIGN_GEOMETRIC_PRESENTATION_REPRESENTATION (  '', ( #273 ), #122 ) ;
#25 = ORIENTED_EDGE ( 'NONE', *, *, #286, .F. ) ;
#26 = CYLINDRICAL_SURFACE ( 'NONE', #277, 10.00000000000000178 ) ;
#27 = CARTESIAN_POINT ( 'NONE',  ( 1.224646799147353256E-15, 0.000000000000000000, 10.00000000000000000 ) ) ;
#28 = PLANE ( 'NONE',  #57 ) ;
#29 = MECHANICAL_DESIGN_GEOMETRIC_PRESENTATION_REPRESENTATION (  '', ( #178 ), #287 ) ;
#30 =( LENGTH_UNIT ( ) NAMED_UNIT ( * ) SI_UNIT ( .MILLI., .METRE. ) );
#31 = CIRCLE ( 'NONE', #248, 10.00000000000000000 ) ;
#32 = DIRECTION ( 'NONE',  ( -2.245185798436817151E-17, 1.000000000000000000, -0.000000000000000000 ) ) ;
#33 = CARTESIAN_POINT ( 'NONE',  ( 0.000000000000000000, 0.000000000000000000, -10.00000000000000000 ) ) ;
#34 = EDGE_CURVE ( 'NONE', #115, #197, #139, .T. ) ;
#35 = CIRCLE ( 'NONE', #76, 10.00000000000000000 ) ;
#36 = SURFACE_SIDE_STYLE ('',( #234 ) ) ;
#37 = FILL_AREA_STYLE ('',( #137 ) ) ;
#38 =( LENGTH_UNIT ( ) NAMED_UNIT ( * ) SI_UNIT ( .MILLI., .METRE. ) );
#39 = EDGE_LOOP ( 'NONE', ( #195, #242, #68, #182 ) ) ;
#40 = DIRECTION ( 'NONE',  ( -2.245185798436817151E-17, 1.000000000000000000, -0.000000000000000000 ) ) ;
#41 = AXIS2_PLACEMENT_3D ( 'NONE', #256, #32, #211 ) ;
#42 = ORIENTED_EDGE ( 'NONE', *, *, #200, .T. ) ;
#43 = SURFACE_STYLE_FILL_AREA ( #238 ) ;
#44 =( LENGTH_UNIT ( ) NAMED_UNIT ( * ) SI_UNIT ( .MILLI., .METRE. ) );
#45 = MANIFOLD_SOLID_BREP ( 'Revolve - Cutting Edge', #192 ) ;
#46 = EDGE_LOOP ( 'NONE', ( #62, #93, #64, #226 ) ) ;
#47 = PRESENTATION_STYLE_ASSIGNMENT (( #69 ) ) ;
#48 = VECTOR ( 'NONE', #172, 1000.000000000000000 ) ;
#49 = DIRECTION ( 'NONE',  ( 0.000000000000000000, -1.000000000000000000, -0.000000000000000000 ) ) ;
#50 = DIRECTION ( 'NONE',  ( 0.000000000000000000, -0.000000000000000000, 1.000000000000000000 ) ) ;
#51 = DIRECTION ( 'NONE',  ( -0.000000000000000000, -1.000000000000000000, -0.000000000000000000 ) ) ;
#52 = AXIS2_PLACEMENT_3D ( 'NONE', #170, #99, #13 ) ;
#53 = PLANE ( 'NONE',  #218 ) ;
#54 = DIRECTION ( 'NONE',  ( -2.245185798436817151E-17, 1.000000000000000000, -0.000000000000000000 ) ) ;
#55 = DIRECTION ( 'NONE',  ( 1.000000000000000000, 0.000000000000000000, 0.000000000000000000 ) ) ;
#56 = FACE_OUTER_BOUND ( 'NONE', #66, .T. ) ;
#57 = AXIS2_PLACEMENT_3D ( 'NONE', #250, #102, #50 ) ;
#58 = AXIS2_PLACEMENT_3D ( 'NONE', #255, #274, #55 ) ;
#59 = UNCERTAINTY_MEASURE_WITH_UNIT (LENGTH_MEASURE( 1.000000000000000082E-05 ), #280, 'distance_accuracy_value', 'NONE');
#60 = DIRECTION ( 'NONE',  ( 0.000000000000000000, 0.000000000000000000, -1.000000000000000000 ) ) ;
#61 = COLOUR_RGB ( '',1.000000000000000000, 0.000000000000000000, 0.000000000000000000 ) ;
#62 = ORIENTED_EDGE ( 'NONE', *, *, #263, .T. ) ;
#63 = LINE ( 'NONE', #157, #210 ) ;
#64 = ORIENTED_EDGE ( 'NONE', *, *, #78, .F. ) ;
#65 = DIRECTION ( 'NONE',  ( 0.000000000000000000, 0.000000000000000000, -1.000000000000000000 ) ) ;
#66 = EDGE_LOOP ( 'NONE', ( #240, #266 ) ) ;
#67 =( LENGTH_UNIT ( ) NAMED_UNIT ( * ) SI_UNIT ( .MILLI., .METRE. ) );
#68 = ORIENTED_EDGE ( 'NONE', *, *, #181, .T. ) ;
#69 = SURFACE_STYLE_USAGE ( .BOTH. , #88 ) ;
#70 = PLANE ( 'NONE',  #52 ) ;
#71 = CARTESIAN_POINT ( 'NONE',  ( 0.000000000000000000, 40.00000000000000000, -10.00000000000000000 ) ) ;
#72 = PRESENTATION_LAYER_ASSIGNMENT (  '', '', ( #178 ) ) ;
#73 = ADVANCED_FACE ( 'NONE', ( #254 ), #70, .F. ) ;
#74 = CARTESIAN_POINT ( 'NONE',  ( -1.347111479062090180E-15, 100.0000000000000000, 0.000000000000000000 ) ) ;
#75 = CYLINDRICAL_SURFACE ( 'NONE', #214, 10.00000000000000178 ) ;
#76 = AXIS2_PLACEMENT_3D ( 'NONE', #284, #174, #60 ) ;
#77 = PRESENTATION_STYLE_ASSIGNMENT (( #205 ) ) ;
#78 = EDGE_CURVE ( 'NONE', #197, #156, #133, .T. ) ;
#79 = CARTESIAN_POINT ( 'NONE',  ( -10.00000000000000000, 40.00000000000000000, 0.000000000000000000 ) ) ;
#80 = STYLED_ITEM ( 'NONE', ( #217 ), #22 ) ;
#81 = SURFACE_STYLE_USAGE ( .BOTH. , #128 ) ;
#82 = CARTESIAN_POINT ( 'NONE',  ( 10.00000000000000178, 100.0000000000000000, 1.224646799147353454E-15 ) ) ;
#83 = APPLICATION_CONTEXT ( 'automotive_design' ) ;
#84 = SURFACE_STYLE_USAGE ( .BOTH. , #36 ) ;
#85 = MECHANICAL_DESIGN_GEOMETRIC_PRESENTATION_REPRESENTATION (  '', ( #80 ), #258 ) ;
#86 =( GEOMETRIC_REPRESENTATION_CONTEXT ( 3 ) GLOBAL_UNCERTAINTY_ASSIGNED_CONTEXT ( ( #257 ) ) GLOBAL_UNIT_ASSIGNED_CONTEXT ( ( #30, #119, #9 ) ) REPRESENTATION_CONTEXT ( 'NONE', 'WORKASPACE' ) );
#87 = ADVANCED_FACE ( 'NONE', ( #231 ), #75, .T. ) ;
#88 = SURFACE_SIDE_STYLE ('',( #43 ) ) ;
#89 = EDGE_CURVE ( 'NONE', #158, #111, #185, .T. ) ;
#90 = ORIENTED_EDGE ( 'NONE', *, *, #276, .T. ) ;
#91 = CIRCLE ( 'NONE', #173, 10.00000000000000000 ) ;
#92 = PRODUCT_DEFINITION_CONTEXT ( 'detailed design', #83, 'design' ) ;
#93 = ORIENTED_EDGE ( 'NONE', *, *, #286, .T. ) ;
#94 = CARTESIAN_POINT ( 'NONE',  ( 10.00000000000000000, 40.00000000000000000, 1.224646799147353454E-15 ) ) ;
#95 =( NAMED_UNIT ( * ) PLANE_ANGLE_UNIT ( ) SI_UNIT ( $, .RADIAN. ) );
#96 = CARTESIAN_POINT ( 'NONE',  ( 0.000000000000000000, 0.000000000000000000, 0.000000000000000000 ) ) ;
#97 = VECTOR ( 'NONE', #3, 1000.000000000000000 ) ;
#98 = ADVANCED_FACE ( 'NONE', ( #149 ), #28, .T. ) ;
#99 = DIRECTION ( 'NONE',  ( 2.245185798436817151E-17, -1.000000000000000000, 0.000000000000000000 ) ) ;
#100 =( NAMED_UNIT ( * ) PLANE_ANGLE_UNIT ( ) SI_UNIT ( $, .RADIAN. ) );
#101 = ADVANCED_FACE ( 'NONE', ( #56 ), #53, .F. ) ;
#102 = DIRECTION ( 'NONE',  ( 0.000000000000000000, 1.000000000000000000, 0.000000000000000000 ) ) ;
#103 = MECHANICAL_DESIGN_GEOMETRIC_PRESENTATION_REPRESENTATION (  '', ( #116 ), #5 ) ;
#104 = DIRECTION ( 'NONE',  ( -2.245185798436817151E-17, 1.000000000000000000, -0.000000000000000000 ) ) ;
#105 = DIRECTION ( 'NONE',  ( -1.000000000000000000, 0.000000000000000000, 0.000000000000000000 ) ) ;
#106 = ADVANCED_FACE ( 'NONE', ( #230 ), #26, .T. ) ;
#107 = AXIS2_PLACEMENT_3D ( 'NONE', #123, #15, #105 ) ;
#108 = CARTESIAN_POINT ( 'NONE',  ( -10.00000000000000533, 100.0000000000000000, 0.000000000000000000 ) ) ;
#109 = EDGE_CURVE ( 'NONE', #158, #1, #91, .T. ) ;
#110 = MECHANICAL_DESIGN_GEOMETRIC_PRESENTATION_REPRESENTATION (  '', ( #213 ), #20 ) ;
#111 = VERTEX_POINT ( 'NONE', #27 ) ;
#112 =( NAMED_UNIT ( * ) SI_UNIT ( $, .STERADIAN. ) SOLID_ANGLE_UNIT ( ) );
#113 = ORIENTED_EDGE ( 'NONE', *, *, #78, .T. ) ;
#114 = CARTESIAN_POINT ( 'NONE',  ( 1.925929944387235853E-31, 40.00000000000000000, 0.000000000000000000 ) ) ;
#115 = VERTEX_POINT ( 'NONE', #79 ) ;
#116 = STYLED_ITEM ( 'NONE', ( #175 ), #237 ) ;
#117 = ORIENTED_EDGE ( 'NONE', *, *, #208, .T. ) ;
#118 =( NAMED_UNIT ( * ) PLANE_ANGLE_UNIT ( ) SI_UNIT ( $, .RADIAN. ) );
#119 =( NAMED_UNIT ( * ) PLANE_ANGLE_UNIT ( ) SI_UNIT ( $, .RADIAN. ) );
#120 = FILL_AREA_STYLE_COLOUR ( '', #141 ) ;
#121 = STYLED_ITEM ( 'NONE', ( #152 ), #151 ) ;
#122 =( GEOMETRIC_REPRESENTATION_CONTEXT ( 3 ) GLOBAL_UNCERTAINTY_ASSIGNED_CONTEXT ( ( #190 ) ) GLOBAL_UNIT_ASSIGNED_CONTEXT ( ( #202, #95, #220 ) ) REPRESENTATION_CONTEXT ( 'NONE', 'WORKASPACE' ) );
#123 = CARTESIAN_POINT ( 'NONE',  ( 1.925929944387235853E-31, 40.00000000000000000, 0.000000000000000000 ) ) ;
#124 = DIRECTION ( 'NONE',  ( -1.000000000000000000, -2.245185798436817151E-17, 0.000000000000000000 ) ) ;
#125 = CARTESIAN_POINT ( 'NONE',  ( -1.347111479062090180E-15, 100.0000000000000000, 0.000000000000000000 ) ) ;
#126 = FILL_AREA_STYLE_COLOUR ( '', #235 ) ;
#127 = EDGE_CURVE ( 'NONE', #156, #197, #239, .T. ) ;
#128 = SURFACE_SIDE_STYLE ('',( #10 ) ) ;
#129 = AXIS2_PLACEMENT_3D ( 'NONE', #193, #261, #233 ) ;
#130 = UNCERTAINTY_MEASURE_WITH_UNIT (LENGTH_MEASURE( 1.000000000000000082E-05 ), #67, 'distance_accuracy_value', 'NONE');
#131 = SURFACE_STYLE_FILL_AREA ( #37 ) ;
#132 =( NAMED_UNIT ( * ) PLANE_ANGLE_UNIT ( ) SI_UNIT ( $, .RADIAN. ) );
#133 = CIRCLE ( 'NONE', #262, 10.00000000000000355 ) ;
#134 = CARTESIAN_POINT ( 'NONE',  ( 0.000000000000000000, 0.000000000000000000, 0.000000000000000000 ) ) ;
#135 = EDGE_LOOP ( 'NONE', ( #113, #201 ) ) ;
#136 = DIRECTION ( 'NONE',  ( -0.000000000000000000, -1.000000000000000000, -0.000000000000000000 ) ) ;
#137 = FILL_AREA_STYLE_COLOUR ( '', #203 ) ;
#138 =( NAMED_UNIT ( * ) PLANE_ANGLE_UNIT ( ) SI_UNIT ( $, .RADIAN. ) );
#139 = LINE ( 'NONE', #21, #97 ) ;
#140 = ORIENTED_EDGE ( 'NONE', *, *, #89, .T. ) ;
#141 = COLOUR_RGB ( '',1.000000000000000000, 0.000000000000000000, 0.000000000000000000 ) ;
#142 = PRESENTATION_STYLE_ASSIGNMENT (( #228 ) ) ;
#143 = DIRECTION ( 'NONE',  ( -0.000000000000000000, -1.000000000000000000, -0.000000000000000000 ) ) ;
#144 = PRODUCT_CONTEXT ( 'NONE', #215, 'mechanical' ) ;
#145 = DIRECTION ( 'NONE',  ( -2.245185798436817151E-17, 1.000000000000000000, 0.000000000000000000 ) ) ;
#146 = APPLICATION_PROTOCOL_DEFINITION ( 'draft international standard', 'automotive_design', 1998, #215 ) ;
#147 = EDGE_CURVE ( 'NONE', #268, #115, #23, .T. ) ;
#148 = CARTESIAN_POINT ( 'NONE',  ( 2.520429634751184325E-33, 40.00000000000000000, 0.000000000000000000 ) ) ;
#149 = FACE_OUTER_BOUND ( 'NONE', #264, .T. ) ;
#150 = PRODUCT_DEFINITION_FORMATION_WITH_SPECIFIED_SOURCE ( 'ANY', '', #171, .NOT_KNOWN. ) ;
#151 = ADVANCED_FACE ( 'NONE', ( #191 ), #282, .T. ) ;
#152 = PRESENTATION_STYLE_ASSIGNMENT (( #81 ) ) ;
#153 = CARTESIAN_POINT ( 'NONE',  ( 0.000000000000000000, 0.000000000000000000, -10.00000000000000000 ) ) ;
#154 = UNCERTAINTY_MEASURE_WITH_UNIT (LENGTH_MEASURE( 1.000000000000000082E-05 ), #44, 'distance_accuracy_value', 'NONE');
#155 = DIRECTION ( 'NONE',  ( -0.000000000000000000, -1.000000000000000000, -0.000000000000000000 ) ) ;
#156 = VERTEX_POINT ( 'NONE', #82 ) ;
#157 = CARTESIAN_POINT ( 'NONE',  ( 10.00000000000000000, 100.0000000000000000, 1.224646799147353454E-15 ) ) ;
#158 = VERTEX_POINT ( 'NONE', #236 ) ;
#159 = VERTEX_POINT ( 'NONE', #153 ) ;
#160 = FACE_OUTER_BOUND ( 'NONE', #39, .T. ) ;
#161 = SURFACE_STYLE_FILL_AREA ( #246 ) ;
#162 = EDGE_LOOP ( 'NONE', ( #25, #179, #18, #194 ) ) ;
#163 = FACE_OUTER_BOUND ( 'NONE', #281, .T. ) ;
#164 = DIRECTION ( 'NONE',  ( -2.245185798436817151E-17, 1.000000000000000000, -0.000000000000000000 ) ) ;
#165 = PRESENTATION_LAYER_ASSIGNMENT (  '', '', ( #80 ) ) ;
#166 = DIRECTION ( 'NONE',  ( -1.000000000000000000, 0.000000000000000000, 0.000000000000000000 ) ) ;
#167 = APPLICATION_PROTOCOL_DEFINITION ( 'draft international standard', 'automotive_design', 1998, #83 ) ;
#168 = SURFACE_SIDE_STYLE ('',( #189 ) ) ;
#169 = DIRECTION ( 'NONE',  ( 0.000000000000000000, 0.000000000000000000, -1.000000000000000000 ) ) ;
#170 = CARTESIAN_POINT ( 'NONE',  ( 10.00000000000000178, 100.0000000000000000, 0.000000000000000000 ) ) ;
#171 = PRODUCT ( '59757', '59757', '', ( #144 ) ) ;
#172 = DIRECTION ( 'NONE',  ( -0.000000000000000000, -1.000000000000000000, -0.000000000000000000 ) ) ;
#173 = AXIS2_PLACEMENT_3D ( 'NONE', #188, #279, #169 ) ;
#174 = DIRECTION ( 'NONE',  ( -0.000000000000000000, -1.000000000000000000, -0.000000000000000000 ) ) ;
#175 = PRESENTATION_STYLE_ASSIGNMENT (( #84 ) ) ;
#176 = ADVANCED_BREP_SHAPE_REPRESENTATION ( '59757', ( #45, #237, #58 ), #86 ) ;
#177 =( LENGTH_UNIT ( ) NAMED_UNIT ( * ) SI_UNIT ( .MILLI., .METRE. ) );
#178 = STYLED_ITEM ( 'NONE', ( #142 ), #45 ) ;
#179 = ORIENTED_EDGE ( 'NONE', *, *, #147, .T. ) ;
#180 = ORIENTED_EDGE ( 'NONE', *, *, #109, .F. ) ;
#181 = EDGE_CURVE ( 'NONE', #1, #159, #216, .T. ) ;
#182 = ORIENTED_EDGE ( 'NONE', *, *, #208, .F. ) ;
#183 = VECTOR ( 'NONE', #51, 1000.000000000000000 ) ;
#184 = PRESENTATION_LAYER_ASSIGNMENT (  '', '', ( #273 ) ) ;
#185 = LINE ( 'NONE', #11, #183 ) ;
#186 =( NAMED_UNIT ( * ) SI_UNIT ( $, .STERADIAN. ) SOLID_ANGLE_UNIT ( ) );
#187 = PRESENTATION_LAYER_ASSIGNMENT (  '', '', ( #116 ) ) ;
#188 = CARTESIAN_POINT ( 'NONE',  ( 0.000000000000000000, 40.00000000000000000, 0.000000000000000000 ) ) ;
#189 = SURFACE_STYLE_FILL_AREA ( #275 ) ;
#190 = UNCERTAINTY_MEASURE_WITH_UNIT (LENGTH_MEASURE( 1.000000000000000082E-05 ), #202, 'distance_accuracy_value', 'NONE');
#191 = FACE_OUTER_BOUND ( 'NONE', #7, .T. ) ;
#192 = CLOSED_SHELL ( 'NONE', ( #151, #98, #260, #22 ) ) ;
#193 = CARTESIAN_POINT ( 'NONE',  ( 0.000000000000000000, 0.000000000000000000, 0.000000000000000000 ) ) ;
#194 = ORIENTED_EDGE ( 'NONE', *, *, #127, .F. ) ;
#195 = ORIENTED_EDGE ( 'NONE', *, *, #89, .F. ) ;
#196 =( NAMED_UNIT ( * ) SI_UNIT ( $, .STERADIAN. ) SOLID_ANGLE_UNIT ( ) );
#197 = VERTEX_POINT ( 'NONE', #108 ) ;
#198 = UNCERTAINTY_MEASURE_WITH_UNIT (LENGTH_MEASURE( 1.000000000000000082E-05 ), #177, 'distance_accuracy_value', 'NONE');
#199 = PRESENTATION_LAYER_ASSIGNMENT (  '', '', ( #213 ) ) ;
#200 = EDGE_CURVE ( 'NONE', #159, #111, #16, .T. ) ;
#201 = ORIENTED_EDGE ( 'NONE', *, *, #127, .T. ) ;
#202 =( LENGTH_UNIT ( ) NAMED_UNIT ( * ) SI_UNIT ( .MILLI., .METRE. ) );
#203 = COLOUR_RGB ( '',1.000000000000000000, 0.000000000000000000, 0.000000000000000000 ) ;
#204 = FILL_AREA_STYLE ('',( #120 ) ) ;
#205 = SURFACE_STYLE_USAGE ( .BOTH. , #168 ) ;
#206 = SHAPE_DEFINITION_REPRESENTATION ( #14, #176 ) ;
#207 = CARTESIAN_POINT ( 'NONE',  ( -1.347111479062090180E-15, 100.0000000000000000, 0.000000000000000000 ) ) ;
#208 = EDGE_CURVE ( 'NONE', #111, #159, #35, .T. ) ;
#209 = DIRECTION ( 'NONE',  ( -2.245185798436817151E-17, 1.000000000000000000, -0.000000000000000000 ) ) ;
#210 = VECTOR ( 'NONE', #40, 1000.000000000000000 ) ;
#211 = DIRECTION ( 'NONE',  ( -1.000000000000000000, 0.000000000000000000, 0.000000000000000000 ) ) ;
#212 = FILL_AREA_STYLE ('',( #126 ) ) ;
#213 = STYLED_ITEM ( 'NONE', ( #77 ), #98 ) ;
#214 = AXIS2_PLACEMENT_3D ( 'NONE', #125, #209, #229 ) ;
#215 = APPLICATION_CONTEXT ( 'automotive_design' ) ;
#216 = LINE ( 'NONE', #33, #48 ) ;
#217 = PRESENTATION_STYLE_ASSIGNMENT (( #288 ) ) ;
#218 = AXIS2_PLACEMENT_3D ( 'NONE', #148, #145, #124 ) ;
#219 =( NAMED_UNIT ( * ) PLANE_ANGLE_UNIT ( ) SI_UNIT ( $, .RADIAN. ) );
#220 =( NAMED_UNIT ( * ) SI_UNIT ( $, .STERADIAN. ) SOLID_ANGLE_UNIT ( ) );
#221 =( NAMED_UNIT ( * ) SI_UNIT ( $, .STERADIAN. ) SOLID_ANGLE_UNIT ( ) );
#222 = FILL_AREA_STYLE_COLOUR ( '', #8 ) ;
#223 = SURFACE_SIDE_STYLE ('',( #131 ) ) ;
#224 =( GEOMETRIC_REPRESENTATION_CONTEXT ( 3 ) GLOBAL_UNCERTAINTY_ASSIGNED_CONTEXT ( ( #241 ) ) GLOBAL_UNIT_ASSIGNED_CONTEXT ( ( #38, #132, #19 ) ) REPRESENTATION_CONTEXT ( 'NONE', 'WORKASPACE' ) );
#225 = AXIS2_PLACEMENT_3D ( 'NONE', #249, #143, #227 ) ;
#226 = ORIENTED_EDGE ( 'NONE', *, *, #34, .F. ) ;
#227 = DIRECTION ( 'NONE',  ( 0.000000000000000000, 0.000000000000000000, -1.000000000000000000 ) ) ;
#228 = SURFACE_STYLE_USAGE ( .BOTH. , #244 ) ;
#229 = DIRECTION ( 'NONE',  ( -1.000000000000000000, 0.000000000000000000, 0.000000000000000000 ) ) ;
#230 = FACE_OUTER_BOUND ( 'NONE', #162, .T. ) ;
#231 = FACE_OUTER_BOUND ( 'NONE', #46, .T. ) ;
#232 = FILL_AREA_STYLE_COLOUR ( '', #272 ) ;
#233 = DIRECTION ( 'NONE',  ( 0.000000000000000000, 0.000000000000000000, -1.000000000000000000 ) ) ;
#234 = SURFACE_STYLE_FILL_AREA ( #212 ) ;
#235 = COLOUR_RGB ( '',0.7921568627450980005, 0.8196078431372548767, 0.9333333333333333481 ) ;
#236 = CARTESIAN_POINT ( 'NONE',  ( 1.224646799147353256E-15, 40.00000000000000000, 10.00000000000000000 ) ) ;
#237 = MANIFOLD_SOLID_BREP ( 'Revolve - Tool Body (Straight Shanked)', #247 ) ;
#238 = FILL_AREA_STYLE ('',( #243 ) ) ;
#239 = CIRCLE ( 'NONE', #41, 10.00000000000000355 ) ;
#240 = ORIENTED_EDGE ( 'NONE', *, *, #263, .F. ) ;
#241 = UNCERTAINTY_MEASURE_WITH_UNIT (LENGTH_MEASURE( 1.000000000000000082E-05 ), #38, 'distance_accuracy_value', 'NONE');
#242 = ORIENTED_EDGE ( 'NONE', *, *, #109, .T. ) ;
#243 = FILL_AREA_STYLE_COLOUR ( '', #61 ) ;
#244 = SURFACE_SIDE_STYLE ('',( #161 ) ) ;
#245 = ORIENTED_EDGE ( 'NONE', *, *, #276, .F. ) ;
#246 = FILL_AREA_STYLE ('',( #222 ) ) ;
#247 = CLOSED_SHELL ( 'NONE', ( #87, #101, #106, #73 ) ) ;
#248 = AXIS2_PLACEMENT_3D ( 'NONE', #114, #164, #265 ) ;
#249 = CARTESIAN_POINT ( 'NONE',  ( 0.000000000000000000, 40.00000000000000000, 0.000000000000000000 ) ) ;
#250 = CARTESIAN_POINT ( 'NONE',  ( 0.000000000000000000, 40.00000000000000000, 0.000000000000000000 ) ) ;
#251 = DIRECTION ( 'NONE',  ( -1.000000000000000000, 0.000000000000000000, 0.000000000000000000 ) ) ;
#252 = AXIS2_PLACEMENT_3D ( 'NONE', #17, #155, #259 ) ;
#253 = AXIS2_PLACEMENT_3D ( 'NONE', #134, #136, #6 ) ;
#254 = FACE_OUTER_BOUND ( 'NONE', #135, .T. ) ;
#255 = CARTESIAN_POINT ( 'NONE',  ( 0.000000000000000000, 0.000000000000000000, 0.000000000000000000 ) ) ;
#256 = CARTESIAN_POINT ( 'NONE',  ( -1.347111479062090180E-15, 100.0000000000000000, 0.000000000000000000 ) ) ;
#257 = UNCERTAINTY_MEASURE_WITH_UNIT (LENGTH_MEASURE( 1.000000000000000082E-05 ), #30, 'distance_accuracy_value', 'NONE');
#258 =( GEOMETRIC_REPRESENTATION_CONTEXT ( 3 ) GLOBAL_UNCERTAINTY_ASSIGNED_CONTEXT ( ( #198 ) ) GLOBAL_UNIT_ASSIGNED_CONTEXT ( ( #177, #219, #112 ) ) REPRESENTATION_CONTEXT ( 'NONE', 'WORKASPACE' ) );
#259 = DIRECTION ( 'NONE',  ( 0.000000000000000000, 0.000000000000000000, -1.000000000000000000 ) ) ;
#260 = ADVANCED_FACE ( 'NONE', ( #160 ), #285, .T. ) ;
#261 = DIRECTION ( 'NONE',  ( -0.000000000000000000, -1.000000000000000000, -0.000000000000000000 ) ) ;
#262 = AXIS2_PLACEMENT_3D ( 'NONE', #74, #54, #166 ) ;
#263 = EDGE_CURVE ( 'NONE', #115, #268, #31, .T. ) ;
#264 = EDGE_LOOP ( 'NONE', ( #245, #180 ) ) ;
#265 = DIRECTION ( 'NONE',  ( -1.000000000000000000, 0.000000000000000000, 0.000000000000000000 ) ) ;
#266 = ORIENTED_EDGE ( 'NONE', *, *, #147, .F. ) ;
#267 = PLANE ( 'NONE',  #4 ) ;
#268 = VERTEX_POINT ( 'NONE', #94 ) ;
#269 = ORIENTED_EDGE ( 'NONE', *, *, #200, .F. ) ;
#270 = ORIENTED_EDGE ( 'NONE', *, *, #181, .F. ) ;
#271 = PRODUCT_DEFINITION ( 'UNKNOWN', '', #150, #92 ) ;
#272 = COLOUR_RGB ( '',1.000000000000000000, 0.000000000000000000, 0.000000000000000000 ) ;
#273 = STYLED_ITEM ( 'NONE', ( #47 ), #260 ) ;
#274 = DIRECTION ( 'NONE',  ( 0.000000000000000000, 0.000000000000000000, 1.000000000000000000 ) ) ;
#275 = FILL_AREA_STYLE ('',( #232 ) ) ;
#276 = EDGE_CURVE ( 'NONE', #1, #158, #278, .T. ) ;
#277 = AXIS2_PLACEMENT_3D ( 'NONE', #207, #104, #251 ) ;
#278 = CIRCLE ( 'NONE', #225, 10.00000000000000000 ) ;
#279 = DIRECTION ( 'NONE',  ( -0.000000000000000000, -1.000000000000000000, -0.000000000000000000 ) ) ;
#280 =( LENGTH_UNIT ( ) NAMED_UNIT ( * ) SI_UNIT ( .MILLI., .METRE. ) );
#281 = EDGE_LOOP ( 'NONE', ( #42, #117 ) ) ;
#282 = CYLINDRICAL_SURFACE ( 'NONE', #252, 10.00000000000000000 ) ;
#283 = PRESENTATION_LAYER_ASSIGNMENT (  '', '', ( #121 ) ) ;
#284 = CARTESIAN_POINT ( 'NONE',  ( 0.000000000000000000, 0.000000000000000000, 0.000000000000000000 ) ) ;
#285 = CYLINDRICAL_SURFACE ( 'NONE', #253, 10.00000000000000000 ) ;
#286 = EDGE_CURVE ( 'NONE', #268, #156, #63, .T. ) ;
#287 =( GEOMETRIC_REPRESENTATION_CONTEXT ( 3 ) GLOBAL_UNCERTAINTY_ASSIGNED_CONTEXT ( ( #154 ) ) GLOBAL_UNIT_ASSIGNED_CONTEXT ( ( #44, #118, #196 ) ) REPRESENTATION_CONTEXT ( 'NONE', 'WORKASPACE' ) );
#288 = SURFACE_STYLE_USAGE ( .BOTH. , #223 ) ;
ENDSEC;
END-ISO-10303-21;
