ISO-10303-21;
HEADER;
FILE_DESCRIPTION (( 'STEP AP214' ),
    '1' );
FILE_NAME ('83416.STEP',
    '2023-06-30T23:13:29',
    ( '' ),
    ( '' ),
    'SwSTEP 2.0',
    'SolidWorks 2023',
    '' );
FILE_SCHEMA (( 'AUTOMOTIVE_DESIGN' ));
ENDSEC;

DATA;
#1 = ORIENTED_EDGE ( 'NONE', *, *, #53, .T. ) ;
#2 = PRESENTATION_LAYER_ASSIGNMENT (  '', '', ( #69 ) ) ;
#3 = LINE ( 'NONE', #44, #172 ) ;
#4 = SPHERICAL_SURFACE ( 'NONE', #227, 0.09374999999999998612 ) ;
#5 = EDGE_CURVE ( 'NONE', #316, #241, #257, .T. ) ;
#6 = DIRECTION ( 'NONE',  ( -0.000000000000000000, -1.000000000000000000, -0.000000000000000000 ) ) ;
#7 = CIRCLE ( 'NONE', #131, 0.09374999999999998612 ) ;
#8 = MECHANICAL_DESIGN_GEOMETRIC_PRESENTATION_REPRESENTATION (  '', ( #70 ), #189 ) ;
#9 = FILL_AREA_STYLE ('',( #355 ) ) ;
#10 = DIRECTION ( 'NONE',  ( 1.000000000000000000, 1.224646799147353207E-16, 0.000000000000000000 ) ) ;
#11 = FACE_OUTER_BOUND ( 'NONE', #106, .T. ) ;
#12 =( NAMED_UNIT ( * ) PLANE_ANGLE_UNIT ( ) SI_UNIT ( $, .RADIAN. ) );
#13 = ORIENTED_EDGE ( 'NONE', *, *, #210, .F. ) ;
#14 =( GEOMETRIC_REPRESENTATION_CONTEXT ( 3 ) GLOBAL_UNCERTAINTY_ASSIGNED_CONTEXT ( ( #312 ) ) GLOBAL_UNIT_ASSIGNED_CONTEXT ( ( #181, #121, #182 ) ) REPRESENTATION_CONTEXT ( 'NONE', 'WORKASPACE' ) );
#15 = AXIS2_PLACEMENT_3D ( 'NONE', #141, #366, #279 ) ;
#16 = DIRECTION ( 'NONE',  ( -1.224646799147353207E-16, 1.000000000000000000, -0.000000000000000000 ) ) ;
#17 = ADVANCED_FACE ( 'NONE', ( #327 ), #41, .F. ) ;
#18 = DIRECTION ( 'NONE',  ( 0.000000000000000000, 0.000000000000000000, -1.000000000000000000 ) ) ;
#19 = SURFACE_STYLE_USAGE ( .BOTH. , #344 ) ;
#20 =( GEOMETRIC_REPRESENTATION_CONTEXT ( 3 ) GLOBAL_UNCERTAINTY_ASSIGNED_CONTEXT ( ( #225 ) ) GLOBAL_UNIT_ASSIGNED_CONTEXT ( ( #224, #365, #142 ) ) REPRESENTATION_CONTEXT ( 'NONE', 'WORKASPACE' ) );
#21 = MECHANICAL_DESIGN_GEOMETRIC_PRESENTATION_REPRESENTATION (  '', ( #199 ), #348 ) ;
#22 = ORIENTED_EDGE ( 'NONE', *, *, #38, .T. ) ;
#23 =( NAMED_UNIT ( * ) PLANE_ANGLE_UNIT ( ) SI_UNIT ( $, .RADIAN. ) );
#24 = CARTESIAN_POINT ( 'NONE',  ( -5.740531871003217003E-18, 0.000000000000000000, 0.000000000000000000 ) ) ;
#25 = SURFACE_STYLE_FILL_AREA ( #105 ) ;
#26 = ADVANCED_FACE ( 'NONE', ( #128 ), #239, .T. ) ;
#27 =( CONVERSION_BASED_UNIT ( 'INCH', #78 ) LENGTH_UNIT ( ) NAMED_UNIT ( #185 ) );
#28 = FILL_AREA_STYLE_COLOUR ( '', #183 ) ;
#29 = ORIENTED_EDGE ( 'NONE', *, *, #210, .T. ) ;
#30 = ORIENTED_EDGE ( 'NONE', *, *, #117, .T. ) ;
#31 = ORIENTED_EDGE ( 'NONE', *, *, #117, .F. ) ;
#32 = FILL_AREA_STYLE_COLOUR ( '', #57 ) ;
#33 = APPLICATION_CONTEXT ( 'automotive_design' ) ;
#34 = DIRECTION ( 'NONE',  ( -1.000000000000000000, 0.000000000000000000, 0.000000000000000000 ) ) ;
#35 =( LENGTH_UNIT ( ) NAMED_UNIT ( * ) SI_UNIT ( $, .METRE. ) );
#36 = PRESENTATION_LAYER_ASSIGNMENT (  '', '', ( #199 ) ) ;
#37 = CARTESIAN_POINT ( 'NONE',  ( 1.224646799147353207E-16, 1.000000000000000000, 0.000000000000000000 ) ) ;
#38 = EDGE_CURVE ( 'NONE', #367, #129, #347, .T. ) ;
#39 = AXIS2_PLACEMENT_3D ( 'NONE', #173, #277, #341 ) ;
#40 = CARTESIAN_POINT ( 'NONE',  ( -6.123233995736766036E-17, 2.500000000000000000, 0.000000000000000000 ) ) ;
#41 = PLANE ( 'NONE',  #90 ) ;
#42 =( NAMED_UNIT ( * ) PLANE_ANGLE_UNIT ( ) SI_UNIT ( $, .RADIAN. ) );
#43 = PRESENTATION_LAYER_ASSIGNMENT (  '', '', ( #163 ) ) ;
#44 = CARTESIAN_POINT ( 'NONE',  ( 1.148106374200642938E-17, 0.000000000000000000, 0.09374999999999994449 ) ) ;
#45 = EDGE_LOOP ( 'NONE', ( #255, #29, #160, #294 ) ) ;
#46 = SURFACE_SIDE_STYLE ('',( #303 ) ) ;
#47 =( NAMED_UNIT ( * ) PLANE_ANGLE_UNIT ( ) SI_UNIT ( $, .RADIAN. ) );
#48 = EDGE_CURVE ( 'NONE', #354, #324, #328, .T. ) ;
#49 = MECHANICAL_DESIGN_GEOMETRIC_PRESENTATION_REPRESENTATION (  '', ( #69 ), #14 ) ;
#50 =( GEOMETRIC_REPRESENTATION_CONTEXT ( 3 ) GLOBAL_UNCERTAINTY_ASSIGNED_CONTEXT ( ( #205 ) ) GLOBAL_UNIT_ASSIGNED_CONTEXT ( ( #27, #23, #166 ) ) REPRESENTATION_CONTEXT ( 'NONE', 'WORKASPACE' ) );
#51 = ORIENTED_EDGE ( 'NONE', *, *, #67, .T. ) ;
#52 = ORIENTED_EDGE ( 'NONE', *, *, #38, .F. ) ;
#53 = EDGE_CURVE ( 'NONE', #241, #316, #358, .T. ) ;
#54 = DIRECTION ( 'NONE',  ( 0.000000000000000000, 0.000000000000000000, -1.000000000000000000 ) ) ;
#55 = PRODUCT_DEFINITION_SHAPE ( 'NONE', 'NONE',  #314 ) ;
#56 = EDGE_LOOP ( 'NONE', ( #13, #51, #306, #345 ) ) ;
#57 = COLOUR_RGB ( '',1.000000000000000000, 0.000000000000000000, 0.000000000000000000 ) ;
#58 = CARTESIAN_POINT ( 'NONE',  ( 0.09374999999999987510, 1.000000000000000000, 1.148106374200642476E-17 ) ) ;
#59 = ORIENTED_EDGE ( 'NONE', *, *, #61, .F. ) ;
#60 =( NAMED_UNIT ( * ) SI_UNIT ( $, .STERADIAN. ) SOLID_ANGLE_UNIT ( ) );
#61 = EDGE_CURVE ( 'NONE', #83, #192, #7, .T. ) ;
#62 = VECTOR ( 'NONE', #211, 39.37007874015748143 ) ;
#63 = PRODUCT_DEFINITION_FORMATION_WITH_SPECIFIED_SOURCE ( 'ANY', '', #91, .NOT_KNOWN. ) ;
#64 = DIRECTION ( 'NONE',  ( 0.000000000000000000, 0.000000000000000000, 1.000000000000000000 ) ) ;
#65 = CARTESIAN_POINT ( 'NONE',  ( 0.000000000000000000, 0.000000000000000000, 0.000000000000000000 ) ) ;
#66 = SURFACE_STYLE_USAGE ( .BOTH. , #264 ) ;
#67 = EDGE_CURVE ( 'NONE', #192, #226, #204, .T. ) ;
#68 = LINE ( 'NONE', #300, #62 ) ;
#69 = STYLED_ITEM ( 'NONE', ( #350 ), #101 ) ;
#70 = STYLED_ITEM ( 'NONE', ( #233 ), #256 ) ;
#71 = DIRECTION ( 'NONE',  ( -0.000000000000000000, -1.000000000000000000, -0.000000000000000000 ) ) ;
#72 = EDGE_LOOP ( 'NONE', ( #229, #1 ) ) ;
#73 = FACE_OUTER_BOUND ( 'NONE', #82, .T. ) ;
#74 =( NAMED_UNIT ( * ) SI_UNIT ( $, .STERADIAN. ) SOLID_ANGLE_UNIT ( ) );
#75 = MANIFOLD_SOLID_BREP ( 'Revolve - Cutting Edge', #308 ) ;
#76 = MANIFOLD_SOLID_BREP ( 'Revolve - Tool Body (Straight Shanked)', #144 ) ;
#77 = DIRECTION ( 'NONE',  ( 0.000000000000000000, 0.000000000000000000, -1.000000000000000000 ) ) ;
#78 = LENGTH_MEASURE_WITH_UNIT ( LENGTH_MEASURE( 0.02539999999999999897 ), #249 );
#79 = DIRECTION ( 'NONE',  ( -0.000000000000000000, -1.000000000000000000, -0.000000000000000000 ) ) ;
#80 = PRODUCT_DEFINITION_CONTEXT ( 'detailed design', #33, 'design' ) ;
#81 = CIRCLE ( 'NONE', #138, 0.09374999999999998612 ) ;
#82 = EDGE_LOOP ( 'NONE', ( #22, #238, #307, #146, #176 ) ) ;
#83 = VERTEX_POINT ( 'NONE', #153 ) ;
#84 = FACE_OUTER_BOUND ( 'NONE', #56, .T. ) ;
#85 = ORIENTED_EDGE ( 'NONE', *, *, #269, .F. ) ;
#86 = FILL_AREA_STYLE ('',( #28 ) ) ;
#87 = DIMENSIONAL_EXPONENTS ( 1.000000000000000000, 0.000000000000000000, 0.000000000000000000, 0.000000000000000000, 0.000000000000000000, 0.000000000000000000, 0.000000000000000000 ) ;
#88 = DIRECTION ( 'NONE',  ( -1.000000000000000000, 0.000000000000000000, 0.000000000000000000 ) ) ;
#89 = CYLINDRICAL_SURFACE ( 'NONE', #270, 0.09374999999999994449 ) ;
#90 = AXIS2_PLACEMENT_3D ( 'NONE', #291, #93, #10 ) ;
#91 = PRODUCT ( '83416', '83416', '', ( #272 ) ) ;
#92 = DIMENSIONAL_EXPONENTS ( 1.000000000000000000, 0.000000000000000000, 0.000000000000000000, 0.000000000000000000, 0.000000000000000000, 0.000000000000000000, 0.000000000000000000 ) ;
#93 = DIRECTION ( 'NONE',  ( 1.224646799147353207E-16, -1.000000000000000000, 0.000000000000000000 ) ) ;
#94 = CYLINDRICAL_SURFACE ( 'NONE', #266, 0.09374999999999994449 ) ;
#95 =( CONVERSION_BASED_UNIT ( 'INCH', #218 ) LENGTH_UNIT ( ) NAMED_UNIT ( #140 ) );
#96 = DIRECTION ( 'NONE',  ( -1.000000000000000000, -1.224646799147353207E-16, 0.000000000000000000 ) ) ;
#97 = FILL_AREA_STYLE_COLOUR ( '', #110 ) ;
#98 = APPLICATION_PROTOCOL_DEFINITION ( 'draft international standard', 'automotive_design', 1998, #33 ) ;
#99 =( GEOMETRIC_REPRESENTATION_CONTEXT ( 3 ) GLOBAL_UNCERTAINTY_ASSIGNED_CONTEXT ( ( #278 ) ) GLOBAL_UNIT_ASSIGNED_CONTEXT ( ( #333, #42, #217 ) ) REPRESENTATION_CONTEXT ( 'NONE', 'WORKASPACE' ) );
#100 =( LENGTH_UNIT ( ) NAMED_UNIT ( * ) SI_UNIT ( $, .METRE. ) );
#101 = ADVANCED_FACE ( 'NONE', ( #263 ), #4, .T. ) ;
#102 = UNCERTAINTY_MEASURE_WITH_UNIT (LENGTH_MEASURE( 1.000000000000000082E-05 ), #336, 'distance_accuracy_value', 'NONE');
#103 = ORIENTED_EDGE ( 'NONE', *, *, #284, .T. ) ;
#104 = FACE_OUTER_BOUND ( 'NONE', #139, .T. ) ;
#105 = FILL_AREA_STYLE ('',( #200 ) ) ;
#106 = EDGE_LOOP ( 'NONE', ( #85, #280, #103, #267, #59 ) ) ;
#107 = SHAPE_DEFINITION_REPRESENTATION ( #55, #156 ) ;
#108 = STYLED_ITEM ( 'NONE', ( #363 ), #75 ) ;
#109 = UNCERTAINTY_MEASURE_WITH_UNIT (LENGTH_MEASURE( 1.000000000000000082E-05 ), #242, 'distance_accuracy_value', 'NONE');
#110 = COLOUR_RGB ( '',1.000000000000000000, 0.000000000000000000, 0.000000000000000000 ) ;
#111 = ORIENTED_EDGE ( 'NONE', *, *, #179, .F. ) ;
#112 = ADVANCED_FACE ( 'NONE', ( #305 ), #288, .F. ) ;
#113 = SURFACE_STYLE_FILL_AREA ( #311 ) ;
#114 = DIRECTION ( 'NONE',  ( 1.224646799147353207E-16, -0.000000000000000000, 1.000000000000000000 ) ) ;
#115 =( LENGTH_UNIT ( ) NAMED_UNIT ( * ) SI_UNIT ( $, .METRE. ) );
#116 = AXIS2_PLACEMENT_3D ( 'NONE', #212, #71, #215 ) ;
#117 = EDGE_CURVE ( 'NONE', #196, #316, #68, .T. ) ;
#118 = PRESENTATION_LAYER_ASSIGNMENT (  '', '', ( #169 ) ) ;
#119 = CIRCLE ( 'NONE', #235, 0.09374999999999988898 ) ;
#120 = CARTESIAN_POINT ( 'NONE',  ( 0.000000000000000000, 1.000000000000000000, 0.000000000000000000 ) ) ;
#121 =( NAMED_UNIT ( * ) PLANE_ANGLE_UNIT ( ) SI_UNIT ( $, .RADIAN. ) );
#122 = CARTESIAN_POINT ( 'NONE',  ( -0.09374999999999965306, 1.000000000000000000, 0.000000000000000000 ) ) ;
#123 = LENGTH_MEASURE_WITH_UNIT ( LENGTH_MEASURE( 0.02539999999999999897 ), #115 );
#124 = LINE ( 'NONE', #150, #317 ) ;
#125 = VECTOR ( 'NONE', #245, 39.37007874015748143 ) ;
#126 = DIMENSIONAL_EXPONENTS ( 1.000000000000000000, 0.000000000000000000, 0.000000000000000000, 0.000000000000000000, 0.000000000000000000, 0.000000000000000000, 0.000000000000000000 ) ;
#127 = DIRECTION ( 'NONE',  ( -1.224646799147353207E-16, 1.000000000000000000, -0.000000000000000000 ) ) ;
#128 = FACE_OUTER_BOUND ( 'NONE', #247, .T. ) ;
#129 = VERTEX_POINT ( 'NONE', #268 ) ;
#130 =( NAMED_UNIT ( * ) SI_UNIT ( $, .STERADIAN. ) SOLID_ANGLE_UNIT ( ) );
#131 = AXIS2_PLACEMENT_3D ( 'NONE', #228, #230, #202 ) ;
#132 = MECHANICAL_DESIGN_GEOMETRIC_PRESENTATION_REPRESENTATION (  '', ( #163 ), #99 ) ;
#133 =( NAMED_UNIT ( * ) PLANE_ANGLE_UNIT ( ) SI_UNIT ( $, .RADIAN. ) );
#134 = CARTESIAN_POINT ( 'NONE',  ( 0.000000000000000000, 0.000000000000000000, -0.09374999999999994449 ) ) ;
#135 = PRESENTATION_STYLE_ASSIGNMENT (( #19 ) ) ;
#136 = DIRECTION ( 'NONE',  ( 0.000000000000000000, 0.000000000000000000, -1.000000000000000000 ) ) ;
#137 = MECHANICAL_DESIGN_GEOMETRIC_PRESENTATION_REPRESENTATION (  '', ( #108 ), #20 ) ;
#138 = AXIS2_PLACEMENT_3D ( 'NONE', #191, #299, #18 ) ;
#139 = EDGE_LOOP ( 'NONE', ( #52, #111 ) ) ;
#140 = DIMENSIONAL_EXPONENTS ( 1.000000000000000000, 0.000000000000000000, 0.000000000000000000, 0.000000000000000000, 0.000000000000000000, 0.000000000000000000, 0.000000000000000000 ) ;
#141 = CARTESIAN_POINT ( 'NONE',  ( 1.224646799147353454E-16, 1.000000000000000000, 0.000000000000000000 ) ) ;
#142 =( NAMED_UNIT ( * ) SI_UNIT ( $, .STERADIAN. ) SOLID_ANGLE_UNIT ( ) );
#143 = SURFACE_SIDE_STYLE ('',( #340 ) ) ;
#144 = CLOSED_SHELL ( 'NONE', ( #151, #112, #26, #17 ) ) ;
#145 = UNCERTAINTY_MEASURE_WITH_UNIT (LENGTH_MEASURE( 1.000000000000000082E-05 ), #353, 'distance_accuracy_value', 'NONE');
#146 = ORIENTED_EDGE ( 'NONE', *, *, #237, .F. ) ;
#147 = DIRECTION ( 'NONE',  ( -1.224646799147353207E-16, 1.000000000000000000, -0.000000000000000000 ) ) ;
#148 = SURFACE_STYLE_FILL_AREA ( #86 ) ;
#149 = ORIENTED_EDGE ( 'NONE', *, *, #194, .T. ) ;
#150 = CARTESIAN_POINT ( 'NONE',  ( 0.09374999999999979183, 2.500000000000000000, 1.148106374200641860E-17 ) ) ;
#151 = ADVANCED_FACE ( 'NONE', ( #214 ), #334, .T. ) ;
#152 = DIRECTION ( 'NONE',  ( 1.000000000000000000, 0.000000000000000000, 0.000000000000000000 ) ) ;
#153 = CARTESIAN_POINT ( 'NONE',  ( 1.148106374200643401E-17, 0.09375000000000001388, 0.09374999999999997224 ) ) ;
#154 = CARTESIAN_POINT ( 'NONE',  ( 0.000000000000000000, 0.09375000000000001388, -0.09374999999999998612 ) ) ;
#155 = DIRECTION ( 'NONE',  ( -1.224646799147353207E-16, 1.000000000000000000, 0.000000000000000000 ) ) ;
#156 = ADVANCED_BREP_SHAPE_REPRESENTATION ( '83416', ( #75, #76, #240 ), #50 ) ;
#157 = AXIS2_PLACEMENT_3D ( 'NONE', #298, #54, #178 ) ;
#158 = CIRCLE ( 'NONE', #364, 0.09374999999999998612 ) ;
#159 = ADVANCED_FACE ( 'NONE', ( #73 ), #94, .T. ) ;
#160 = ORIENTED_EDGE ( 'NONE', *, *, #48, .F. ) ;
#161 = SURFACE_STYLE_FILL_AREA ( #9 ) ;
#162 = ORIENTED_EDGE ( 'NONE', *, *, #53, .F. ) ;
#163 = STYLED_ITEM ( 'NONE', ( #219 ), #159 ) ;
#164 = EDGE_CURVE ( 'NONE', #196, #168, #373, .T. ) ;
#165 = PRESENTATION_STYLE_ASSIGNMENT (( #329 ) ) ;
#166 =( NAMED_UNIT ( * ) SI_UNIT ( $, .STERADIAN. ) SOLID_ANGLE_UNIT ( ) );
#167 = FILL_AREA_STYLE_COLOUR ( '', #213 ) ;
#168 = VERTEX_POINT ( 'NONE', #58 ) ;
#169 = STYLED_ITEM ( 'NONE', ( #135 ), #76 ) ;
#170 = CARTESIAN_POINT ( 'NONE',  ( 0.000000000000000000, 1.000000000000000000, 0.000000000000000000 ) ) ;
#171 = STYLED_ITEM ( 'NONE', ( #165 ), #322 ) ;
#172 = VECTOR ( 'NONE', #330, 39.37007874015748143 ) ;
#173 = CARTESIAN_POINT ( 'NONE',  ( -6.123233995736766036E-17, 2.500000000000000000, 0.000000000000000000 ) ) ;
#174 = PLANE ( 'NONE',  #232 ) ;
#175 = CARTESIAN_POINT ( 'NONE',  ( 0.000000000000000000, 0.09375000000000001388, 0.000000000000000000 ) ) ;
#176 = ORIENTED_EDGE ( 'NONE', *, *, #284, .F. ) ;
#177 = AXIS2_PLACEMENT_3D ( 'NONE', #40, #16, #302 ) ;
#178 = DIRECTION ( 'NONE',  ( -1.000000000000000000, 0.000000000000000000, 0.000000000000000000 ) ) ;
#179 = EDGE_CURVE ( 'NONE', #129, #367, #119, .T. ) ;
#180 = DIRECTION ( 'NONE',  ( 0.000000000000000000, 0.000000000000000000, -1.000000000000000000 ) ) ;
#181 =( CONVERSION_BASED_UNIT ( 'INCH', #123 ) LENGTH_UNIT ( ) NAMED_UNIT ( #92 ) );
#182 =( NAMED_UNIT ( * ) SI_UNIT ( $, .STERADIAN. ) SOLID_ANGLE_UNIT ( ) );
#183 = COLOUR_RGB ( '',1.000000000000000000, 0.000000000000000000, 0.000000000000000000 ) ;
#184 = AXIS2_PLACEMENT_3D ( 'NONE', #285, #6, #180 ) ;
#185 = DIMENSIONAL_EXPONENTS ( 1.000000000000000000, 0.000000000000000000, 0.000000000000000000, 0.000000000000000000, 0.000000000000000000, 0.000000000000000000, 0.000000000000000000 ) ;
#186 = CARTESIAN_POINT ( 'NONE',  ( 0.000000000000000000, 0.000000000000000000, 0.000000000000000000 ) ) ;
#187 =( LENGTH_UNIT ( ) NAMED_UNIT ( * ) SI_UNIT ( $, .METRE. ) );
#188 = FILL_AREA_STYLE ('',( #32 ) ) ;
#189 =( GEOMETRIC_REPRESENTATION_CONTEXT ( 3 ) GLOBAL_UNCERTAINTY_ASSIGNED_CONTEXT ( ( #346 ) ) GLOBAL_UNIT_ASSIGNED_CONTEXT ( ( #95, #133, #360 ) ) REPRESENTATION_CONTEXT ( 'NONE', 'WORKASPACE' ) );
#190 = PRODUCT_RELATED_PRODUCT_CATEGORY ( 'part', '', ( #91 ) ) ;
#191 = CARTESIAN_POINT ( 'NONE',  ( 0.000000000000000000, 0.09375000000000001388, 0.000000000000000000 ) ) ;
#192 = VERTEX_POINT ( 'NONE', #287 ) ;
#193 = DIRECTION ( 'NONE',  ( 1.000000000000000000, 0.000000000000000000, 0.000000000000000000 ) ) ;
#194 = EDGE_CURVE ( 'NONE', #168, #241, #124, .T. ) ;
#195 = DIRECTION ( 'NONE',  ( 0.000000000000000000, -0.000000000000000000, 1.000000000000000000 ) ) ;
#196 = VERTEX_POINT ( 'NONE', #122 ) ;
#197 = ORIENTED_EDGE ( 'NONE', *, *, #164, .F. ) ;
#198 = DIRECTION ( 'NONE',  ( 1.000000000000000000, 0.000000000000000000, 0.000000000000000000 ) ) ;
#199 = STYLED_ITEM ( 'NONE', ( #349 ), #357 ) ;
#200 = FILL_AREA_STYLE_COLOUR ( '', #274 ) ;
#201 = DIRECTION ( 'NONE',  ( 0.000000000000000000, 1.000000000000000000, 0.000000000000000000 ) ) ;
#202 = DIRECTION ( 'NONE',  ( 0.000000000000000000, 0.000000000000000000, -1.000000000000000000 ) ) ;
#203 = EDGE_LOOP ( 'NONE', ( #342, #149, #337, #31 ) ) ;
#204 = CIRCLE ( 'NONE', #252, 0.09374999999999998612 ) ;
#205 = UNCERTAINTY_MEASURE_WITH_UNIT (LENGTH_MEASURE( 1.000000000000000082E-05 ), #27, 'distance_accuracy_value', 'NONE');
#206 = SURFACE_STYLE_USAGE ( .BOTH. , #318 ) ;
#207 = COLOUR_RGB ( '',1.000000000000000000, 0.000000000000000000, 0.000000000000000000 ) ;
#208 = SURFACE_STYLE_FILL_AREA ( #188 ) ;
#209 = DIRECTION ( 'NONE',  ( -1.000000000000000000, 0.000000000000000000, 0.000000000000000000 ) ) ;
#210 = EDGE_CURVE ( 'NONE', #192, #324, #158, .T. ) ;
#211 = DIRECTION ( 'NONE',  ( -1.224646799147353207E-16, 1.000000000000000000, -0.000000000000000000 ) ) ;
#212 = CARTESIAN_POINT ( 'NONE',  ( 0.000000000000000000, 1.000000000000000000, 0.000000000000000000 ) ) ;
#213 = COLOUR_RGB ( '',0.7921568627450980005, 0.8196078431372548767, 0.9333333333333333481 ) ;
#214 = FACE_OUTER_BOUND ( 'NONE', #203, .T. ) ;
#215 = DIRECTION ( 'NONE',  ( 0.000000000000000000, 0.000000000000000000, -1.000000000000000000 ) ) ;
#216 = CARTESIAN_POINT ( 'NONE',  ( -1.148106374200643401E-17, 0.09374999999999998612, 0.000000000000000000 ) ) ;
#217 =( NAMED_UNIT ( * ) SI_UNIT ( $, .STERADIAN. ) SOLID_ANGLE_UNIT ( ) );
#218 = LENGTH_MEASURE_WITH_UNIT ( LENGTH_MEASURE( 0.02539999999999999897 ), #100 );
#219 = PRESENTATION_STYLE_ASSIGNMENT (( #243 ) ) ;
#220 = FILL_AREA_STYLE ('',( #97 ) ) ;
#221 = AXIS2_PLACEMENT_3D ( 'NONE', #356, #244, #88 ) ;
#222 =( GEOMETRIC_REPRESENTATION_CONTEXT ( 3 ) GLOBAL_UNCERTAINTY_ASSIGNED_CONTEXT ( ( #102 ) ) GLOBAL_UNIT_ASSIGNED_CONTEXT ( ( #336, #12, #130 ) ) REPRESENTATION_CONTEXT ( 'NONE', 'WORKASPACE' ) );
#223 = LENGTH_MEASURE_WITH_UNIT ( LENGTH_MEASURE( 0.02539999999999999897 ), #251 );
#224 =( CONVERSION_BASED_UNIT ( 'INCH', #335 ) LENGTH_UNIT ( ) NAMED_UNIT ( #323 ) );
#225 = UNCERTAINTY_MEASURE_WITH_UNIT (LENGTH_MEASURE( 1.000000000000000082E-05 ), #224, 'distance_accuracy_value', 'NONE');
#226 = VERTEX_POINT ( 'NONE', #154 ) ;
#227 = AXIS2_PLACEMENT_3D ( 'NONE', #321, #64, #152 ) ;
#228 = CARTESIAN_POINT ( 'NONE',  ( 0.000000000000000000, 0.09375000000000001388, 0.000000000000000000 ) ) ;
#229 = ORIENTED_EDGE ( 'NONE', *, *, #5, .T. ) ;
#230 = DIRECTION ( 'NONE',  ( -0.000000000000000000, -1.000000000000000000, -0.000000000000000000 ) ) ;
#231 = ORIENTED_EDGE ( 'NONE', *, *, #194, .F. ) ;
#232 = AXIS2_PLACEMENT_3D ( 'NONE', #170, #201, #195 ) ;
#233 = PRESENTATION_STYLE_ASSIGNMENT (( #66 ) ) ;
#234 = DIRECTION ( 'NONE',  ( 0.000000000000000000, 0.000000000000000000, -1.000000000000000000 ) ) ;
#235 = AXIS2_PLACEMENT_3D ( 'NONE', #120, #351, #234 ) ;
#236 = SURFACE_SIDE_STYLE ('',( #161 ) ) ;
#237 = EDGE_CURVE ( 'NONE', #226, #354, #309, .T. ) ;
#238 = ORIENTED_EDGE ( 'NONE', *, *, #269, .T. ) ;
#239 = CYLINDRICAL_SURFACE ( 'NONE', #221, 0.09374999999999984734 ) ;
#240 = AXIS2_PLACEMENT_3D ( 'NONE', #271, #246, #198 ) ;
#241 = VERTEX_POINT ( 'NONE', #343 ) ;
#242 =( CONVERSION_BASED_UNIT ( 'INCH', #325 ) LENGTH_UNIT ( ) NAMED_UNIT ( #87 ) );
#243 = SURFACE_STYLE_USAGE ( .BOTH. , #236 ) ;
#244 = DIRECTION ( 'NONE',  ( -1.224646799147353207E-16, 1.000000000000000000, -0.000000000000000000 ) ) ;
#245 = DIRECTION ( 'NONE',  ( -0.000000000000000000, -1.000000000000000000, -0.000000000000000000 ) ) ;
#246 = DIRECTION ( 'NONE',  ( 0.000000000000000000, 0.000000000000000000, 1.000000000000000000 ) ) ;
#247 = EDGE_LOOP ( 'NONE', ( #231, #331, #30, #162 ) ) ;
#248 = SPHERICAL_SURFACE ( 'NONE', #281, 0.09374999999999998612 ) ;
#249 =( LENGTH_UNIT ( ) NAMED_UNIT ( * ) SI_UNIT ( $, .METRE. ) );
#250 = LENGTH_MEASURE_WITH_UNIT ( LENGTH_MEASURE( 0.02539999999999999897 ), #371 );
#251 =( LENGTH_UNIT ( ) NAMED_UNIT ( * ) SI_UNIT ( $, .METRE. ) );
#252 = AXIS2_PLACEMENT_3D ( 'NONE', #175, #315, #77 ) ;
#253 = SURFACE_SIDE_STYLE ('',( #25 ) ) ;
#254 = FILL_AREA_STYLE_COLOUR ( '', #320 ) ;
#255 = ORIENTED_EDGE ( 'NONE', *, *, #61, .T. ) ;
#256 = ADVANCED_FACE ( 'NONE', ( #84 ), #248, .T. ) ;
#257 = CIRCLE ( 'NONE', #177, 0.09374999999999995837 ) ;
#258 = SURFACE_STYLE_USAGE ( .BOTH. , #143 ) ;
#259 =( LENGTH_UNIT ( ) NAMED_UNIT ( * ) SI_UNIT ( $, .METRE. ) );
#260 = DIRECTION ( 'NONE',  ( 1.000000000000000000, 0.000000000000000000, -1.224646799147353207E-16 ) ) ;
#261 = MECHANICAL_DESIGN_GEOMETRIC_PRESENTATION_REPRESENTATION (  '', ( #169 ), #319 ) ;
#262 = CARTESIAN_POINT ( 'NONE',  ( -1.148106374200643401E-17, 0.09374999999999998612, 0.000000000000000000 ) ) ;
#263 = FACE_OUTER_BOUND ( 'NONE', #45, .T. ) ;
#264 = SURFACE_SIDE_STYLE ('',( #208 ) ) ;
#265 = DIRECTION ( 'NONE',  ( -0.000000000000000000, -1.000000000000000000, -0.000000000000000000 ) ) ;
#266 = AXIS2_PLACEMENT_3D ( 'NONE', #186, #265, #136 ) ;
#267 = ORIENTED_EDGE ( 'NONE', *, *, #67, .F. ) ;
#268 = CARTESIAN_POINT ( 'NONE',  ( 1.148106374200642476E-17, 1.000000000000000000, 0.09374999999999988898 ) ) ;
#269 = EDGE_CURVE ( 'NONE', #129, #83, #3, .T. ) ;
#270 = AXIS2_PLACEMENT_3D ( 'NONE', #65, #79, #276 ) ;
#271 = CARTESIAN_POINT ( 'NONE',  ( 0.000000000000000000, 0.000000000000000000, 0.000000000000000000 ) ) ;
#272 = PRODUCT_CONTEXT ( 'NONE', #295, 'mechanical' ) ;
#273 = SURFACE_STYLE_USAGE ( .BOTH. , #253 ) ;
#274 = COLOUR_RGB ( '',0.7921568627450980005, 0.8196078431372548767, 0.9333333333333333481 ) ;
#275 = PRESENTATION_LAYER_ASSIGNMENT (  '', '', ( #171 ) ) ;
#276 = DIRECTION ( 'NONE',  ( 0.000000000000000000, 0.000000000000000000, -1.000000000000000000 ) ) ;
#277 = DIRECTION ( 'NONE',  ( -1.224646799147353207E-16, 1.000000000000000000, -0.000000000000000000 ) ) ;
#278 = UNCERTAINTY_MEASURE_WITH_UNIT (LENGTH_MEASURE( 1.000000000000000082E-05 ), #333, 'distance_accuracy_value', 'NONE');
#279 = DIRECTION ( 'NONE',  ( -1.000000000000000000, 0.000000000000000000, 0.000000000000000000 ) ) ;
#280 = ORIENTED_EDGE ( 'NONE', *, *, #179, .T. ) ;
#281 = AXIS2_PLACEMENT_3D ( 'NONE', #216, #362, #193 ) ;
#282 =( NAMED_UNIT ( * ) PLANE_ANGLE_UNIT ( ) SI_UNIT ( $, .RADIAN. ) );
#283 = EDGE_LOOP ( 'NONE', ( #197, #297 ) ) ;
#284 = EDGE_CURVE ( 'NONE', #367, #226, #361, .T. ) ;
#285 = CARTESIAN_POINT ( 'NONE',  ( 0.000000000000000000, 0.09375000000000001388, 0.000000000000000000 ) ) ;
#286 = CIRCLE ( 'NONE', #15, 0.09374999999999976408 ) ;
#287 = CARTESIAN_POINT ( 'NONE',  ( -0.09374999999999998612, 0.09375000000000001388, 1.148106374200643247E-17 ) ) ;
#288 = PLANE ( 'NONE',  #352 ) ;
#289 = CARTESIAN_POINT ( 'NONE',  ( -6.123233995736766036E-17, 2.500000000000000000, 0.000000000000000000 ) ) ;
#290 = PRESENTATION_LAYER_ASSIGNMENT (  '', '', ( #108 ) ) ;
#291 = CARTESIAN_POINT ( 'NONE',  ( 0.09374999999999988898, 2.500000000000000000, 0.000000000000000000 ) ) ;
#292 = CARTESIAN_POINT ( 'NONE',  ( -0.09375000000000002776, 2.500000000000000000, 0.000000000000000000 ) ) ;
#293 = PRESENTATION_LAYER_ASSIGNMENT (  '', '', ( #70 ) ) ;
#294 = ORIENTED_EDGE ( 'NONE', *, *, #304, .T. ) ;
#295 = APPLICATION_CONTEXT ( 'automotive_design' ) ;
#296 = DIMENSIONAL_EXPONENTS ( 1.000000000000000000, 0.000000000000000000, 0.000000000000000000, 0.000000000000000000, 0.000000000000000000, 0.000000000000000000, 0.000000000000000000 ) ;
#297 = ORIENTED_EDGE ( 'NONE', *, *, #339, .F. ) ;
#298 = CARTESIAN_POINT ( 'NONE',  ( -1.148106374200643401E-17, 0.09374999999999998612, 0.000000000000000000 ) ) ;
#299 = DIRECTION ( 'NONE',  ( -0.000000000000000000, -1.000000000000000000, -0.000000000000000000 ) ) ;
#300 = CARTESIAN_POINT ( 'NONE',  ( -0.09374999999999991673, 2.500000000000000000, 0.000000000000000000 ) ) ;
#301 = DIRECTION ( 'NONE',  ( -1.224646799147353207E-16, 1.000000000000000000, -0.000000000000000000 ) ) ;
#302 = DIRECTION ( 'NONE',  ( -1.000000000000000000, 0.000000000000000000, 0.000000000000000000 ) ) ;
#303 = SURFACE_STYLE_FILL_AREA ( #220 ) ;
#304 = EDGE_CURVE ( 'NONE', #354, #83, #81, .T. ) ;
#305 = FACE_OUTER_BOUND ( 'NONE', #283, .T. ) ;
#306 = ORIENTED_EDGE ( 'NONE', *, *, #237, .T. ) ;
#307 = ORIENTED_EDGE ( 'NONE', *, *, #304, .F. ) ;
#308 = CLOSED_SHELL ( 'NONE', ( #101, #159, #357, #322, #256 ) ) ;
#309 = CIRCLE ( 'NONE', #184, 0.09374999999999998612 ) ;
#310 = CARTESIAN_POINT ( 'NONE',  ( 0.09374999999999998612, 0.09375000000000001388, 0.000000000000000000 ) ) ;
#311 = FILL_AREA_STYLE ('',( #167 ) ) ;
#312 = UNCERTAINTY_MEASURE_WITH_UNIT (LENGTH_MEASURE( 1.000000000000000082E-05 ), #181, 'distance_accuracy_value', 'NONE');
#313 = APPLICATION_PROTOCOL_DEFINITION ( 'draft international standard', 'automotive_design', 1998, #295 ) ;
#314 = PRODUCT_DEFINITION ( 'UNKNOWN', '', #63, #80 ) ;
#315 = DIRECTION ( 'NONE',  ( -0.000000000000000000, -1.000000000000000000, -0.000000000000000000 ) ) ;
#316 = VERTEX_POINT ( 'NONE', #292 ) ;
#317 = VECTOR ( 'NONE', #147, 39.37007874015748143 ) ;
#318 = SURFACE_SIDE_STYLE ('',( #148 ) ) ;
#319 =( GEOMETRIC_REPRESENTATION_CONTEXT ( 3 ) GLOBAL_UNCERTAINTY_ASSIGNED_CONTEXT ( ( #145 ) ) GLOBAL_UNIT_ASSIGNED_CONTEXT ( ( #353, #282, #60 ) ) REPRESENTATION_CONTEXT ( 'NONE', 'WORKASPACE' ) );
#320 = COLOUR_RGB ( '',1.000000000000000000, 0.000000000000000000, 0.000000000000000000 ) ;
#321 = CARTESIAN_POINT ( 'NONE',  ( -1.148106374200643401E-17, 0.09374999999999998612, 0.000000000000000000 ) ) ;
#322 = ADVANCED_FACE ( 'NONE', ( #11 ), #89, .T. ) ;
#323 = DIMENSIONAL_EXPONENTS ( 1.000000000000000000, 0.000000000000000000, 0.000000000000000000, 0.000000000000000000, 0.000000000000000000, 0.000000000000000000, 0.000000000000000000 ) ;
#324 = VERTEX_POINT ( 'NONE', #24 ) ;
#325 = LENGTH_MEASURE_WITH_UNIT ( LENGTH_MEASURE( 0.02539999999999999897 ), #35 );
#326 = LENGTH_MEASURE_WITH_UNIT ( LENGTH_MEASURE( 0.02539999999999999897 ), #187 );
#327 = FACE_OUTER_BOUND ( 'NONE', #72, .T. ) ;
#328 = CIRCLE ( 'NONE', #157, 0.09374999999999998612 ) ;
#329 = SURFACE_STYLE_USAGE ( .BOTH. , #46 ) ;
#330 = DIRECTION ( 'NONE',  ( -0.000000000000000000, -1.000000000000000000, -0.000000000000000000 ) ) ;
#331 = ORIENTED_EDGE ( 'NONE', *, *, #339, .T. ) ;
#332 = DIMENSIONAL_EXPONENTS ( 1.000000000000000000, 0.000000000000000000, 0.000000000000000000, 0.000000000000000000, 0.000000000000000000, 0.000000000000000000, 0.000000000000000000 ) ;
#333 =( CONVERSION_BASED_UNIT ( 'INCH', #326 ) LENGTH_UNIT ( ) NAMED_UNIT ( #332 ) );
#334 = CYLINDRICAL_SURFACE ( 'NONE', #372, 0.09374999999999984734 ) ;
#335 = LENGTH_MEASURE_WITH_UNIT ( LENGTH_MEASURE( 0.02539999999999999897 ), #259 );
#336 =( CONVERSION_BASED_UNIT ( 'INCH', #223 ) LENGTH_UNIT ( ) NAMED_UNIT ( #126 ) );
#337 = ORIENTED_EDGE ( 'NONE', *, *, #5, .F. ) ;
#338 = AXIS2_PLACEMENT_3D ( 'NONE', #369, #301, #34 ) ;
#339 = EDGE_CURVE ( 'NONE', #168, #196, #286, .T. ) ;
#340 = SURFACE_STYLE_FILL_AREA ( #370 ) ;
#341 = DIRECTION ( 'NONE',  ( -1.000000000000000000, 0.000000000000000000, 0.000000000000000000 ) ) ;
#342 = ORIENTED_EDGE ( 'NONE', *, *, #164, .T. ) ;
#343 = CARTESIAN_POINT ( 'NONE',  ( 0.09374999999999987510, 2.500000000000000000, 1.148106374200642476E-17 ) ) ;
#344 = SURFACE_SIDE_STYLE ('',( #113 ) ) ;
#345 = ORIENTED_EDGE ( 'NONE', *, *, #48, .T. ) ;
#346 = UNCERTAINTY_MEASURE_WITH_UNIT (LENGTH_MEASURE( 1.000000000000000082E-05 ), #95, 'distance_accuracy_value', 'NONE');
#347 = CIRCLE ( 'NONE', #116, 0.09374999999999988898 ) ;
#348 =( GEOMETRIC_REPRESENTATION_CONTEXT ( 3 ) GLOBAL_UNCERTAINTY_ASSIGNED_CONTEXT ( ( #109 ) ) GLOBAL_UNIT_ASSIGNED_CONTEXT ( ( #242, #47, #74 ) ) REPRESENTATION_CONTEXT ( 'NONE', 'WORKASPACE' ) );
#349 = PRESENTATION_STYLE_ASSIGNMENT (( #258 ) ) ;
#350 = PRESENTATION_STYLE_ASSIGNMENT (( #206 ) ) ;
#351 = DIRECTION ( 'NONE',  ( -0.000000000000000000, -1.000000000000000000, -0.000000000000000000 ) ) ;
#352 = AXIS2_PLACEMENT_3D ( 'NONE', #37, #155, #96 ) ;
#353 =( CONVERSION_BASED_UNIT ( 'INCH', #250 ) LENGTH_UNIT ( ) NAMED_UNIT ( #296 ) );
#354 = VERTEX_POINT ( 'NONE', #310 ) ;
#355 = FILL_AREA_STYLE_COLOUR ( '', #207 ) ;
#356 = CARTESIAN_POINT ( 'NONE',  ( -6.123233995736766036E-17, 2.500000000000000000, 0.000000000000000000 ) ) ;
#357 = ADVANCED_FACE ( 'NONE', ( #104 ), #174, .T. ) ;
#358 = CIRCLE ( 'NONE', #39, 0.09374999999999995837 ) ;
#359 = MECHANICAL_DESIGN_GEOMETRIC_PRESENTATION_REPRESENTATION (  '', ( #171 ), #222 ) ;
#360 =( NAMED_UNIT ( * ) SI_UNIT ( $, .STERADIAN. ) SOLID_ANGLE_UNIT ( ) );
#361 = LINE ( 'NONE', #134, #125 ) ;
#362 = DIRECTION ( 'NONE',  ( 0.000000000000000000, 0.000000000000000000, 1.000000000000000000 ) ) ;
#363 = PRESENTATION_STYLE_ASSIGNMENT (( #273 ) ) ;
#364 = AXIS2_PLACEMENT_3D ( 'NONE', #262, #114, #260 ) ;
#365 =( NAMED_UNIT ( * ) PLANE_ANGLE_UNIT ( ) SI_UNIT ( $, .RADIAN. ) );
#366 = DIRECTION ( 'NONE',  ( -1.224646799147353207E-16, 1.000000000000000000, -0.000000000000000000 ) ) ;
#367 = VERTEX_POINT ( 'NONE', #368 ) ;
#368 = CARTESIAN_POINT ( 'NONE',  ( 0.000000000000000000, 1.000000000000000000, -0.09374999999999988898 ) ) ;
#369 = CARTESIAN_POINT ( 'NONE',  ( 1.224646799147353454E-16, 1.000000000000000000, 0.000000000000000000 ) ) ;
#370 = FILL_AREA_STYLE ('',( #254 ) ) ;
#371 =( LENGTH_UNIT ( ) NAMED_UNIT ( * ) SI_UNIT ( $, .METRE. ) );
#372 = AXIS2_PLACEMENT_3D ( 'NONE', #289, #127, #209 ) ;
#373 = CIRCLE ( 'NONE', #338, 0.09374999999999976408 ) ;
ENDSEC;
END-ISO-10303-21;
