ISO-10303-21;
HEADER;
FILE_DESCRIPTION (( 'STEP AP214' ),
    '1' );
FILE_NAME ('Micro_SFLM-030-20.STEP',
    '2021-09-02T05:19:37',
    ( '' ),
    ( '' ),
    'SwSTEP 2.0',
    'SolidWorks 2020',
    '' );
FILE_SCHEMA (( 'AUTOMOTIVE_DESIGN' ));
ENDSEC;

DATA;
#1 = ORIENTED_EDGE ( 'NONE', *, *, #134, .T. ) ;
#2 = VERTEX_POINT ( 'NONE', #29 ) ;
#3 = AXIS2_PLACEMENT_3D ( 'NONE', #285, #54, #218 ) ;
#4 = AXIS2_PLACEMENT_3D ( 'NONE', #59, #76, #16 ) ;
#5 = PLANE ( 'NONE',  #75 ) ;
#6 = VERTEX_POINT ( 'NONE', #232 ) ;
#7 = ORIENTED_EDGE ( 'NONE', *, *, #124, .T. ) ;
#8 = ORIENTED_EDGE ( 'NONE', *, *, #233, .T. ) ;
#9 = ORIENTED_EDGE ( 'NONE', *, *, #22, .F. ) ;
#10 = ORIENTED_EDGE ( 'NONE', *, *, #30, .F. ) ;
#11 = FILL_AREA_STYLE ('',( #237 ) ) ;
#12 = VERTEX_POINT ( 'NONE', #73 ) ;
#13 = CIRCLE ( 'NONE', #298, 0.05905500000000001720 ) ;
#14 = ADVANCED_FACE ( 'NONE', ( #31 ), #185, .T. ) ;
#15 = LINE ( 'NONE', #167, #259 ) ;
#16 = DIRECTION ( 'NONE',  ( -1.000000000000000000, 0.0000000000000000000, 0.0000000000000000000 ) ) ;
#17 = DIRECTION ( 'NONE',  ( 0.0000000000000000000, 0.0000000000000000000, -1.000000000000000000 ) ) ;
#18 = CARTESIAN_POINT ( 'NONE',  ( 0.05905500000000001720, 7.232151672364695422E-18, 1.496062999999999921 ) ) ;
#19 =( NAMED_UNIT ( * ) PLANE_ANGLE_UNIT ( ) SI_UNIT ( $, .RADIAN. ) );
#20 = CARTESIAN_POINT ( 'NONE',  ( 5.789835141389368266E-17, 0.0000000000000000000, 0.4727759175478575826 ) ) ;
#21 = ORIENTED_EDGE ( 'NONE', *, *, #161, .F. ) ;
#22 = EDGE_CURVE ( 'NONE', #274, #6, #249, .T. ) ;
#23 = LINE ( 'NONE', #108, #105 ) ;
#24 = ORIENTED_EDGE ( 'NONE', *, *, #271, .T. ) ;
#25 = DIRECTION ( 'NONE',  ( -1.224646799147353207E-16, -0.0000000000000000000, -1.000000000000000000 ) ) ;
#26 = EDGE_LOOP ( 'NONE', ( #250, #260, #133, #102 ) ) ;
#27 = AXIS2_PLACEMENT_3D ( 'NONE', #191, #168, #221 ) ;
#28 = DIRECTION ( 'NONE',  ( 1.000000000000000000, 0.0000000000000000000, -0.0000000000000000000 ) ) ;
#29 = CARTESIAN_POINT ( 'NONE',  ( -0.04405499999999974020, 0.0000000000000000000, 1.496062999999999921 ) ) ;
#30 = EDGE_CURVE ( 'NONE', #69, #12, #92, .T. ) ;
#31 = FACE_OUTER_BOUND ( 'NONE', #272, .T. ) ;
#32 = CARTESIAN_POINT ( 'NONE',  ( 0.0000000000000000000, 0.0000000000000000000, 1.496062999999999921 ) ) ;
#33 = VERTEX_POINT ( 'NONE', #121 ) ;
#34 = EDGE_LOOP ( 'NONE', ( #7, #299 ) ) ;
#35 = CARTESIAN_POINT ( 'NONE',  ( 0.0000000000000000000, 0.0000000000000000000, 1.496062999999999921 ) ) ;
#36 = CARTESIAN_POINT ( 'NONE',  ( 0.0000000000000000000, 0.0000000000000000000, 0.0000000000000000000 ) ) ;
#37 = DIRECTION ( 'NONE',  ( -0.0000000000000000000, -0.0000000000000000000, -1.000000000000000000 ) ) ;
#38 = PRODUCT ( 'Micro_SFLM-030-20', 'Micro_SFLM-030-20', '', ( #269 ) ) ;
#39 = CARTESIAN_POINT ( 'NONE',  ( 5.789835141389368266E-17, 0.0000000000000000000, 0.4727759175478575826 ) ) ;
#40 = CARTESIAN_POINT ( 'NONE',  ( 0.0000000000000000000, 0.0000000000000000000, 1.496062999999999921 ) ) ;
#41 = EDGE_CURVE ( 'NONE', #33, #2, #118, .T. ) ;
#42 = SURFACE_STYLE_FILL_AREA ( #67 ) ;
#43 = ADVANCED_FACE ( 'NONE', ( #116 ), #157, .F. ) ;
#44 = EDGE_LOOP ( 'NONE', ( #51, #258 ) ) ;
#45 = SURFACE_STYLE_FILL_AREA ( #11 ) ;
#46 = DIRECTION ( 'NONE',  ( 0.0000000000000000000, 0.0000000000000000000, -1.000000000000000000 ) ) ;
#47 =( LENGTH_UNIT ( ) NAMED_UNIT ( * ) SI_UNIT ( $, .METRE. ) );
#48 = CLOSED_SHELL ( 'NONE', ( #55, #60, #177, #14, #125, #296, #70, #104, #254, #43 ) ) ;
#49 = STYLED_ITEM ( 'NONE', ( #205 ), #284 ) ;
#50 = ORIENTED_EDGE ( 'NONE', *, *, #161, .T. ) ;
#51 = ORIENTED_EDGE ( 'NONE', *, *, #114, .T. ) ;
#52 = DIRECTION ( 'NONE',  ( -0.0000000000000000000, -0.0000000000000000000, -1.000000000000000000 ) ) ;
#53 = AXIS2_PLACEMENT_3D ( 'NONE', #39, #193, #297 ) ;
#54 = DIRECTION ( 'NONE',  ( 0.0000000000000000000, 0.0000000000000000000, 1.000000000000000000 ) ) ;
#55 = ADVANCED_FACE ( 'NONE', ( #91 ), #87, .T. ) ;
#56 = DIRECTION ( 'NONE',  ( 0.1736481776669312471, 0.0000000000000000000, 0.9848077530122077983 ) ) ;
#57 = LINE ( 'NONE', #150, #141 ) ;
#58 = AXIS2_PLACEMENT_3D ( 'NONE', #40, #264, #195 ) ;
#59 = CARTESIAN_POINT ( 'NONE',  ( 5.785733584359747758E-17, 0.0000000000000000000, 0.4724409999999999998 ) ) ;
#60 = ADVANCED_FACE ( 'NONE', ( #234 ), #98, .T. ) ;
#61 = DIRECTION ( 'NONE',  ( 1.000000000000000000, 0.0000000000000000000, 0.0000000000000000000 ) ) ;
#62 = CARTESIAN_POINT ( 'NONE',  ( -0.05899594499999999409, 0.0000000000000000000, 1.444983904138465938E-17 ) ) ;
#63 = SURFACE_STYLE_USAGE ( .BOTH. , #267 ) ;
#64 = APPLICATION_PROTOCOL_DEFINITION ( 'draft international standard', 'automotive_design', 1998, #201 ) ;
#65 = SURFACE_STYLE_USAGE ( .BOTH. , #181 ) ;
#66 = AXIS2_PLACEMENT_3D ( 'NONE', #140, #52, #117 ) ;
#67 = FILL_AREA_STYLE ('',( #84 ) ) ;
#68 =( LENGTH_UNIT ( ) NAMED_UNIT ( * ) SI_UNIT ( $, .METRE. ) );
#69 = VERTEX_POINT ( 'NONE', #212 ) ;
#70 = ADVANCED_FACE ( 'NONE', ( #72 ), #207, .T. ) ;
#71 = CARTESIAN_POINT ( 'NONE',  ( 5.785733584359747758E-17, 0.0000000000000000000, 0.4724409999999999998 ) ) ;
#72 = FACE_OUTER_BOUND ( 'NONE', #154, .T. ) ;
#73 = CARTESIAN_POINT ( 'NONE',  ( 0.05899594499999999409, 7.224919520692329689E-18, -9.478001694819074349E-34 ) ) ;
#74 = DIRECTION ( 'NONE',  ( 1.000000000000000000, 0.0000000000000000000, 0.0000000000000000000 ) ) ;
#75 = AXIS2_PLACEMENT_3D ( 'NONE', #32, #216, #208 ) ;
#76 = DIRECTION ( 'NONE',  ( -1.224646799147353207E-16, -0.0000000000000000000, -1.000000000000000000 ) ) ;
#77 =( CONVERSION_BASED_UNIT ( 'INCH', #227 ) LENGTH_UNIT ( ) NAMED_UNIT ( #295 ) );
#78 = DIRECTION ( 'NONE',  ( -1.224646799147353207E-16, -0.0000000000000000000, -1.000000000000000000 ) ) ;
#79 = FACE_OUTER_BOUND ( 'NONE', #155, .T. ) ;
#80 = FACE_OUTER_BOUND ( 'NONE', #210, .T. ) ;
#81 = CARTESIAN_POINT ( 'NONE',  ( -0.05905500000000001720, 0.0000000000000000000, 1.496062999999999921 ) ) ;
#82 = AXIS2_PLACEMENT_3D ( 'NONE', #217, #46, #74 ) ;
#83 = DIRECTION ( 'NONE',  ( 0.0000000000000000000, 0.0000000000000000000, 1.000000000000000000 ) ) ;
#84 = FILL_AREA_STYLE_COLOUR ( '', #99 ) ;
#85 = ORIENTED_EDGE ( 'NONE', *, *, #287, .F. ) ;
#86 = CIRCLE ( 'NONE', #165, 0.05899594499999999409 ) ;
#87 = CYLINDRICAL_SURFACE ( 'NONE', #293, 0.05899594500000000796 ) ;
#88 =( NAMED_UNIT ( * ) PLANE_ANGLE_UNIT ( ) SI_UNIT ( $, .RADIAN. ) );
#89 = VERTEX_POINT ( 'NONE', #292 ) ;
#90 = APPLICATION_CONTEXT ( 'automotive_design' ) ;
#91 = FACE_OUTER_BOUND ( 'NONE', #251, .T. ) ;
#92 = LINE ( 'NONE', #214, #179 ) ;
#93 = ORIENTED_EDGE ( 'NONE', *, *, #114, .F. ) ;
#94 = CIRCLE ( 'NONE', #213, 0.05905500000000001720 ) ;
#95 = DIRECTION ( 'NONE',  ( -1.000000000000000000, 0.0000000000000000000, 1.224646799147352961E-16 ) ) ;
#96 = DIRECTION ( 'NONE',  ( -0.0000000000000000000, -0.0000000000000000000, -1.000000000000000000 ) ) ;
#97 = DIRECTION ( 'NONE',  ( -0.0000000000000000000, -0.0000000000000000000, -1.000000000000000000 ) ) ;
#98 = CONICAL_SURFACE ( 'NONE', #164, 0.05899594500000000796, 0.1745329251994337527 ) ;
#99 = COLOUR_RGB ( '',0.7921568627450980005, 0.8196078431372548767, 0.9333333333333333481 ) ;
#100 = DIRECTION ( 'NONE',  ( -1.000000000000000000, 0.0000000000000000000, 0.0000000000000000000 ) ) ;
#101 = LINE ( 'NONE', #202, #190 ) ;
#102 = ORIENTED_EDGE ( 'NONE', *, *, #233, .F. ) ;
#103 = AXIS2_PLACEMENT_3D ( 'NONE', #173, #266, #245 ) ;
#104 = ADVANCED_FACE ( 'NONE', ( #79 ), #151, .T. ) ;
#105 = VECTOR ( 'NONE', #25, 39.37007874015748143 ) ;
#106 = PRODUCT_DEFINITION_SHAPE ( 'NONE', 'NONE',  #113 ) ;
#107 = ORIENTED_EDGE ( 'NONE', *, *, #124, .F. ) ;
#108 = CARTESIAN_POINT ( 'NONE',  ( -0.05899594500000000796, 0.0000000000000000000, 7.224919520692329689E-18 ) ) ;
#109 = ORIENTED_EDGE ( 'NONE', *, *, #171, .T. ) ;
#110 = AXIS2_PLACEMENT_3D ( 'NONE', #160, #148, #100 ) ;
#111 = ORIENTED_EDGE ( 'NONE', *, *, #41, .F. ) ;
#112 = AXIS2_PLACEMENT_3D ( 'NONE', #198, #37, #225 ) ;
#113 = PRODUCT_DEFINITION ( 'UNKNOWN', '', #184, #143 ) ;
#114 = EDGE_CURVE ( 'NONE', #206, #12, #286, .T. ) ;
#115 = ORIENTED_EDGE ( 'NONE', *, *, #275, .T. ) ;
#116 = FACE_OUTER_BOUND ( 'NONE', #44, .T. ) ;
#117 = DIRECTION ( 'NONE',  ( -1.000000000000000000, 0.0000000000000000000, 0.0000000000000000000 ) ) ;
#118 = CIRCLE ( 'NONE', #3, 0.04405499999999974020 ) ;
#119 =( GEOMETRIC_REPRESENTATION_CONTEXT ( 3 ) GLOBAL_UNCERTAINTY_ASSIGNED_CONTEXT ( ( #244 ) ) GLOBAL_UNIT_ASSIGNED_CONTEXT ( ( #253, #88, #149 ) ) REPRESENTATION_CONTEXT ( 'NONE', 'WORKASPACE' ) );
#120 = ORIENTED_EDGE ( 'NONE', *, *, #242, .F. ) ;
#121 = CARTESIAN_POINT ( 'NONE',  ( 0.04405499999999974020, 6.313666573004163292E-18, 1.496062999999999921 ) ) ;
#122 = EDGE_CURVE ( 'NONE', #135, #89, #180, .T. ) ;
#123 = CARTESIAN_POINT ( 'NONE',  ( 5.785733584359747758E-17, 0.0000000000000000000, 0.4724409999999999998 ) ) ;
#124 = EDGE_CURVE ( 'NONE', #2, #33, #220, .T. ) ;
#125 = ADVANCED_FACE ( 'NONE', ( #80 ), #128, .T. ) ;
#126 = CARTESIAN_POINT ( 'NONE',  ( 0.05905500000000001720, 7.232151672364695422E-18, 1.481062999999999574 ) ) ;
#127 = CARTESIAN_POINT ( 'NONE',  ( 8.847974565113090185E-34, 0.0000000000000000000, 7.224919520692329689E-18 ) ) ;
#128 = CYLINDRICAL_SURFACE ( 'NONE', #112, 0.05905500000000001720 ) ;
#129 = VECTOR ( 'NONE', #56, 39.37007874015748143 ) ;
#130 = CARTESIAN_POINT ( 'NONE',  ( 0.05899594500000006347, 0.0000000000000000000, 0.4724409999999999998 ) ) ;
#131 =( NAMED_UNIT ( * ) SI_UNIT ( $, .STERADIAN. ) SOLID_ANGLE_UNIT ( ) );
#132 = ORIENTED_EDGE ( 'NONE', *, *, #271, .F. ) ;
#133 = ORIENTED_EDGE ( 'NONE', *, *, #122, .T. ) ;
#134 = EDGE_CURVE ( 'NONE', #162, #69, #273, .T. ) ;
#135 = VERTEX_POINT ( 'NONE', #147 ) ;
#136 = CIRCLE ( 'NONE', #288, 0.05899594500000000796 ) ;
#137 = CARTESIAN_POINT ( 'NONE',  ( 0.0000000000000000000, 0.0000000000000000000, 0.0000000000000000000 ) ) ;
#138 = ORIENTED_EDGE ( 'NONE', *, *, #22, .T. ) ;
#139 = DIRECTION ( 'NONE',  ( -0.1736481776669310251, 2.126576849575781468E-17, 0.9848077530122080203 ) ) ;
#140 = CARTESIAN_POINT ( 'NONE',  ( 0.0000000000000000000, 0.0000000000000000000, 1.496062999999999921 ) ) ;
#141 = VECTOR ( 'NONE', #289, 39.37007874015748143 ) ;
#142 = DIRECTION ( 'NONE',  ( 0.0000000000000000000, 0.0000000000000000000, 1.000000000000000000 ) ) ;
#143 = PRODUCT_DEFINITION_CONTEXT ( 'detailed design', #201, 'design' ) ;
#144 = DIRECTION ( 'NONE',  ( -1.000000000000000000, 0.0000000000000000000, 0.0000000000000000000 ) ) ;
#145 = DIRECTION ( 'NONE',  ( 1.000000000000000000, 0.0000000000000000000, 0.0000000000000000000 ) ) ;
#146 = VECTOR ( 'NONE', #97, 39.37007874015748143 ) ;
#147 = CARTESIAN_POINT ( 'NONE',  ( -0.05905499999999995475, 0.0000000000000000000, 0.4727759175478575826 ) ) ;
#148 = DIRECTION ( 'NONE',  ( 0.0000000000000000000, 0.0000000000000000000, -1.000000000000000000 ) ) ;
#149 =( NAMED_UNIT ( * ) SI_UNIT ( $, .STERADIAN. ) SOLID_ANGLE_UNIT ( ) );
#150 = CARTESIAN_POINT ( 'NONE',  ( 0.04405499999999974020, 5.395181473643631161E-18, 1.496062999999999921 ) ) ;
#151 = CONICAL_SURFACE ( 'NONE', #27, 0.05899594500000000796, 0.1745329251994337527 ) ;
#152 = PRESENTATION_LAYER_ASSIGNMENT (  '', '', ( #49 ) ) ;
#153 = SHAPE_DEFINITION_REPRESENTATION ( #106, #282 ) ;
#154 = EDGE_LOOP ( 'NONE', ( #236, #107, #24, #9 ) ) ;
#155 = EDGE_LOOP ( 'NONE', ( #85, #120, #8, #109 ) ) ;
#156 =( NAMED_UNIT ( * ) PLANE_ANGLE_UNIT ( ) SI_UNIT ( $, .RADIAN. ) );
#157 = PLANE ( 'NONE',  #255 ) ;
#158 = EDGE_LOOP ( 'NONE', ( #10, #235, #115, #268 ) ) ;
#159 = CONICAL_SURFACE ( 'NONE', #224, 0.04405499999999974020, 0.7853981633974491672 ) ;
#160 = CARTESIAN_POINT ( 'NONE',  ( 0.0000000000000000000, 0.0000000000000000000, 1.496062999999999921 ) ) ;
#161 = EDGE_CURVE ( 'NONE', #274, #89, #223, .T. ) ;
#162 = VERTEX_POINT ( 'NONE', #290 ) ;
#163 = ORIENTED_EDGE ( 'NONE', *, *, #186, .T. ) ;
#164 = AXIS2_PLACEMENT_3D ( 'NONE', #71, #187, #256 ) ;
#165 = AXIS2_PLACEMENT_3D ( 'NONE', #127, #261, #291 ) ;
#166 = DIRECTION ( 'NONE',  ( -1.000000000000000000, 0.0000000000000000000, 0.0000000000000000000 ) ) ;
#167 = CARTESIAN_POINT ( 'NONE',  ( -0.04405499999999974020, 0.0000000000000000000, 1.496062999999999921 ) ) ;
#168 = DIRECTION ( 'NONE',  ( 1.224646799147353207E-16, 0.0000000000000000000, 1.000000000000000000 ) ) ;
#169 = UNCERTAINTY_MEASURE_WITH_UNIT (LENGTH_MEASURE( 1.000000000000000082E-05 ), #77, 'distance_accuracy_value', 'NONE');
#170 = DIMENSIONAL_EXPONENTS ( 1.000000000000000000, 0.0000000000000000000, 0.0000000000000000000, 0.0000000000000000000, 0.0000000000000000000, 0.0000000000000000000, 0.0000000000000000000 ) ;
#171 = EDGE_CURVE ( 'NONE', #89, #135, #94, .T. ) ;
#172 = FACE_OUTER_BOUND ( 'NONE', #176, .T. ) ;
#173 = CARTESIAN_POINT ( 'NONE',  ( 8.847974565113090185E-34, 0.0000000000000000000, 7.224919520692329689E-18 ) ) ;
#174 = EDGE_CURVE ( 'NONE', #33, #274, #57, .T. ) ;
#175 = AXIS2_PLACEMENT_3D ( 'NONE', #36, #78, #95 ) ;
#176 = EDGE_LOOP ( 'NONE', ( #111, #211, #226, #132 ) ) ;
#177 = ADVANCED_FACE ( 'NONE', ( #172 ), #159, .T. ) ;
#178 = DIRECTION ( 'NONE',  ( 1.000000000000000000, 0.0000000000000000000, 0.0000000000000000000 ) ) ;
#179 = VECTOR ( 'NONE', #188, 39.37007874015748143 ) ;
#180 = CIRCLE ( 'NONE', #53, 0.05905500000000001720 ) ;
#181 = SURFACE_SIDE_STYLE ('',( #45 ) ) ;
#182 = LENGTH_MEASURE_WITH_UNIT ( LENGTH_MEASURE( 0.02539999999999999897 ), #47 );
#183 = DIRECTION ( 'NONE',  ( -1.224646799147353207E-16, -0.0000000000000000000, -1.000000000000000000 ) ) ;
#184 = PRODUCT_DEFINITION_FORMATION_WITH_SPECIFIED_SOURCE ( 'ANY', '', #38, .NOT_KNOWN. ) ;
#185 = CYLINDRICAL_SURFACE ( 'NONE', #66, 0.05905500000000001720 ) ;
#186 = EDGE_CURVE ( 'NONE', #6, #274, #13, .T. ) ;
#187 = DIRECTION ( 'NONE',  ( 1.224646799147353207E-16, 0.0000000000000000000, 1.000000000000000000 ) ) ;
#188 = DIRECTION ( 'NONE',  ( -1.224646799147353207E-16, -0.0000000000000000000, -1.000000000000000000 ) ) ;
#189 = DIRECTION ( 'NONE',  ( -1.224646799147353207E-16, -0.0000000000000000000, -1.000000000000000000 ) ) ;
#190 = VECTOR ( 'NONE', #139, 39.37007874015748854 ) ;
#191 = CARTESIAN_POINT ( 'NONE',  ( 5.785733584359747758E-17, 0.0000000000000000000, 0.4724409999999999998 ) ) ;
#192 = DIMENSIONAL_EXPONENTS ( 1.000000000000000000, 0.0000000000000000000, 0.0000000000000000000, 0.0000000000000000000, 0.0000000000000000000, 0.0000000000000000000, 0.0000000000000000000 ) ;
#193 = DIRECTION ( 'NONE',  ( -1.224646799147353207E-16, -0.0000000000000000000, -1.000000000000000000 ) ) ;
#194 = EDGE_CURVE ( 'NONE', #12, #206, #86, .T. ) ;
#195 = DIRECTION ( 'NONE',  ( 1.000000000000000000, 0.0000000000000000000, 0.0000000000000000000 ) ) ;
#196 = VECTOR ( 'NONE', #96, 39.37007874015748143 ) ;
#197 = PRODUCT_RELATED_PRODUCT_CATEGORY ( 'part', '', ( #38 ) ) ;
#198 = CARTESIAN_POINT ( 'NONE',  ( 0.0000000000000000000, 0.0000000000000000000, 1.496062999999999921 ) ) ;
#199 = EDGE_CURVE ( 'NONE', #6, #135, #222, .T. ) ;
#200 =( CONVERSION_BASED_UNIT ( 'INCH', #230 ) LENGTH_UNIT ( ) NAMED_UNIT ( #192 ) );
#201 = APPLICATION_CONTEXT ( 'automotive_design' ) ;
#202 = CARTESIAN_POINT ( 'NONE',  ( -0.05899594499999994551, 7.224919520692329689E-18, 0.4724409999999999998 ) ) ;
#203 = MECHANICAL_DESIGN_GEOMETRIC_PRESENTATION_REPRESENTATION (  '', ( #49 ), #209 ) ;
#204 = CARTESIAN_POINT ( 'NONE',  ( 0.0000000000000000000, 0.0000000000000000000, 0.0000000000000000000 ) ) ;
#205 = PRESENTATION_STYLE_ASSIGNMENT (( #63 ) ) ;
#206 = VERTEX_POINT ( 'NONE', #62 ) ;
#207 = CONICAL_SURFACE ( 'NONE', #110, 0.04405499999999974020, 0.7853981633974491672 ) ;
#208 = DIRECTION ( 'NONE',  ( 1.000000000000000000, 0.0000000000000000000, -0.0000000000000000000 ) ) ;
#209 =( GEOMETRIC_REPRESENTATION_CONTEXT ( 3 ) GLOBAL_UNCERTAINTY_ASSIGNED_CONTEXT ( ( #263 ) ) GLOBAL_UNIT_ASSIGNED_CONTEXT ( ( #200, #156, #131 ) ) REPRESENTATION_CONTEXT ( 'NONE', 'WORKASPACE' ) );
#210 = EDGE_LOOP ( 'NONE', ( #21, #138, #257, #229 ) ) ;
#211 = ORIENTED_EDGE ( 'NONE', *, *, #174, .T. ) ;
#212 = CARTESIAN_POINT ( 'NONE',  ( 0.05899594500000006347, 0.0000000000000000000, 0.4724409999999999998 ) ) ;
#213 = AXIS2_PLACEMENT_3D ( 'NONE', #20, #189, #145 ) ;
#214 = CARTESIAN_POINT ( 'NONE',  ( 0.05899594500000000796, 7.224919520692329689E-18, -7.224919520692329689E-18 ) ) ;
#215 = APPLICATION_PROTOCOL_DEFINITION ( 'draft international standard', 'automotive_design', 1998, #90 ) ;
#216 = DIRECTION ( 'NONE',  ( 0.0000000000000000000, 0.0000000000000000000, 1.000000000000000000 ) ) ;
#217 = CARTESIAN_POINT ( 'NONE',  ( 0.0000000000000000000, 0.0000000000000000000, 1.481062999999999574 ) ) ;
#218 = DIRECTION ( 'NONE',  ( 1.000000000000000000, 0.0000000000000000000, 0.0000000000000000000 ) ) ;
#219 = DIRECTION ( 'NONE',  ( -1.224646799147353207E-16, -0.0000000000000000000, -1.000000000000000000 ) ) ;
#220 = CIRCLE ( 'NONE', #58, 0.04405499999999974020 ) ;
#221 = DIRECTION ( 'NONE',  ( 1.000000000000000000, 0.0000000000000000000, 0.0000000000000000000 ) ) ;
#222 = LINE ( 'NONE', #81, #146 ) ;
#223 = LINE ( 'NONE', #18, #196 ) ;
#224 = AXIS2_PLACEMENT_3D ( 'NONE', #35, #17, #166 ) ;
#225 = DIRECTION ( 'NONE',  ( -1.000000000000000000, 0.0000000000000000000, 0.0000000000000000000 ) ) ;
#226 = ORIENTED_EDGE ( 'NONE', *, *, #186, .F. ) ;
#227 = LENGTH_MEASURE_WITH_UNIT ( LENGTH_MEASURE( 0.02539999999999999897 ), #68 );
#228 = FACE_OUTER_BOUND ( 'NONE', #34, .T. ) ;
#229 = ORIENTED_EDGE ( 'NONE', *, *, #171, .F. ) ;
#230 = LENGTH_MEASURE_WITH_UNIT ( LENGTH_MEASURE( 0.02539999999999999897 ), #270 );
#231 = AXIS2_PLACEMENT_3D ( 'NONE', #204, #83, #178 ) ;
#232 = CARTESIAN_POINT ( 'NONE',  ( -0.05905500000000001720, 0.0000000000000000000, 1.481062999999999574 ) ) ;
#233 = EDGE_CURVE ( 'NONE', #69, #89, #246, .T. ) ;
#234 = FACE_OUTER_BOUND ( 'NONE', #26, .T. ) ;
#235 = ORIENTED_EDGE ( 'NONE', *, *, #242, .T. ) ;
#236 = ORIENTED_EDGE ( 'NONE', *, *, #174, .F. ) ;
#237 = FILL_AREA_STYLE_COLOUR ( '', #241 ) ;
#238 = ORIENTED_EDGE ( 'NONE', *, *, #122, .F. ) ;
#239 = FACE_OUTER_BOUND ( 'NONE', #158, .T. ) ;
#240 = CYLINDRICAL_SURFACE ( 'NONE', #175, 0.05899594500000000796 ) ;
#241 = COLOUR_RGB ( '',0.7921568627450980005, 0.8196078431372548767, 0.9333333333333333481 ) ;
#242 = EDGE_CURVE ( 'NONE', #69, #162, #136, .T. ) ;
#243 = CARTESIAN_POINT ( 'NONE',  ( 0.0000000000000000000, 0.0000000000000000000, 1.481062999999999574 ) ) ;
#244 = UNCERTAINTY_MEASURE_WITH_UNIT (LENGTH_MEASURE( 1.000000000000000082E-05 ), #253, 'distance_accuracy_value', 'NONE');
#245 = DIRECTION ( 'NONE',  ( -1.000000000000000000, 0.0000000000000000000, 1.224646799147353454E-16 ) ) ;
#246 = LINE ( 'NONE', #130, #129 ) ;
#247 =( GEOMETRIC_REPRESENTATION_CONTEXT ( 3 ) GLOBAL_UNCERTAINTY_ASSIGNED_CONTEXT ( ( #169 ) ) GLOBAL_UNIT_ASSIGNED_CONTEXT ( ( #77, #19, #281 ) ) REPRESENTATION_CONTEXT ( 'NONE', 'WORKASPACE' ) );
#248 = PRESENTATION_STYLE_ASSIGNMENT (( #65 ) ) ;
#249 = CIRCLE ( 'NONE', #82, 0.05905500000000001720 ) ;
#250 = ORIENTED_EDGE ( 'NONE', *, *, #134, .F. ) ;
#251 = EDGE_LOOP ( 'NONE', ( #1, #252, #93, #283 ) ) ;
#252 = ORIENTED_EDGE ( 'NONE', *, *, #30, .T. ) ;
#253 =( CONVERSION_BASED_UNIT ( 'INCH', #182 ) LENGTH_UNIT ( ) NAMED_UNIT ( #170 ) );
#254 = ADVANCED_FACE ( 'NONE', ( #239 ), #240, .T. ) ;
#255 = AXIS2_PLACEMENT_3D ( 'NONE', #137, #142, #28 ) ;
#256 = DIRECTION ( 'NONE',  ( 1.000000000000000000, 0.0000000000000000000, 0.0000000000000000000 ) ) ;
#257 = ORIENTED_EDGE ( 'NONE', *, *, #199, .T. ) ;
#258 = ORIENTED_EDGE ( 'NONE', *, *, #194, .T. ) ;
#259 = VECTOR ( 'NONE', #262, 39.37007874015748143 ) ;
#260 = ORIENTED_EDGE ( 'NONE', *, *, #287, .T. ) ;
#261 = DIRECTION ( 'NONE',  ( -1.224646799147353207E-16, -0.0000000000000000000, -1.000000000000000000 ) ) ;
#262 = DIRECTION ( 'NONE',  ( -0.7071067811865482389, 0.0000000000000000000, -0.7071067811865469066 ) ) ;
#263 = UNCERTAINTY_MEASURE_WITH_UNIT (LENGTH_MEASURE( 1.000000000000000082E-05 ), #200, 'distance_accuracy_value', 'NONE');
#264 = DIRECTION ( 'NONE',  ( 0.0000000000000000000, 0.0000000000000000000, 1.000000000000000000 ) ) ;
#265 = DIRECTION ( 'NONE',  ( 0.0000000000000000000, 0.0000000000000000000, -1.000000000000000000 ) ) ;
#266 = DIRECTION ( 'NONE',  ( -1.224646799147353207E-16, -0.0000000000000000000, -1.000000000000000000 ) ) ;
#267 = SURFACE_SIDE_STYLE ('',( #42 ) ) ;
#268 = ORIENTED_EDGE ( 'NONE', *, *, #194, .F. ) ;
#269 = PRODUCT_CONTEXT ( 'NONE', #90, 'mechanical' ) ;
#270 =( LENGTH_UNIT ( ) NAMED_UNIT ( * ) SI_UNIT ( $, .METRE. ) );
#271 = EDGE_CURVE ( 'NONE', #2, #6, #15, .T. ) ;
#272 = EDGE_LOOP ( 'NONE', ( #163, #50, #238, #276 ) ) ;
#273 = CIRCLE ( 'NONE', #4, 0.05899594500000000796 ) ;
#274 = VERTEX_POINT ( 'NONE', #126 ) ;
#275 = EDGE_CURVE ( 'NONE', #162, #206, #23, .T. ) ;
#276 = ORIENTED_EDGE ( 'NONE', *, *, #199, .F. ) ;
#277 = DIRECTION ( 'NONE',  ( -1.000000000000000000, 0.0000000000000000000, 1.224646799147352961E-16 ) ) ;
#278 = MECHANICAL_DESIGN_GEOMETRIC_PRESENTATION_REPRESENTATION (  '', ( #279 ), #119 ) ;
#279 = STYLED_ITEM ( 'NONE', ( #248 ), #282 ) ;
#280 = CARTESIAN_POINT ( 'NONE',  ( 0.0000000000000000000, 0.0000000000000000000, 0.0000000000000000000 ) ) ;
#281 =( NAMED_UNIT ( * ) SI_UNIT ( $, .STERADIAN. ) SOLID_ANGLE_UNIT ( ) );
#282 = ADVANCED_BREP_SHAPE_REPRESENTATION ( 'Micro_SFLM-030-20', ( #284, #231 ), #247 ) ;
#283 = ORIENTED_EDGE ( 'NONE', *, *, #275, .F. ) ;
#284 = MANIFOLD_SOLID_BREP ( 'Cut-Revolve1', #48 ) ;
#285 = CARTESIAN_POINT ( 'NONE',  ( 0.0000000000000000000, 0.0000000000000000000, 1.496062999999999921 ) ) ;
#286 = CIRCLE ( 'NONE', #103, 0.05899594499999999409 ) ;
#287 = EDGE_CURVE ( 'NONE', #162, #135, #101, .T. ) ;
#288 = AXIS2_PLACEMENT_3D ( 'NONE', #123, #219, #144 ) ;
#289 = DIRECTION ( 'NONE',  ( 0.7071067811865482389, 8.659560562354941486E-17, -0.7071067811865469066 ) ) ;
#290 = CARTESIAN_POINT ( 'NONE',  ( -0.05899594499999994551, 7.228535596528513326E-18, 0.4724409999999999998 ) ) ;
#291 = DIRECTION ( 'NONE',  ( -1.000000000000000000, 0.0000000000000000000, 1.224646799147353454E-16 ) ) ;
#292 = CARTESIAN_POINT ( 'NONE',  ( 0.05905500000000007965, 7.232151672364703126E-18, 0.4727759175478575826 ) ) ;
#293 = AXIS2_PLACEMENT_3D ( 'NONE', #280, #183, #277 ) ;
#294 = PRESENTATION_LAYER_ASSIGNMENT (  '', '', ( #279 ) ) ;
#295 = DIMENSIONAL_EXPONENTS ( 1.000000000000000000, 0.0000000000000000000, 0.0000000000000000000, 0.0000000000000000000, 0.0000000000000000000, 0.0000000000000000000, 0.0000000000000000000 ) ;
#296 = ADVANCED_FACE ( 'NONE', ( #228 ), #5, .T. ) ;
#297 = DIRECTION ( 'NONE',  ( 1.000000000000000000, 0.0000000000000000000, 0.0000000000000000000 ) ) ;
#298 = AXIS2_PLACEMENT_3D ( 'NONE', #243, #265, #61 ) ;
#299 = ORIENTED_EDGE ( 'NONE', *, *, #41, .T. ) ;
ENDSEC;
END-ISO-10303-21;
